  0
SECTION
  2
HEADER
  9
$ACADVER
  1
AC1015
  9
$ACADMAINTVER
 70
     6
  9
$DWGCODEPAGE
  3
ANSI_1252
  9
$INSBASE
 10
0.0
 20
0.0
 30
0.0
  9
$EXTMIN
 10
0.0
 20
0.0
 30
0.0
  9
$EXTMAX
 10
25.0
 20
35.0
 30
0.0
  9
$LIMMIN
 10
0.0
 20
0.0
  9
$LIMMAX
 10
420.0
 20
297.0
  9
$ORTHOMODE
 70
     0
  9
$REGENMODE
 70
     1
  9
$FILLMODE
 70
     1
  9
$QTEXTMODE
 70
     0
  9
$MIRRTEXT
 70
     1
  9
$LTSCALE
 40
4.2
  9
$ATTMODE
 70
     1
  9
$TEXTSIZE
 40
2.5
  9
$TRACEWID
 40
1.0
  9
$TEXTSTYLE
  7
Standard
  9
$CLAYER
  8
0
  9
$CELTYPE
  6
ByLayer
  9
$CECOLOR
 62
   256
  9
$CELTSCALE
 40
1.0
  9
$DISPSILH
 70
     0
  9
$DIMSCALE
 40
1.0
  9
$DIMASZ
 40
2.5
  9
$DIMEXO
 40
0.625
  9
$DIMDLI
 40
3.75
  9
$DIMRND
 40
0.0
  9
$DIMDLE
 40
0.0
  9
$DIMEXE
 40
1.25
  9
$DIMTP
 40
0.0
  9
$DIMTM
 40
0.0
  9
$DIMTXT
 40
2.5
  9
$DIMCEN
 40
2.5
  9
$DIMTSZ
 40
0.0
  9
$DIMTOL
 70
     0
  9
$DIMLIM
 70
     0
  9
$DIMTIH
 70
     0
  9
$DIMTOH
 70
     0
  9
$DIMSE1
 70
     0
  9
$DIMSE2
 70
     0
  9
$DIMTAD
 70
     1
  9
$DIMZIN
 70
     8
  9
$DIMBLK
  1

  9
$DIMASO
 70
     1
  9
$DIMSHO
 70
     1
  9
$DIMPOST
  1

  9
$DIMAPOST
  1

  9
$DIMALT
 70
     0
  9
$DIMALTD
 70
     3
  9
$DIMALTF
 40
0.03937007874016
  9
$DIMLFAC
 40
1.0
  9
$DIMTOFL
 70
     1
  9
$DIMTVP
 40
0.0
  9
$DIMTIX
 70
     0
  9
$DIMSOXD
 70
     0
  9
$DIMSAH
 70
     0
  9
$DIMBLK1
  1

  9
$DIMBLK2
  1

  9
$DIMSTYLE
  2
ISO-25
  9
$DIMCLRD
 70
     0
  9
$DIMCLRE
 70
     0
  9
$DIMCLRT
 70
     0
  9
$DIMTFAC
 40
1.0
  9
$DIMGAP
 40
0.625
  9
$DIMJUST
 70
     0
  9
$DIMSD1
 70
     0
  9
$DIMSD2
 70
     0
  9
$DIMTOLJ
 70
     0
  9
$DIMTZIN
 70
     8
  9
$DIMALTZ
 70
     0
  9
$DIMALTTZ
 70
     0
  9
$DIMUPT
 70
     0
  9
$DIMDEC
 70
     2
  9
$DIMTDEC
 70
     2
  9
$DIMALTU
 70
     2
  9
$DIMALTTD
 70
     3
  9
$DIMTXSTY
  7
Standard
  9
$DIMAUNIT
 70
     0
  9
$DIMADEC
 70
     0
  9
$DIMALTRND
 40
0.0
  9
$DIMAZIN
 70
     0
  9
$DIMDSEP
 70
    44
  9
$DIMATFIT
 70
     3
  9
$DIMFRAC
 70
     0
  9
$DIMLDRBLK
  1

  9
$DIMLUNIT
 70
     2
  9
$DIMLWD
 70
    -2
  9
$DIMLWE
 70
    -2
  9
$DIMTMOVE
 70
     0
  9
$LUNITS
 70
     2
  9
$LUPREC
 70
     4
  9
$SKETCHINC
 40
1.0
  9
$FILLETRAD
 40
10.0
  9
$AUNITS
 70
     0
  9
$AUPREC
 70
     0
  9
$MENU
  1
.
  9
$ELEVATION
 40
0.0
  9
$PELEVATION
 40
0.0
  9
$THICKNESS
 40
0.0
  9
$LIMCHECK
 70
     0
  9
$CHAMFERA
 40
10.0
  9
$CHAMFERB
 40
10.0
  9
$CHAMFERC
 40
20.0
  9
$CHAMFERD
 40
0.0
  9
$SKPOLY
 70
     0
  9
$TDCREATE
 40
2458578.375
  9
$TDUCREATE
 40
2458578.291666667
  9
$TDUPDATE
 40
2458578.378472222
  9
$TDUUPDATE
 40
2458578.295138889
  9
$TDINDWG
 40
0.0000000116
  9
$TDUSRTIMER
 40
0.0000000116
  9
$USRTIMER
 70
     1
  9
$ANGBASE
 50
0.0
  9
$ANGDIR
 70
     0
  9
$PDMODE
 70
     0
  9
$PDSIZE
 40
0.0
  9
$PLINEWID
 40
0.0
  9
$SPLFRAME
 70
     0
  9
$SPLINETYPE
 70
     6
  9
$SPLINESEGS
 70
     8
  9
$HANDSEED
  5
D2B
  9
$SURFTAB1
 70
     6
  9
$SURFTAB2
 70
     6
  9
$SURFTYPE
 70
     6
  9
$SURFU
 70
     6
  9
$SURFV
 70
     6
  9
$UCSBASE
  2

  9
$UCSNAME
  2

  9
$UCSORG
 10
0.0
 20
0.0
 30
0.0
  9
$UCSXDIR
 10
1.0
 20
0.0
 30
0.0
  9
$UCSYDIR
 10
0.0
 20
1.0
 30
0.0
  9
$UCSORTHOREF
  2

  9
$UCSORTHOVIEW
 70
     0
  9
$UCSORGTOP
 10
0.0
 20
0.0
 30
0.0
  9
$UCSORGBOTTOM
 10
0.0
 20
0.0
 30
0.0
  9
$UCSORGLEFT
 10
0.0
 20
0.0
 30
0.0
  9
$UCSORGRIGHT
 10
0.0
 20
0.0
 30
0.0
  9
$UCSORGFRONT
 10
0.0
 20
0.0
 30
0.0
  9
$UCSORGBACK
 10
0.0
 20
0.0
 30
0.0
  9
$PUCSBASE
  2

  9
$PUCSNAME
  2

  9
$PUCSORG
 10
0.0
 20
0.0
 30
0.0
  9
$PUCSXDIR
 10
1.0
 20
0.0
 30
0.0
  9
$PUCSYDIR
 10
0.0
 20
1.0
 30
0.0
  9
$PUCSORTHOREF
  2

  9
$PUCSORTHOVIEW
 70
     0
  9
$PUCSORGTOP
 10
0.0
 20
0.0
 30
0.0
  9
$PUCSORGBOTTOM
 10
0.0
 20
0.0
 30
0.0
  9
$PUCSORGLEFT
 10
0.0
 20
0.0
 30
0.0
  9
$PUCSORGRIGHT
 10
0.0
 20
0.0
 30
0.0
  9
$PUCSORGFRONT
 10
0.0
 20
0.0
 30
0.0
  9
$PUCSORGBACK
 10
0.0
 20
0.0
 30
0.0
  9
$USERI1
 70
     0
  9
$USERI2
 70
     0
  9
$USERI3
 70
     0
  9
$USERI4
 70
     0
  9
$USERI5
 70
     0
  9
$USERR1
 40
0.0
  9
$USERR2
 40
0.0
  9
$USERR3
 40
0.0
  9
$USERR4
 40
0.0
  9
$USERR5
 40
0.0
  9
$WORLDVIEW
 70
     1
  9
$SHADEDGE
 70
     3
  9
$SHADEDIF
 70
    70
  9
$TILEMODE
 70
     1
  9
$MAXACTVP
 70
    64
  9
$PINSBASE
 10
0.0
 20
0.0
 30
0.0
  9
$PLIMCHECK
 70
     0
  9
$PEXTMIN
 10
1.000000000000000E+20
 20
1.000000000000000E+20
 30
1.000000000000000E+20
  9
$PEXTMAX
 10
-1.000000000000000E+20
 20
-1.000000000000000E+20
 30
-1.000000000000000E+20
  9
$PLIMMIN
 10
0.0
 20
0.0
  9
$PLIMMAX
 10
420.0
 20
297.0
  9
$UNITMODE
 70
     0
  9
$VISRETAIN
 70
     1
  9
$PLINEGEN
 70
     0
  9
$PSLTSCALE
 70
     1
  9
$TREEDEPTH
 70
  3020
  9
$CMLSTYLE
  2
Standard
  9
$CMLJUST
 70
     0
  9
$CMLSCALE
 40
20.0
  9
$PROXYGRAPHICS
 70
     1
  9
$MEASUREMENT
 70
     1
  9
$CELWEIGHT
370
    -1
  9
$ENDCAPS
280
     0
  9
$JOINSTYLE
280
     0
  9
$LWDISPLAY
290
     0
  9
$INSUNITS
 70
     4
  9
$HYPERLINKBASE
  1

  9
$STYLESHEET
  1

  9
$XEDIT
290
     1
  9
$CEPSNTYPE
380
     0
  9
$PSTYLEMODE
290
     1
  9
$FINGERPRINTGUID
  2
{E6EC1394-13D0-4D79-8C97-FD022DB4E7AB}
  9
$VERSIONGUID
  2
{FAEB1C32-E019-11D5-929B-00C0DF256EC4}
  9
$EXTNAMES
290
     1
  9
$PSVPSCALE
 40
0.0
  9
$OLESTARTUP
290
     0
  0
ENDSEC
  0
SECTION
  2
CLASSES
  0
CLASS
  1
ACDBDICTIONARYWDFLT
  2
AcDbDictionaryWithDefault
  3
ObjectDBX Classes
 90
        0
280
     0
281
     0
  0
CLASS
  1
VISUALSTYLE
  2
AcDbVisualStyle
  3
ObjectDBX Classes
 90
     4095
280
     0
281
     0
  0
CLASS
  1
MATERIAL
  2
AcDbMaterial
  3
ObjectDBX Classes
 90
     1153
280
     0
281
     0
  0
CLASS
  1
SCALE
  2
AcDbScale
  3
ObjectDBX Classes
 90
     1153
280
     0
281
     0
  0
CLASS
  1
DICTIONARYVAR
  2
AcDbDictionaryVar
  3
ObjectDBX Classes
 90
        0
280
     0
281
     0
  0
CLASS
  1
ACDBPLACEHOLDER
  2
AcDbPlaceHolder
  3
ObjectDBX Classes
 90
        0
280
     0
281
     0
  0
CLASS
  1
LAYOUT
  2
AcDbLayout
  3
ObjectDBX Classes
 90
        0
280
     0
281
     0
  0
ENDSEC
  0
SECTION
  2
TABLES
  0
TABLE
  2
VPORT
  5
8
330
0
100
AcDbSymbolTable
 70
     1
  0
VPORT
  5
29
330
8
100
AcDbSymbolTableRecord
100
AcDbViewportTableRecord
  2
*Active
 70
     0
 10
0.0
 20
0.0
 11
1.0
 21
1.0
 12
11.26
 22
4.5
 13
0.0
 23
0.0
 14
10.0
 24
10.0
 15
10.0
 25
10.0
 16
0.0
 26
0.0
 36
1.0
 17
0.0
 27
0.0
 37
0.0
 40
9.0
 41
2.503333333333333
 42
50.0
 43
0.0
 44
0.0
 50
0.0
 51
0.0
 71
     0
 72
   100
 73
     1
 74
     3
 75
     0
 76
     0
 77
     0
 78
     0
281
     0
 65
     1
110
0.0
120
0.0
130
0.0
111
1.0
121
0.0
131
0.0
112
0.0
122
1.0
132
0.0
 79
     0
146
0.0
  0
ENDTAB
  0
TABLE
  2
LTYPE
  5
5
330
0
100
AcDbSymbolTable
 70
    10
  0
LTYPE
  5
14
330
5
100
AcDbSymbolTableRecord
100
AcDbLinetypeTableRecord
  2
ByBlock
 70
     0
  3

 72
    65
 73
     0
 40
0.0
  0
LTYPE
  5
15
330
5
100
AcDbSymbolTableRecord
100
AcDbLinetypeTableRecord
  2
ByLayer
 70
     0
  3

 72
    65
 73
     0
 40
0.0
  0
LTYPE
  5
16
330
5
100
AcDbSymbolTableRecord
100
AcDbLinetypeTableRecord
  2
Continuous
 70
     0
  3
Solid line
 72
    65
 73
     0
 40
0.0
  0
LTYPE
  5
45
330
5
100
AcDbSymbolTableRecord
100
AcDbLinetypeTableRecord
  2
phl_thick
 70
     0
  3
THICK
 72
    65
 73
     0
 40
0.0
  0
LTYPE
  5
45D
330
5
100
AcDbSymbolTableRecord
100
AcDbLinetypeTableRecord
  2
CUT
 70
     0
  3
THICK
 72
    65
 73
     0
 40
0.0
  0
LTYPE
  5
464
330
5
100
AcDbSymbolTableRecord
100
AcDbLinetypeTableRecord
  2
NOCUT
 70
     0
  3
THICK
 72
    65
 73
     0
 40
0.0
  0
LTYPE
  5
46D
330
5
100
AcDbSymbolTableRecord
100
AcDbLinetypeTableRecord
  2
SK1
 70
     0
  3
THICK
 72
    65
 73
     0
 40
0.0
  0
LTYPE
  5
475
330
5
100
AcDbSymbolTableRecord
100
AcDbLinetypeTableRecord
  2
ls_SK2
 70
     0
  3
THIN
 72
    65
 73
     0
 40
0.0
  0
LTYPE
  5
520
330
5
100
AcDbSymbolTableRecord
100
AcDbLinetypeTableRecord
  2
ls_2
 70
     0
  3
THIN
 72
    65
 73
     0
 40
0.0
  0
LTYPE
  5
671
330
5
100
AcDbSymbolTableRecord
100
AcDbLinetypeTableRecord
  2
ls_SK1
 70
     0
  3
THICK
 72
    65
 73
     0
 40
0.0
  0
LTYPE
  5
6AB
330
5
100
AcDbSymbolTableRecord
100
AcDbLinetypeTableRecord
  2
LONGDASH_DASH
 70
     0
  3
THIN_DASHDOT
 72
    65
 73
     4
 40
0.85
 49
0.4
 74
     0
 49
-0.2
 74
     0
 49
0.05
 74
     0
 49
-0.2
 74
     0
  0
LTYPE
  5
6B0
330
5
100
AcDbSymbolTableRecord
100
AcDbLinetypeTableRecord
  2
ls1
 70
     0
  3
THICK
 72
    65
 73
     0
 40
0.0
  0
ENDTAB
  0
TABLE
  2
LAYER
  5
2
330
0
100
AcDbSymbolTable
 70
    10
  0
LAYER
  5
10
330
2
100
AcDbSymbolTableRecord
100
AcDbLayerTableRecord
  2
0
 70
     0
 62
     7
  6
Continuous
370
    -3
390
F
  0
LAYER
  5
44
330
2
100
AcDbSymbolTableRecord
100
AcDbLayerTableRecord
  2
1
 70
     0
 62
4
  6
CONTINUOUS
370
50
370
    -3
390
F
  0
LAYER
  5
45C
330
2
100
AcDbSymbolTableRecord
100
AcDbLayerTableRecord
  2
CUT
 70
     0
 62
1
  6
CONTINUOUS
370
25
370
    -3
390
F
  0
LAYER
  5
463
330
2
100
AcDbSymbolTableRecord
100
AcDbLayerTableRecord
  2
NOCUT
 70
     0
 62
7
  6
CONTINUOUS
370
25
370
    -3
390
F
  0
LAYER
  5
46C
330
2
100
AcDbSymbolTableRecord
100
AcDbLayerTableRecord
  2
SK1
 70
     0
 62
4
  6
CONTINUOUS
370
50
370
    -3
390
F
  0
LAYER
  5
474
330
2
100
AcDbSymbolTableRecord
100
AcDbLayerTableRecord
  2
SK2
 70
     0
 62
7
  6
CONTINUOUS
370
25
370
    -3
390
F
  0
LAYER
  5
51F
330
2
100
AcDbSymbolTableRecord
100
AcDbLayerTableRecord
  2
2
 70
     0
 62
7
  6
CONTINUOUS
370
25
370
    -3
390
F
  0
LAYER
  5
6AA
330
2
100
AcDbSymbolTableRecord
100
AcDbLayerTableRecord
  2
4
 70
     0
 62
2
  6
LONGDASH_DASH
370
25
370
    -3
390
F
  0
LAYER
  5
6AD
330
2
100
AcDbSymbolTableRecord
100
AcDbLayerTableRecord
  2
SK4
 70
     0
 62
2
  6
LONGDASH_DASH
370
25
370
    -3
390
F
  0
LAYER
  5
6AF
330
2
100
AcDbSymbolTableRecord
100
AcDbLayerTableRecord
  2
SK6
 70
     0
 62
5
  6
CONTINUOUS
370
25
370
    -3
390
F
  0
ENDTAB
  0
TABLE
  2
STYLE
  5
3
330
0
100
AcDbSymbolTable
 70
     1
  0
STYLE
  5
11
330
3
100
AcDbSymbolTableRecord
100
AcDbTextStyleTableRecord
  2
Standard
 70
     0
 40
0.0
 41
1.0
 50
0.0
 71
     0
 42
2.5
  3
Monospac821 BT
  4

  0
ENDTAB
  0
TABLE
  2
VIEW
  5
6
330
0
100
AcDbSymbolTable
 70
     0
  0
ENDTAB
  0
TABLE
  2
UCS
  5
7
330
0
100
AcDbSymbolTable
 70
     0
  0
ENDTAB
  0
TABLE
  2
APPID
  5
9
330
0
100
AcDbSymbolTable
 70
     2
  0
APPID
  5
12
330
9
100
AcDbSymbolTableRecord
100
AcDbRegAppTableRecord
  2
ACAD
 70
     0
  0
APPID
  5
3F
330
9
100
AcDbSymbolTableRecord
100
AcDbRegAppTableRecord
  2
ccLab
 70
     0
  0
ENDTAB
  0
TABLE
  2
DIMSTYLE
  5
A
330
0
100
AcDbSymbolTable
 70
     1
100
AcDbDimStyleTable
  0
DIMSTYLE
105
27
330
A
100
AcDbSymbolTableRecord
100
AcDbDimStyleTableRecord
  2
ISO-25
 70
     0
 41
2.5
 42
0.625
 43
3.75
 44
1.25
 73
     0
 74
     0
 77
     1
 78
     8
140
2.5
141
2.5
143
0.03937007874016
147
0.625
171
     3
172
     1
271
     2
272
     2
274
     3
278
    44
283
     0
284
     8
340
11
  0
ENDTAB
  0
TABLE
  2
BLOCK_RECORD
  5
1
330
0
100
AcDbSymbolTable
 70
     2
  0
BLOCK_RECORD
  5
1F
330
1
100
AcDbSymbolTableRecord
100
AcDbBlockTableRecord
  2
*Model_Space
340
22
  0
BLOCK_RECORD
  5
1B
330
1
100
AcDbSymbolTableRecord
100
AcDbBlockTableRecord
  2
*Paper_Space
340
1E
  0
BLOCK_RECORD
  5
23
330
1
100
AcDbSymbolTableRecord
100
AcDbBlockTableRecord
  2
*Paper_Space0
340
26
  0
ENDTAB
  0
ENDSEC
  0
SECTION
  2
BLOCKS
  0
BLOCK
  5
20
330
1F
100
AcDbEntity
  8
0
100
AcDbBlockBegin
  2
*Model_Space
 70
     0
 10
0.0
 20
0.0
 30
0.0
  3
*Model_Space
  1

  0
ENDBLK
  5
21
330
1F
100
AcDbEntity
  8
0
100
AcDbBlockEnd
  0
BLOCK
  5
1C
330
1B
100
AcDbEntity
 67
     1
  8
0
100
AcDbBlockBegin
  2
*Paper_Space
 70
     0
 10
0.0
 20
0.0
 30
0.0
  3
*Paper_Space
  1

  0
ENDBLK
  5
1D
330
1B
100
AcDbEntity
 67
     1
  8
0
100
AcDbBlockEnd
  0
BLOCK
  5
24
330
23
100
AcDbEntity
  8
0
100
AcDbBlockBegin
  2
*Paper_Space0
 70
     0
 10
0.0
 20
0.0
 30
0.0
  3
*Paper_Space0
  1

  0
ENDBLK
  5
25
330
23
100
AcDbEntity
  8
0
100
AcDbBlockEnd
  0
ENDSEC
  0
SECTION
  2
ENTITIES
  0
LINE
  5
6BA
330
1F
100
AcDbEntity
  8
1
  6
CONTINUOUS
370
50
 62
4
100
AcDbLine
 10
59.841946
 20
0.30542
 30
0.0
 11
59.84193
 21
0.311019
 31
0.0
  0
LINE
  5
6BB
330
1F
100
AcDbEntity
  8
1
  6
CONTINUOUS
370
50
 62
4
100
AcDbLine
 10
59.942162
 20
-0.107325
 30
0.0
 11
59.942135
 21
-0.102416
 31
0.0
  0
LINE
  5
6BC
330
1F
100
AcDbEntity
  8
1
  6
CONTINUOUS
370
50
 62
4
100
AcDbLine
 10
59.93964399999999
 20
-0.215552
 30
0.0
 11
59.939445
 21
-0.192114
 31
0.0
  0
LINE
  5
6BD
330
1F
100
AcDbEntity
  8
1
  6
CONTINUOUS
370
50
 62
4
100
AcDbLine
 10
59.942135
 20
-0.102416
 30
0.0
 11
59.942055
 21
-0.09751
 31
0.0
  0
LINE
  5
6BE
330
1F
100
AcDbEntity
  8
1
  6
CONTINUOUS
370
50
 62
4
100
AcDbLine
 10
59.841969
 20
0.088253
 30
0.0
 11
59.841896
 21
0.092441
 31
0.0
  0
LINE
  5
6BF
330
1F
100
AcDbEntity
  8
1
  6
CONTINUOUS
370
50
 62
4
100
AcDbLine
 10
57.170105
 20
0.01775
 30
0.0
 11
57.16988
 21
0.026812
 31
0.0
  0
LINE
  5
6C0
330
1F
100
AcDbEntity
  8
1
  6
CONTINUOUS
370
50
 62
4
100
AcDbLine
 10
59.942055
 20
-0.09751
 30
0.0
 11
59.941914
 21
-0.092615
 31
0.0
  0
LINE
  5
6C1
330
1F
100
AcDbEntity
  8
1
  6
CONTINUOUS
370
50
 62
4
100
AcDbLine
 10
59.940372
 20
-0.238953
 30
0.0
 11
59.93964399999999
 21
-0.215552
 31
0.0
  0
LINE
  5
6C2
330
1F
100
AcDbEntity
  8
1
  6
CONTINUOUS
370
50
 62
4
100
AcDbLine
 10
59.941914
 20
-0.092615
 30
0.0
 11
59.941723
 21
-0.087738
 31
0.0
  0
LINE
  5
6C3
330
1F
100
AcDbEntity
  8
1
  6
CONTINUOUS
370
50
 62
4
100
AcDbLine
 10
59.84193
 20
0.311019
 30
0.0
 11
59.841663
 21
0.316843
 31
0.0
  0
LINE
  5
6C4
330
1F
100
AcDbEntity
  8
1
  6
CONTINUOUS
370
50
 62
4
100
AcDbLine
 10
59.941723
 20
-0.087738
 30
0.0
 11
59.94147899999999
 21
-0.082885
 31
0.0
  0
LINE
  5
6C5
330
1F
100
AcDbEntity
  8
1
  6
CONTINUOUS
370
50
 62
4
100
AcDbLine
 10
59.941639
 20
-0.262197
 30
0.0
 11
59.940372
 21
-0.238953
 31
0.0
  0
LINE
  5
6C6
330
1F
100
AcDbEntity
  8
1
  6
CONTINUOUS
370
50
 62
4
100
AcDbLine
 10
59.94147899999999
 20
-0.082885
 30
0.0
 11
59.941185
 21
-0.078059
 31
0.0
  0
LINE
  5
6C7
330
1F
100
AcDbEntity
  8
1
  6
CONTINUOUS
370
50
 62
4
100
AcDbLine
 10
59.841896
 20
0.092441
 30
0.0
 11
59.84164
 21
0.096557
 31
0.0
  0
LINE
  5
6C8
330
1F
100
AcDbEntity
  8
1
  6
CONTINUOUS
370
50
 62
4
100
AcDbLine
 10
59.941185
 20
-0.078059
 30
0.0
 11
59.940842
 21
-0.073267
 31
0.0
  0
LINE
  5
6C9
330
1F
100
AcDbEntity
  8
1
  6
CONTINUOUS
370
50
 62
4
100
AcDbLine
 10
59.943424
 20
-0.28497
 30
0.0
 11
59.941639
 21
-0.262197
 31
0.0
  0
LINE
  5
6CA
330
1F
100
AcDbEntity
  8
1
  6
CONTINUOUS
370
50
 62
4
100
AcDbLine
 10
59.940842
 20
-0.073267
 30
0.0
 11
59.940453
 21
-0.06851
 31
0.0
  0
LINE
  5
6CB
330
1F
100
AcDbEntity
  8
1
  6
CONTINUOUS
370
50
 62
4
100
AcDbLine
 10
59.841663
 20
0.316843
 30
0.0
 11
59.841145
 21
0.322877
 31
0.0
  0
LINE
  5
6CC
330
1F
100
AcDbEntity
  8
1
  6
CONTINUOUS
370
50
 62
4
100
AcDbLine
 10
59.945724
 20
-0.307189
 30
0.0
 11
59.943424
 21
-0.28497
 31
0.0
  0
LINE
  5
6CD
330
1F
100
AcDbEntity
  8
1
  6
CONTINUOUS
370
50
 62
4
100
AcDbLine
 10
59.84164
 20
0.096557
 30
0.0
 11
59.841202
 21
0.100598
 31
0.0
  0
LINE
  5
6CE
330
1F
100
AcDbEntity
  8
1
  6
CONTINUOUS
370
50
 62
4
100
AcDbLine
 10
59.841145
 20
0.322877
 30
0.0
 11
59.840382
 21
0.329107
 31
0.0
  0
LINE
  5
6CF
330
1F
100
AcDbEntity
  8
1
  6
CONTINUOUS
370
50
 62
4
100
AcDbLine
 10
59.94189799999999
 20
-0.122113
 30
0.0
 11
59.941895
 21
-0.122089
 31
0.0
  0
LINE
  5
6D0
330
1F
100
AcDbEntity
  8
1
  6
CONTINUOUS
370
50
 62
4
100
AcDbLine
 10
59.948521
 20
-0.328799
 30
0.0
 11
59.945724
 21
-0.307189
 31
0.0
  0
LINE
  5
6D1
330
1F
100
AcDbEntity
  8
1
  6
CONTINUOUS
370
50
 62
4
100
AcDbLine
 10
57.171265
 20
0.008804
 30
0.0
 11
57.170105
 21
0.01775
 31
0.0
  0
LINE
  5
6D2
330
1F
100
AcDbEntity
  8
1
  6
CONTINUOUS
370
50
 62
4
100
AcDbLine
 10
59.841202
 20
0.100598
 30
0.0
 11
59.840591
 21
0.104557
 31
0.0
  0
LINE
  5
6D3
330
1F
100
AcDbEntity
  8
1
  6
CONTINUOUS
370
50
 62
4
100
AcDbLine
 10
59.951801
 20
-0.349746
 30
0.0
 11
59.948521
 21
-0.328799
 31
0.0
  0
LINE
  5
6D4
330
1F
100
AcDbEntity
  8
1
  6
CONTINUOUS
370
50
 62
4
100
AcDbLine
 10
59.840382
 20
0.329107
 30
0.0
 11
59.839378
 21
0.335516
 31
0.0
  0
LINE
  5
6D5
330
1F
100
AcDbEntity
  8
1
  6
CONTINUOUS
370
50
 62
4
100
AcDbLine
 10
59.941906
 20
-0.122161
 30
0.0
 11
59.94189799999999
 21
-0.122113
 31
0.0
  0
LINE
  5
6D6
330
1F
100
AcDbEntity
  8
1
  6
CONTINUOUS
370
50
 62
4
100
AcDbLine
 10
59.941895
 20
-0.122089
 30
0.0
 11
59.941883
 21
-0.122017
 31
0.0
  0
LINE
  5
6D7
330
1F
100
AcDbEntity
  8
1
  6
CONTINUOUS
370
50
 62
4
100
AcDbLine
 10
59.955555
 20
-0.369971
 30
0.0
 11
59.951801
 21
-0.349746
 31
0.0
  0
LINE
  5
6D8
330
1F
100
AcDbEntity
  8
1
  6
CONTINUOUS
370
50
 62
4
100
AcDbLine
 10
59.839378
 20
0.335516
 30
0.0
 11
59.83813499999999
 21
0.342091
 31
0.0
  0
LINE
  5
6D9
330
1F
100
AcDbEntity
  8
1
  6
CONTINUOUS
370
50
 62
4
100
AcDbLine
 10
59.840591
 20
0.104557
 30
0.0
 11
59.839802
 21
0.10843
 31
0.0
  0
LINE
  5
6DA
330
1F
100
AcDbEntity
  8
1
  6
CONTINUOUS
370
50
 62
4
100
AcDbLine
 10
59.959743
 20
-0.389288
 30
0.0
 11
59.955555
 21
-0.369971
 31
0.0
  0
LINE
  5
6DB
330
1F
100
AcDbEntity
  8
1
  6
CONTINUOUS
370
50
 62
4
100
AcDbLine
 10
59.83813499999999
 20
0.342091
 30
0.0
 11
59.836662
 21
0.348816
 31
0.0
  0
LINE
  5
6DC
330
1F
100
AcDbEntity
  8
1
  6
CONTINUOUS
370
50
 62
4
100
AcDbLine
 10
57.173286
 20
0.0
 30
0.0
 11
57.171265
 21
0.008804
 31
0.0
  0
LINE
  5
6DD
330
1F
100
AcDbEntity
  8
1
  6
CONTINUOUS
370
50
 62
4
100
AcDbLine
 10
59.825535
 20
0.393339
 30
0.0
 11
59.824047
 21
0.399592
 31
0.0
  0
LINE
  5
6DE
330
1F
100
AcDbEntity
  8
1
  6
CONTINUOUS
370
50
 62
4
100
AcDbLine
 10
59.827042
 20
0.387077
 30
0.0
 11
59.825535
 21
0.393339
 31
0.0
  0
LINE
  5
6DF
330
1F
100
AcDbEntity
  8
1
  6
CONTINUOUS
370
50
 62
4
100
AcDbLine
 10
59.828579
 20
0.380807
 30
0.0
 11
59.827042
 21
0.387077
 31
0.0
  0
LINE
  5
6E0
330
1F
100
AcDbEntity
  8
1
  6
CONTINUOUS
370
50
 62
4
100
AcDbLine
 10
59.836662
 20
0.348816
 30
0.0
 11
59.834961
 21
0.355677
 31
0.0
  0
LINE
  5
6E1
330
1F
100
AcDbEntity
  8
1
  6
CONTINUOUS
370
50
 62
4
100
AcDbLine
 10
59.830135
 20
0.374531
 30
0.0
 11
59.828579
 21
0.380807
 31
0.0
  0
LINE
  5
6E2
330
1F
100
AcDbEntity
  8
1
  6
CONTINUOUS
370
50
 62
4
100
AcDbLine
 10
59.964325
 20
-0.407596
 30
0.0
 11
59.959743
 21
-0.389288
 31
0.0
  0
LINE
  5
6E3
330
1F
100
AcDbEntity
  8
1
  6
CONTINUOUS
370
50
 62
4
100
AcDbLine
 10
59.831718
 20
0.36825
 30
0.0
 11
59.830135
 21
0.374531
 31
0.0
  0
LINE
  5
6E4
330
1F
100
AcDbEntity
  8
1
  6
CONTINUOUS
370
50
 62
4
100
AcDbLine
 10
59.839802
 20
0.10843
 30
0.0
 11
59.83884399999999
 21
0.112211
 31
0.0
  0
LINE
  5
6E5
330
1F
100
AcDbEntity
  8
1
  6
CONTINUOUS
370
50
 62
4
100
AcDbLine
 10
59.83332799999999
 20
0.361965
 30
0.0
 11
59.831718
 21
0.36825
 31
0.0
  0
LINE
  5
6E6
330
1F
100
AcDbEntity
  8
1
  6
CONTINUOUS
370
50
 62
4
100
AcDbLine
 10
59.834961
 20
0.355677
 30
0.0
 11
59.83332799999999
 21
0.361965
 31
0.0
  0
LINE
  5
6E7
330
1F
100
AcDbEntity
  8
1
  6
CONTINUOUS
370
50
 62
4
100
AcDbLine
 10
59.96927299999999
 20
-0.424872
 30
0.0
 11
59.964325
 21
-0.407596
 31
0.0
  0
LINE
  5
6E8
330
1F
100
AcDbEntity
  8
1
  6
CONTINUOUS
370
50
 62
4
100
AcDbLine
 10
57.173683
 20
-0.001377
 30
0.0
 11
57.173286
 21
0.0
 31
0.0
  0
LINE
  5
6E9
330
1F
100
AcDbEntity
  8
1
  6
CONTINUOUS
370
50
 62
4
100
AcDbLine
 10
57.17409499999999
 20
-0.00275
 30
0.0
 11
57.173683
 21
-0.001377
 31
0.0
  0
LINE
  5
6EA
330
1F
100
AcDbEntity
  8
1
  6
CONTINUOUS
370
50
 62
4
100
AcDbLine
 10
59.83884399999999
 20
0.112211
 30
0.0
 11
59.837715
 21
0.115896
 31
0.0
  0
LINE
  5
6EB
330
1F
100
AcDbEntity
  8
1
  6
CONTINUOUS
370
50
 62
4
100
AcDbLine
 10
57.17453
 20
-0.004119
 30
0.0
 11
57.17409499999999
 21
-0.00275
 31
0.0
  0
LINE
  5
6EC
330
1F
100
AcDbEntity
  8
1
  6
CONTINUOUS
370
50
 62
4
100
AcDbLine
 10
59.939735
 20
0.253548
 30
0.0
 11
59.939442
 21
0.254451
 31
0.0
  0
LINE
  5
6ED
330
1F
100
AcDbEntity
  8
1
  6
CONTINUOUS
370
50
 62
4
100
AcDbLine
 10
59.94211199999999
 20
0.24623
 30
0.0
 11
59.940624
 21
0.250812
 31
0.0
  0
LINE
  5
6EE
330
1F
100
AcDbEntity
  8
1
  6
CONTINUOUS
370
50
 62
4
100
AcDbLine
 10
59.97328899999999
 20
0.15027
 30
0.0
 11
59.967781
 21
0.167229
 31
0.0
  0
LINE
  5
6EF
330
1F
100
AcDbEntity
  8
1
  6
CONTINUOUS
370
50
 62
4
100
AcDbLine
 10
59.985363
 20
0.113113
 30
0.0
 11
59.97916799999999
 21
0.132187
 31
0.0
  0
LINE
  5
6F0
330
1F
100
AcDbEntity
  8
1
  6
CONTINUOUS
370
50
 62
4
100
AcDbLine
 10
59.94418
 20
0.239863
 30
0.0
 11
59.94211199999999
 21
0.24623
 31
0.0
  0
LINE
  5
6F1
330
1F
100
AcDbEntity
  8
1
  6
CONTINUOUS
370
50
 62
4
100
AcDbLine
 10
59.94681499999999
 20
0.231751
 30
0.0
 11
59.94418
 21
0.239863
 31
0.0
  0
LINE
  5
6F2
330
1F
100
AcDbEntity
  8
1
  6
CONTINUOUS
370
50
 62
4
100
AcDbLine
 10
59.953732
 20
0.210464
 30
0.0
 11
59.950005
 21
0.221937
 31
0.0
  0
LINE
  5
6F3
330
1F
100
AcDbEntity
  8
1
  6
CONTINUOUS
370
50
 62
4
100
AcDbLine
 10
59.967781
 20
0.167229
 30
0.0
 11
59.962666
 21
0.182974
 31
0.0
  0
LINE
  5
6F4
330
1F
100
AcDbEntity
  8
1
  6
CONTINUOUS
370
50
 62
4
100
AcDbLine
 10
60.0
 20
0.068068
 30
0.0
 11
59.998562
 21
0.072494
 31
0.0
  0
LINE
  5
6F5
330
1F
100
AcDbEntity
  8
1
  6
CONTINUOUS
370
50
 62
4
100
AcDbLine
 10
59.991837
 20
0.093188
 30
0.0
 11
59.985363
 21
0.113113
 31
0.0
  0
LINE
  5
6F6
330
1F
100
AcDbEntity
  8
1
  6
CONTINUOUS
370
50
 62
4
100
AcDbLine
 10
59.940624
 20
0.250812
 30
0.0
 11
59.939735
 21
0.253548
 31
0.0
  0
LINE
  5
6F7
330
1F
100
AcDbEntity
  8
1
  6
CONTINUOUS
370
50
 62
4
100
AcDbLine
 10
59.962666
 20
0.182974
 30
0.0
 11
59.957973
 21
0.197417
 31
0.0
  0
LINE
  5
6F8
330
1F
100
AcDbEntity
  8
1
  6
CONTINUOUS
370
50
 62
4
100
AcDbLine
 10
59.998562
 20
0.072495
 30
0.0
 11
59.991837
 21
0.093188
 31
0.0
  0
LINE
  5
6F9
330
1F
100
AcDbEntity
  8
1
  6
CONTINUOUS
370
50
 62
4
100
AcDbLine
 10
59.950005
 20
0.221937
 30
0.0
 11
59.94681499999999
 21
0.231751
 31
0.0
  0
LINE
  5
6FA
330
1F
100
AcDbEntity
  8
1
  6
CONTINUOUS
370
50
 62
4
100
AcDbLine
 10
59.957973
 20
0.197417
 30
0.0
 11
59.953732
 21
0.210464
 31
0.0
  0
LINE
  5
6FB
330
1F
100
AcDbEntity
  8
1
  6
CONTINUOUS
370
50
 62
4
100
AcDbLine
 10
59.97916799999999
 20
0.132187
 30
0.0
 11
59.97328899999999
 21
0.15027
 31
0.0
  0
LINE
  5
6FC
330
1F
100
AcDbEntity
  8
1
  6
CONTINUOUS
370
50
 62
4
100
AcDbLine
 10
57.169937
 20
-0.499529
 30
0.0
 11
57.169857
 21
-0.499283
 31
0.0
  0
LINE
  5
6FD
330
1F
100
AcDbEntity
  8
1
  6
CONTINUOUS
370
50
 62
4
100
AcDbLine
 10
59.97456399999999
 20
-0.441092
 30
0.0
 11
59.96927299999999
 21
-0.424872
 31
0.0
  0
LINE
  5
6FE
330
1F
100
AcDbEntity
  8
1
  6
CONTINUOUS
370
50
 62
4
100
AcDbLine
 10
57.17498399999999
 20
-0.005483
 30
0.0
 11
57.17453
 21
-0.004119
 31
0.0
  0
LINE
  5
6FF
330
1F
100
AcDbEntity
  8
1
  6
CONTINUOUS
370
50
 62
4
100
AcDbLine
 10
57.175453
 20
-0.006842
 30
0.0
 11
57.17498399999999
 21
-0.005483
 31
0.0
  0
LINE
  5
700
330
1F
100
AcDbEntity
  8
1
  6
CONTINUOUS
370
50
 62
4
100
AcDbLine
 10
59.837715
 20
0.115896
 30
0.0
 11
59.836422
 21
0.11948
 31
0.0
  0
LINE
  5
701
330
1F
100
AcDbEntity
  8
1
  6
CONTINUOUS
370
50
 62
4
100
AcDbLine
 10
57.175945
 20
-0.008197
 30
0.0
 11
57.175453
 21
-0.006842
 31
0.0
  0
LINE
  5
702
330
1F
100
AcDbEntity
  8
1
  6
CONTINUOUS
370
50
 62
4
100
AcDbLine
 10
59.980179
 20
-0.456231
 30
0.0
 11
59.97456399999999
 21
-0.441092
 31
0.0
  0
LINE
  5
703
330
1F
100
AcDbEntity
  8
1
  6
CONTINUOUS
370
50
 62
4
100
AcDbLine
 10
57.176453
 20
-0.009547
 30
0.0
 11
57.175945
 21
-0.008197
 31
0.0
  0
LINE
  5
704
330
1F
100
AcDbEntity
  8
1
  6
CONTINUOUS
370
50
 62
4
100
AcDbLine
 10
59.825535
 20
0.145399
 30
0.0
 11
59.824047
 21
0.149218
 31
0.0
  0
LINE
  5
705
330
1F
100
AcDbEntity
  8
1
  6
CONTINUOUS
370
50
 62
4
100
AcDbLine
 10
59.827042
 20
0.141599
 30
0.0
 11
59.825535
 21
0.145399
 31
0.0
  0
LINE
  5
706
330
1F
100
AcDbEntity
  8
1
  6
CONTINUOUS
370
50
 62
4
100
AcDbLine
 10
59.828579
 20
0.137822
 30
0.0
 11
59.827042
 21
0.141599
 31
0.0
  0
LINE
  5
707
330
1F
100
AcDbEntity
  8
1
  6
CONTINUOUS
370
50
 62
4
100
AcDbLine
 10
59.830135
 20
0.134068
 30
0.0
 11
59.828579
 21
0.137822
 31
0.0
  0
LINE
  5
708
330
1F
100
AcDbEntity
  8
1
  6
CONTINUOUS
370
50
 62
4
100
AcDbLine
 10
59.836422
 20
0.11948
 30
0.0
 11
59.834961
 21
0.122957
 31
0.0
  0
LINE
  5
709
330
1F
100
AcDbEntity
  8
1
  6
CONTINUOUS
370
50
 62
4
100
AcDbLine
 10
59.986069
 20
-0.470229
 30
0.0
 11
59.980179
 21
-0.456231
 31
0.0
  0
LINE
  5
70A
330
1F
100
AcDbEntity
  8
1
  6
CONTINUOUS
370
50
 62
4
100
AcDbLine
 10
59.831718
 20
0.130338
 30
0.0
 11
59.830135
 21
0.134068
 31
0.0
  0
LINE
  5
70B
330
1F
100
AcDbEntity
  8
1
  6
CONTINUOUS
370
50
 62
4
100
AcDbLine
 10
59.83332799999999
 20
0.126634
 30
0.0
 11
59.831718
 21
0.130338
 31
0.0
  0
LINE
  5
70C
330
1F
100
AcDbEntity
  8
1
  6
CONTINUOUS
370
50
 62
4
100
AcDbLine
 10
59.875107
 20
0.283639
 30
0.0
 11
59.824047
 21
0.399592
 31
0.0
  0
LINE
  5
70D
330
1F
100
AcDbEntity
  8
1
  6
CONTINUOUS
370
50
 62
4
100
AcDbLine
 10
59.834961
 20
0.122957
 30
0.0
 11
59.83332799999999
 21
0.126634
 31
0.0
  0
LINE
  5
70E
330
1F
100
AcDbEntity
  8
1
  6
CONTINUOUS
370
50
 62
4
100
AcDbLine
 10
57.232494
 20
-0.127372
 30
0.0
 11
57.218872
 21
-0.098122
 31
0.0
  0
LINE
  5
70F
330
1F
100
AcDbEntity
  8
1
  6
CONTINUOUS
370
50
 62
4
100
AcDbLine
 10
57.218872
 20
-0.098122
 30
0.0
 11
57.205082
 21
-0.068678
 31
0.0
  0
LINE
  5
710
330
1F
100
AcDbEntity
  8
1
  6
CONTINUOUS
370
50
 62
4
100
AcDbLine
 10
57.246059
 20
-0.156267
 30
0.0
 11
57.232494
 21
-0.127372
 31
0.0
  0
LINE
  5
711
330
1F
100
AcDbEntity
  8
1
  6
CONTINUOUS
370
50
 62
4
100
AcDbLine
 10
57.205082
 20
-0.068678
 30
0.0
 11
57.19099
 21
-0.039125
 31
0.0
  0
LINE
  5
712
330
1F
100
AcDbEntity
  8
1
  6
CONTINUOUS
370
50
 62
4
100
AcDbLine
 10
59.992207
 20
-0.483058
 30
0.0
 11
59.986069
 21
-0.470229
 31
0.0
  0
LINE
  5
713
330
1F
100
AcDbEntity
  8
1
  6
CONTINUOUS
370
50
 62
4
100
AcDbLine
 10
57.259575
 20
-0.184465
 30
0.0
 11
57.246059
 21
-0.156267
 31
0.0
  0
LINE
  5
714
330
1F
100
AcDbEntity
  8
1
  6
CONTINUOUS
370
50
 62
4
100
AcDbLine
 10
57.19099
 20
-0.039125
 30
0.0
 11
57.176453
 21
-0.009547
 31
0.0
  0
LINE
  5
715
330
1F
100
AcDbEntity
  8
1
  6
CONTINUOUS
370
50
 62
4
100
AcDbLine
 10
57.273182
 20
-0.211878
 30
0.0
 11
57.259575
 21
-0.184465
 31
0.0
  0
LINE
  5
716
330
1F
100
AcDbEntity
  8
1
  6
CONTINUOUS
370
50
 62
4
100
AcDbLine
 10
57.287029
 20
-0.23844
 30
0.0
 11
57.273182
 21
-0.211878
 31
0.0
  0
LINE
  5
717
330
1F
100
AcDbEntity
  8
1
  6
CONTINUOUS
370
50
 62
4
100
AcDbLine
 10
59.998562
 20
-0.494718
 30
0.0
 11
59.992207
 21
-0.483058
 31
0.0
  0
LINE
  5
718
330
1F
100
AcDbEntity
  8
1
  6
CONTINUOUS
370
50
 62
4
100
AcDbLine
 10
57.30127
 20
-0.264087
 30
0.0
 11
57.287029
 21
-0.23844
 31
0.0
  0
LINE
  5
719
330
1F
100
AcDbEntity
  8
1
  6
CONTINUOUS
370
50
 62
4
100
AcDbLine
 10
57.315987
 20
-0.288641
 30
0.0
 11
57.30127
 21
-0.264087
 31
0.0
  0
LINE
  5
71A
330
1F
100
AcDbEntity
  8
1
  6
CONTINUOUS
370
50
 62
4
100
AcDbLine
 10
57.331207
 20
-0.311812
 30
0.0
 11
57.315987
 21
-0.288641
 31
0.0
  0
LINE
  5
71B
330
1F
100
AcDbEntity
  8
1
  6
CONTINUOUS
370
50
 62
4
100
AcDbLine
 10
57.347088
 20
-0.333581
 30
0.0
 11
57.331207
 21
-0.311812
 31
0.0
  0
LINE
  5
71C
330
1F
100
AcDbEntity
  8
1
  6
CONTINUOUS
370
50
 62
4
100
AcDbLine
 10
57.363811
 20
-0.353938
 30
0.0
 11
57.347088
 21
-0.333581
 31
0.0
  0
LINE
  5
71D
330
1F
100
AcDbEntity
  8
1
  6
CONTINUOUS
370
50
 62
4
100
AcDbLine
 10
57.488113
 20
0.227797
 30
0.0
 11
57.48634
 21
0.22986
 31
0.0
  0
LINE
  5
71E
330
1F
100
AcDbEntity
  8
1
  6
CONTINUOUS
370
50
 62
4
100
AcDbLine
 10
57.35931
 20
0.358258
 30
0.0
 11
57.342121
 21
0.378146
 31
0.0
  0
LINE
  5
71F
330
1F
100
AcDbEntity
  8
1
  6
CONTINUOUS
370
50
 62
4
100
AcDbLine
 10
57.342121
 20
0.378146
 30
0.0
 11
57.325787
 21
0.397037
 31
0.0
  0
LINE
  5
720
330
1F
100
AcDbEntity
  8
1
  6
CONTINUOUS
370
50
 62
4
100
AcDbLine
 10
57.37755199999999
 20
0.337507
 30
0.0
 11
57.35931
 21
0.358258
 31
0.0
  0
LINE
  5
721
330
1F
100
AcDbEntity
  8
1
  6
CONTINUOUS
370
50
 62
4
100
AcDbLine
 10
57.325787
 20
0.397037
 30
0.0
 11
57.310116
 21
0.414799
 31
0.0
  0
LINE
  5
722
330
1F
100
AcDbEntity
  8
1
  6
CONTINUOUS
370
50
 62
4
100
AcDbLine
 10
57.644138
 20
-0.003054
 30
0.0
 11
57.643684
 21
-0.002548
 31
0.0
  0
LINE
  5
723
330
1F
100
AcDbEntity
  8
1
  6
CONTINUOUS
370
50
 62
4
100
AcDbLine
 10
57.641853
 20
-0.000518
 30
0.0
 11
57.641396
 21
-0.00001
 31
0.0
  0
LINE
  5
724
330
1F
100
AcDbEntity
  8
1
  6
CONTINUOUS
370
50
 62
4
100
AcDbLine
 10
57.641396
 20
-0.00001
 30
0.0
 11
57.62389
 21
0.019446
 31
0.0
  0
LINE
  5
725
330
1F
100
AcDbEntity
  8
1
  6
CONTINUOUS
370
50
 62
4
100
AcDbLine
 10
57.643684
 20
-0.002548
 30
0.0
 11
57.643227
 21
-0.002041
 31
0.0
  0
LINE
  5
726
330
1F
100
AcDbEntity
  8
1
  6
CONTINUOUS
370
50
 62
4
100
AcDbLine
 10
57.64276899999999
 20
-0.001534
 30
0.0
 11
57.641853
 21
-0.000518
 31
0.0
  0
LINE
  5
727
330
1F
100
AcDbEntity
  8
1
  6
CONTINUOUS
370
50
 62
4
100
AcDbLine
 10
57.48997499999999
 20
0.225733
 30
0.0
 11
57.488113
 21
0.227797
 31
0.0
  0
LINE
  5
728
330
1F
100
AcDbEntity
  8
1
  6
CONTINUOUS
370
50
 62
4
100
AcDbLine
 10
57.62389
 20
0.019446
 30
0.0
 11
57.60574
 21
0.039564
 31
0.0
  0
LINE
  5
729
330
1F
100
AcDbEntity
  8
1
  6
CONTINUOUS
370
50
 62
4
100
AcDbLine
 10
57.643227
 20
-0.002041
 30
0.0
 11
57.64276899999999
 21
-0.001534
 31
0.0
  0
LINE
  5
72A
330
1F
100
AcDbEntity
  8
1
  6
CONTINUOUS
370
50
 62
4
100
AcDbLine
 10
57.397018
 20
0.316057
 30
0.0
 11
57.37755199999999
 21
0.337507
 31
0.0
  0
LINE
  5
72B
330
1F
100
AcDbEntity
  8
1
  6
CONTINUOUS
370
50
 62
4
100
AcDbLine
 10
57.60574
 20
0.039564
 30
0.0
 11
57.586788
 21
0.060315
 31
0.0
  0
LINE
  5
72C
330
1F
100
AcDbEntity
  8
1
  6
CONTINUOUS
370
50
 62
4
100
AcDbLine
 10
57.657261
 20
0.063857
 30
0.0
 11
57.627773
 21
0.096007
 31
0.0
  0
LINE
  5
72D
330
1F
100
AcDbEntity
  8
1
  6
CONTINUOUS
370
50
 62
4
100
AcDbLine
 10
57.678997
 20
-0.041039
 30
0.0
 11
57.644138
 21
-0.003054
 31
0.0
  0
LINE
  5
72E
330
1F
100
AcDbEntity
  8
1
  6
CONTINUOUS
370
50
 62
4
100
AcDbLine
 10
59.348995
 20
-0.05703
 30
0.0
 11
59.297112
 21
-0.000498
 31
0.0
  0
LINE
  5
72F
330
1F
100
AcDbEntity
  8
1
  6
CONTINUOUS
370
50
 62
4
100
AcDbLine
 10
59.297112
 20
-0.000498
 30
0.0
 11
59.265259
 21
0.034135
 31
0.0
  0
LINE
  5
730
330
1F
100
AcDbEntity
  8
1
  6
CONTINUOUS
370
50
 62
4
100
AcDbLine
 10
57.310116
 20
0.414799
 30
0.0
 11
57.29495199999999
 21
0.431248
 31
0.0
  0
LINE
  5
731
330
1F
100
AcDbEntity
  8
1
  6
CONTINUOUS
370
50
 62
4
100
AcDbLine
 10
59.91104499999999
 20
0.08266
 30
0.0
 11
59.878422
 21
0.117928
 31
0.0
  0
LINE
  5
732
330
1F
100
AcDbEntity
  8
1
  6
CONTINUOUS
370
50
 62
4
100
AcDbLine
 10
57.627773
 20
0.096007
 30
0.0
 11
57.597935
 21
0.128204
 31
0.0
  0
LINE
  5
733
330
1F
100
AcDbEntity
  8
1
  6
CONTINUOUS
370
50
 62
4
100
AcDbLine
 10
57.68703499999999
 20
0.031782
 30
0.0
 11
57.657261
 21
0.063857
 31
0.0
  0
LINE
  5
734
330
1F
100
AcDbEntity
  8
1
  6
CONTINUOUS
370
50
 62
4
100
AcDbLine
 10
59.318295
 20
-0.104095
 30
0.0
 11
59.274124
 21
-0.056664
 31
0.0
  0
LINE
  5
735
330
1F
100
AcDbEntity
  8
1
  6
CONTINUOUS
370
50
 62
4
100
AcDbLine
 10
57.586788
 20
0.060315
 30
0.0
 11
57.56688699999999
 21
0.081667
 31
0.0
  0
LINE
  5
736
330
1F
100
AcDbEntity
  8
1
  6
CONTINUOUS
370
50
 62
4
100
AcDbLine
 10
59.945251
 20
0.046081
 30
0.0
 11
59.91104499999999
 21
0.08266
 31
0.0
  0
LINE
  5
737
330
1F
100
AcDbEntity
  8
1
  6
CONTINUOUS
370
50
 62
4
100
AcDbLine
 10
57.381546
 20
-0.372871
 30
0.0
 11
57.363811
 21
-0.353938
 31
0.0
  0
LINE
  5
738
330
1F
100
AcDbEntity
  8
1
  6
CONTINUOUS
370
50
 62
4
100
AcDbLine
 10
59.878422
 20
0.117928
 30
0.0
 11
59.84656099999999
 21
0.151925
 31
0.0
  0
LINE
  5
739
330
1F
100
AcDbEntity
  8
1
  6
CONTINUOUS
370
50
 62
4
100
AcDbLine
 10
59.265259
 20
0.034135
 30
0.0
 11
59.231983
 21
0.069466
 31
0.0
  0
LINE
  5
73A
330
1F
100
AcDbEntity
  8
1
  6
CONTINUOUS
370
50
 62
4
100
AcDbLine
 10
59.356918
 20
-0.144936
 30
0.0
 11
59.318295
 21
-0.104095
 31
0.0
  0
LINE
  5
73B
330
1F
100
AcDbEntity
  8
1
  6
CONTINUOUS
370
50
 62
4
100
AcDbLine
 10
57.491917
 20
0.22368
 30
0.0
 11
57.48997499999999
 21
0.225733
 31
0.0
  0
LINE
  5
73C
330
1F
100
AcDbEntity
  8
1
  6
CONTINUOUS
370
50
 62
4
100
AcDbLine
 10
57.417542
 20
0.294439
 30
0.0
 11
57.397018
 21
0.316057
 31
0.0
  0
LINE
  5
73D
330
1F
100
AcDbEntity
  8
1
  6
CONTINUOUS
370
50
 62
4
100
AcDbLine
 10
59.274124
 20
-0.056664
 30
0.0
 11
59.223408
 21
-0.003256
 31
0.0
  0
LINE
  5
73E
330
1F
100
AcDbEntity
  8
1
  6
CONTINUOUS
370
50
 62
4
100
AcDbLine
 10
57.597935
 20
0.128204
 30
0.0
 11
57.567116
 21
0.160421
 31
0.0
  0
LINE
  5
73F
330
1F
100
AcDbEntity
  8
1
  6
CONTINUOUS
370
50
 62
4
100
AcDbLine
 10
57.717472
 20
0.000007
 30
0.0
 11
57.68703499999999
 21
0.031782
 31
0.0
  0
LINE
  5
740
330
1F
100
AcDbEntity
  8
1
  6
CONTINUOUS
370
50
 62
4
100
AcDbLine
 10
57.56688699999999
 20
0.081667
 30
0.0
 11
57.545887
 21
0.103589
 31
0.0
  0
LINE
  5
741
330
1F
100
AcDbEntity
  8
1
  6
CONTINUOUS
370
50
 62
4
100
AcDbLine
 10
57.71402
 20
-0.077568
 30
0.0
 11
57.678997
 21
-0.041039
 31
0.0
  0
LINE
  5
742
330
1F
100
AcDbEntity
  8
1
  6
CONTINUOUS
370
50
 62
4
100
AcDbLine
 10
59.222973
 20
-0.002808
 30
0.0
 11
59.222542
 21
-0.002359
 31
0.0
  0
LINE
  5
743
330
1F
100
AcDbEntity
  8
1
  6
CONTINUOUS
370
50
 62
4
100
AcDbLine
 10
59.400696
 20
-0.110874
 30
0.0
 11
59.348995
 21
-0.05703
 31
0.0
  0
LINE
  5
744
330
1F
100
AcDbEntity
  8
1
  6
CONTINUOUS
370
50
 62
4
100
AcDbLine
 10
59.898621
 20
0.173535
 30
0.0
 11
59.87822
 21
0.194757
 31
0.0
  0
LINE
  5
745
330
1F
100
AcDbEntity
  8
1
  6
CONTINUOUS
370
50
 62
4
100
AcDbLine
 10
59.918129
 20
0.153347
 30
0.0
 11
59.898621
 21
0.173535
 31
0.0
  0
LINE
  5
746
330
1F
100
AcDbEntity
  8
1
  6
CONTINUOUS
370
50
 62
4
100
AcDbLine
 10
59.221237
 20
-0.001013
 30
0.0
 11
59.220802
 21
-0.000563
 31
0.0
  0
LINE
  5
747
330
1F
100
AcDbEntity
  8
1
  6
CONTINUOUS
370
50
 62
4
100
AcDbLine
 10
59.22210699999999
 20
-0.001911
 30
0.0
 11
59.221237
 21
-0.001013
 31
0.0
  0
LINE
  5
748
330
1F
100
AcDbEntity
  8
1
  6
CONTINUOUS
370
50
 62
4
100
AcDbLine
 10
59.223408
 20
-0.003256
 30
0.0
 11
59.222973
 21
-0.002808
 31
0.0
  0
LINE
  5
749
330
1F
100
AcDbEntity
  8
1
  6
CONTINUOUS
370
50
 62
4
100
AcDbLine
 10
59.222542
 20
-0.002359
 30
0.0
 11
59.22210699999999
 21
-0.001911
 31
0.0
  0
LINE
  5
74A
330
1F
100
AcDbEntity
  8
1
  6
CONTINUOUS
370
50
 62
4
100
AcDbLine
 10
59.84656099999999
 20
0.151925
 30
0.0
 11
59.814651
 21
0.184693
 31
0.0
  0
LINE
  5
74B
330
1F
100
AcDbEntity
  8
1
  6
CONTINUOUS
370
50
 62
4
100
AcDbLine
 10
59.937874
 20
0.133128
 30
0.0
 11
59.918129
 21
0.153347
 31
0.0
  0
LINE
  5
74C
330
1F
100
AcDbEntity
  8
1
  6
CONTINUOUS
370
50
 62
4
100
AcDbLine
 10
59.231983
 20
0.069466
 30
0.0
 11
59.19677
 21
0.105406
 31
0.0
  0
LINE
  5
74D
330
1F
100
AcDbEntity
  8
1
  6
CONTINUOUS
370
50
 62
4
100
AcDbLine
 10
57.493908
 20
0.221648
 30
0.0
 11
57.491917
 21
0.22368
 31
0.0
  0
LINE
  5
74E
330
1F
100
AcDbEntity
  8
1
  6
CONTINUOUS
370
50
 62
4
100
AcDbLine
 10
59.87822
 20
0.194757
 30
0.0
 11
59.85464899999999
 21
0.218779
 31
0.0
  0
LINE
  5
74F
330
1F
100
AcDbEntity
  8
1
  6
CONTINUOUS
370
50
 62
4
100
AcDbLine
 10
57.29495199999999
 20
0.431248
 30
0.0
 11
57.280296
 21
0.4461
 31
0.0
  0
LINE
  5
750
330
1F
100
AcDbEntity
  8
1
  6
CONTINUOUS
370
50
 62
4
100
AcDbLine
 10
59.957859
 20
0.112898
 30
0.0
 11
59.937874
 21
0.133128
 31
0.0
  0
LINE
  5
751
330
1F
100
AcDbEntity
  8
1
  6
CONTINUOUS
370
50
 62
4
100
AcDbLine
 10
57.545887
 20
0.103589
 30
0.0
 11
57.523643
 21
0.126049
 31
0.0
  0
LINE
  5
752
330
1F
100
AcDbEntity
  8
1
  6
CONTINUOUS
370
50
 62
4
100
AcDbLine
 10
59.220802
 20
-0.000563
 30
0.0
 11
59.166687
 21
0.053996
 31
0.0
  0
LINE
  5
753
330
1F
100
AcDbEntity
  8
1
  6
CONTINUOUS
370
50
 62
4
100
AcDbLine
 10
58.74173
 20
-0.223512
 30
0.0
 11
58.675175
 21
-0.156845
 31
0.0
  0
LINE
  5
754
330
1F
100
AcDbEntity
  8
1
  6
CONTINUOUS
370
50
 62
4
100
AcDbLine
 10
59.978088
 20
0.09268
 30
0.0
 11
59.957859
 21
0.112898
 31
0.0
  0
LINE
  5
755
330
1F
100
AcDbEntity
  8
1
  6
CONTINUOUS
370
50
 62
4
100
AcDbLine
 10
57.43917099999999
 20
0.272836
 30
0.0
 11
57.417542
 21
0.294439
 31
0.0
  0
LINE
  5
756
330
1F
100
AcDbEntity
  8
1
  6
CONTINUOUS
370
50
 62
4
100
AcDbLine
 10
59.394867
 20
-0.182767
 30
0.0
 11
59.356918
 21
-0.144936
 31
0.0
  0
LINE
  5
757
330
1F
100
AcDbEntity
  8
1
  6
CONTINUOUS
370
50
 62
4
100
AcDbLine
 10
57.749664
 20
-0.113076
 30
0.0
 11
57.71402
 21
-0.077568
 31
0.0
  0
LINE
  5
758
330
1F
100
AcDbEntity
  8
1
  6
CONTINUOUS
370
50
 62
4
100
AcDbLine
 10
58.220947
 20
0.198143
 30
0.0
 11
58.172569
 21
0.246249
 31
0.0
  0
LINE
  5
759
330
1F
100
AcDbEntity
  8
1
  6
CONTINUOUS
370
50
 62
4
100
AcDbLine
 10
58.675175
 20
-0.156845
 30
0.0
 11
58.599796
 21
-0.081912
 31
0.0
  0
LINE
  5
75A
330
1F
100
AcDbEntity
  8
1
  6
CONTINUOUS
370
50
 62
4
100
AcDbLine
 10
58.27045099999999
 20
0.148966
 30
0.0
 11
58.220947
 21
0.198143
 31
0.0
  0
LINE
  5
75B
330
1F
100
AcDbEntity
  8
1
  6
CONTINUOUS
370
50
 62
4
100
AcDbLine
 10
57.567116
 20
0.160421
 30
0.0
 11
57.534679
 21
0.192627
 31
0.0
  0
LINE
  5
75C
330
1F
100
AcDbEntity
  8
1
  6
CONTINUOUS
370
50
 62
4
100
AcDbLine
 10
57.793674
 20
-0.075262
 30
0.0
 11
57.717472
 21
0.000007
 31
0.0
  0
LINE
  5
75D
330
1F
100
AcDbEntity
  8
1
  6
CONTINUOUS
370
50
 62
4
100
AcDbLine
 10
57.495934
 20
0.219648
 30
0.0
 11
57.493908
 21
0.221648
 31
0.0
  0
LINE
  5
75E
330
1F
100
AcDbEntity
  8
1
  6
CONTINUOUS
370
50
 62
4
100
AcDbLine
 10
59.998562
 20
0.072494
 30
0.0
 11
59.978088
 21
0.09268
 31
0.0
  0
LINE
  5
75F
330
1F
100
AcDbEntity
  8
1
  6
CONTINUOUS
370
50
 62
4
100
AcDbLine
 10
58.321133
 20
0.099314
 30
0.0
 11
58.27045099999999
 21
0.148966
 31
0.0
  0
LINE
  5
760
330
1F
100
AcDbEntity
  8
1
  6
CONTINUOUS
370
50
 62
4
100
AcDbLine
 10
59.85464899999999
 20
0.218779
 30
0.0
 11
59.827702
 21
0.24507
 31
0.0
  0
LINE
  5
761
330
1F
100
AcDbEntity
  8
1
  6
CONTINUOUS
370
50
 62
4
100
AcDbLine
 10
57.523643
 20
0.126049
 30
0.0
 11
57.5
 21
0.149016
 31
0.0
  0
LINE
  5
762
330
1F
100
AcDbEntity
  8
1
  6
CONTINUOUS
370
50
 62
4
100
AcDbLine
 10
59.19677
 20
0.105406
 30
0.0
 11
59.159115
 21
0.141864
 31
0.0
  0
LINE
  5
763
330
1F
100
AcDbEntity
  8
1
  6
CONTINUOUS
370
50
 62
4
100
AcDbLine
 10
59.814651
 20
0.184693
 30
0.0
 11
59.78195599999999
 21
0.216238
 31
0.0
  0
LINE
  5
764
330
1F
100
AcDbEntity
  8
1
  6
CONTINUOUS
370
50
 62
4
100
AcDbLine
 10
59.453186
 20
-0.161455
 30
0.0
 11
59.400696
 21
-0.110874
 31
0.0
  0
LINE
  5
765
330
1F
100
AcDbEntity
  8
1
  6
CONTINUOUS
370
50
 62
4
100
AcDbLine
 10
58.372799
 20
0.04959
 30
0.0
 11
58.321133
 21
0.099314
 31
0.0
  0
LINE
  5
766
330
1F
100
AcDbEntity
  8
1
  6
CONTINUOUS
370
50
 62
4
100
AcDbLine
 10
57.497971
 20
0.217693
 30
0.0
 11
57.495934
 21
0.219648
 31
0.0
  0
LINE
  5
767
330
1F
100
AcDbEntity
  8
1
  6
CONTINUOUS
370
50
 62
4
100
AcDbLine
 10
59.166687
 20
0.053996
 30
0.0
 11
59.105717
 21
0.112136
 31
0.0
  0
LINE
  5
768
330
1F
100
AcDbEntity
  8
1
  6
CONTINUOUS
370
50
 62
4
100
AcDbLine
 10
57.785892
 20
-0.14749
 30
0.0
 11
57.749664
 21
-0.113076
 31
0.0
  0
LINE
  5
769
330
1F
100
AcDbEntity
  8
1
  6
CONTINUOUS
370
50
 62
4
100
AcDbLine
 10
58.599796
 20
-0.081912
 30
0.0
 11
58.5135
 21
0.000001
 31
0.0
  0
LINE
  5
76A
330
1F
100
AcDbEntity
  8
1
  6
CONTINUOUS
370
50
 62
4
100
AcDbLine
 10
58.425442
 20
-0.000005
 30
0.0
 11
58.372799
 21
0.04959
 31
0.0
  0
LINE
  5
76B
330
1F
100
AcDbEntity
  8
1
  6
CONTINUOUS
370
50
 62
4
100
AcDbLine
 10
57.462055
 20
0.251294
 30
0.0
 11
57.43917099999999
 21
0.272836
 31
0.0
  0
LINE
  5
76C
330
1F
100
AcDbEntity
  8
1
  6
CONTINUOUS
370
50
 62
4
100
AcDbLine
 10
58.803864
 20
-0.281889
 30
0.0
 11
58.74173
 21
-0.223512
 31
0.0
  0
LINE
  5
76D
330
1F
100
AcDbEntity
  8
1
  6
CONTINUOUS
370
50
 62
4
100
AcDbLine
 10
58.427105
 20
-0.001559
 30
0.0
 11
58.42655199999999
 21
-0.00104
 31
0.0
  0
LINE
  5
76E
330
1F
100
AcDbEntity
  8
1
  6
CONTINUOUS
370
50
 62
4
100
AcDbLine
 10
57.5
 20
0.215792
 30
0.0
 11
57.497971
 21
0.217693
 31
0.0
  0
LINE
  5
76F
330
1F
100
AcDbEntity
  8
1
  6
CONTINUOUS
370
50
 62
4
100
AcDbLine
 10
58.425995
 20
-0.000522
 30
0.0
 11
58.425442
 21
-0.000005
 31
0.0
  0
LINE
  5
770
330
1F
100
AcDbEntity
  8
1
  6
CONTINUOUS
370
50
 62
4
100
AcDbLine
 10
58.428219
 20
-0.002597
 30
0.0
 11
58.427662
 21
-0.002077
 31
0.0
  0
LINE
  5
771
330
1F
100
AcDbEntity
  8
1
  6
CONTINUOUS
370
50
 62
4
100
AcDbLine
 10
58.428776
 20
-0.003116
 30
0.0
 11
58.428219
 21
-0.002597
 31
0.0
  0
LINE
  5
772
330
1F
100
AcDbEntity
  8
1
  6
CONTINUOUS
370
50
 62
4
100
AcDbLine
 10
59.433533
 20
-0.218791
 30
0.0
 11
59.394867
 21
-0.182767
 31
0.0
  0
LINE
  5
773
330
1F
100
AcDbEntity
  8
1
  6
CONTINUOUS
370
50
 62
4
100
AcDbLine
 10
58.466492
 20
-0.038214
 30
0.0
 11
58.428776
 21
-0.003116
 31
0.0
  0
LINE
  5
774
330
1F
100
AcDbEntity
  8
1
  6
CONTINUOUS
370
50
 62
4
100
AcDbLine
 10
58.427662
 20
-0.002077
 30
0.0
 11
58.427105
 21
-0.001559
 31
0.0
  0
LINE
  5
775
330
1F
100
AcDbEntity
  8
1
  6
CONTINUOUS
370
50
 62
4
100
AcDbLine
 10
58.42655199999999
 20
-0.00104
 30
0.0
 11
58.425995
 21
-0.000522
 31
0.0
  0
LINE
  5
776
330
1F
100
AcDbEntity
  8
1
  6
CONTINUOUS
370
50
 62
4
100
AcDbLine
 10
58.5135
 20
0.000001
 30
0.0
 11
58.472275
 21
0.038298
 31
0.0
  0
LINE
  5
777
330
1F
100
AcDbEntity
  8
1
  6
CONTINUOUS
370
50
 62
4
100
AcDbLine
 10
58.304607
 20
0.192534
 30
0.0
 11
58.26408799999999
 21
0.230153
 31
0.0
  0
LINE
  5
778
330
1F
100
AcDbEntity
  8
1
  6
CONTINUOUS
370
50
 62
4
100
AcDbLine
 10
58.26408799999999
 20
0.230153
 30
0.0
 11
58.225277
 21
0.266181
 31
0.0
  0
LINE
  5
779
330
1F
100
AcDbEntity
  8
1
  6
CONTINUOUS
370
50
 62
4
100
AcDbLine
 10
57.534679
 20
0.192627
 30
0.0
 11
57.5
 21
0.224796
 31
0.0
  0
LINE
  5
77A
330
1F
100
AcDbEntity
  8
1
  6
CONTINUOUS
370
50
 62
4
100
AcDbLine
 10
58.506016
 20
-0.074825
 30
0.0
 11
58.466492
 21
-0.038214
 31
0.0
  0
LINE
  5
77B
330
1F
100
AcDbEntity
  8
1
  6
CONTINUOUS
370
50
 62
4
100
AcDbLine
 10
57.400402
 20
-0.39032
 30
0.0
 11
57.381546
 21
-0.372871
 31
0.0
  0
LINE
  5
77C
330
1F
100
AcDbEntity
  8
1
  6
CONTINUOUS
370
50
 62
4
100
AcDbLine
 10
58.717464
 20
-0.270039
 30
0.0
 11
58.674461
 21
-0.230306
 31
0.0
  0
LINE
  5
77D
330
1F
100
AcDbEntity
  8
1
  6
CONTINUOUS
370
50
 62
4
100
AcDbLine
 10
58.54695899999999
 20
-0.112645
 30
0.0
 11
58.506016
 21
-0.074825
 31
0.0
  0
LINE
  5
77E
330
1F
100
AcDbEntity
  8
1
  6
CONTINUOUS
370
50
 62
4
100
AcDbLine
 10
58.674461
 20
-0.230306
 30
0.0
 11
58.631569
 21
-0.190691
 31
0.0
  0
LINE
  5
77F
330
1F
100
AcDbEntity
  8
1
  6
CONTINUOUS
370
50
 62
4
100
AcDbLine
 10
58.631569
 20
-0.190691
 30
0.0
 11
58.58893999999999
 21
-0.151368
 31
0.0
  0
LINE
  5
780
330
1F
100
AcDbEntity
  8
1
  6
CONTINUOUS
370
50
 62
4
100
AcDbLine
 10
58.58893999999999
 20
-0.151368
 30
0.0
 11
58.54695899999999
 21
-0.112645
 31
0.0
  0
LINE
  5
781
330
1F
100
AcDbEntity
  8
1
  6
CONTINUOUS
370
50
 62
4
100
AcDbLine
 10
57.864971
 20
-0.141025
 30
0.0
 11
57.793674
 21
-0.075262
 31
0.0
  0
LINE
  5
782
330
1F
100
AcDbEntity
  8
1
  6
CONTINUOUS
370
50
 62
4
100
AcDbLine
 10
58.472275
 20
0.038298
 30
0.0
 11
58.430431
 21
0.076883
 31
0.0
  0
LINE
  5
783
330
1F
100
AcDbEntity
  8
1
  6
CONTINUOUS
370
50
 62
4
100
AcDbLine
 10
57.280296
 20
0.4461
 30
0.0
 11
57.265987
 21
0.459277
 31
0.0
  0
LINE
  5
784
330
1F
100
AcDbEntity
  8
1
  6
CONTINUOUS
370
50
 62
4
100
AcDbLine
 10
58.346256
 20
0.154184
 30
0.0
 11
58.304607
 21
0.192534
 31
0.0
  0
LINE
  5
785
330
1F
100
AcDbEntity
  8
1
  6
CONTINUOUS
370
50
 62
4
100
AcDbLine
 10
58.430431
 20
0.076883
 30
0.0
 11
58.388309
 21
0.115573
 31
0.0
  0
LINE
  5
786
330
1F
100
AcDbEntity
  8
1
  6
CONTINUOUS
370
50
 62
4
100
AcDbLine
 10
58.388309
 20
0.115573
 30
0.0
 11
58.346256
 21
0.154184
 31
0.0
  0
LINE
  5
787
330
1F
100
AcDbEntity
  8
1
  6
CONTINUOUS
370
50
 62
4
100
AcDbLine
 10
59.827702
 20
0.24507
 30
0.0
 11
59.79721799999999
 21
0.273043
 31
0.0
  0
LINE
  5
788
330
1F
100
AcDbEntity
  8
1
  6
CONTINUOUS
370
50
 62
4
100
AcDbLine
 10
59.159115
 20
0.141864
 30
0.0
 11
59.1189
 21
0.178494
 31
0.0
  0
LINE
  5
789
330
1F
100
AcDbEntity
  8
1
  6
CONTINUOUS
370
50
 62
4
100
AcDbLine
 10
58.172569
 20
0.246249
 30
0.0
 11
58.123074
 21
0.29104
 31
0.0
  0
LINE
  5
78A
330
1F
100
AcDbEntity
  8
1
  6
CONTINUOUS
370
50
 62
4
100
AcDbLine
 10
57.822697
 20
-0.180796
 30
0.0
 11
57.785892
 21
-0.14749
 31
0.0
  0
LINE
  5
78B
330
1F
100
AcDbEntity
  8
1
  6
CONTINUOUS
370
50
 62
4
100
AcDbLine
 10
59.78195599999999
 20
0.216238
 30
0.0
 11
59.748558
 21
0.246351
 31
0.0
  0
LINE
  5
78C
330
1F
100
AcDbEntity
  8
1
  6
CONTINUOUS
370
50
 62
4
100
AcDbLine
 10
58.225277
 20
0.266181
 30
0.0
 11
58.187252
 21
0.300454
 31
0.0
  0
LINE
  5
78D
330
1F
100
AcDbEntity
  8
1
  6
CONTINUOUS
370
50
 62
4
100
AcDbLine
 10
59.505829
 20
-0.20856
 30
0.0
 11
59.453186
 21
-0.161455
 31
0.0
  0
LINE
  5
78E
330
1F
100
AcDbEntity
  8
1
  6
CONTINUOUS
370
50
 62
4
100
AcDbLine
 10
59.105717
 20
0.112136
 30
0.0
 11
59.0383
 21
0.172452
 31
0.0
  0
LINE
  5
78F
330
1F
100
AcDbEntity
  8
1
  6
CONTINUOUS
370
50
 62
4
100
AcDbLine
 10
58.76218
 20
-0.309977
 30
0.0
 11
58.717464
 21
-0.270039
 31
0.0
  0
LINE
  5
790
330
1F
100
AcDbEntity
  8
1
  6
CONTINUOUS
370
50
 62
4
100
AcDbLine
 10
57.48634
 20
0.22986
 30
0.0
 11
57.462055
 21
0.251294
 31
0.0
  0
LINE
  5
791
330
1F
100
AcDbEntity
  8
1
  6
CONTINUOUS
370
50
 62
4
100
AcDbLine
 10
57.929688
 20
-0.197514
 30
0.0
 11
57.864971
 21
-0.141025
 31
0.0
  0
LINE
  5
792
330
1F
100
AcDbEntity
  8
1
  6
CONTINUOUS
370
50
 62
4
100
AcDbLine
 10
59.4729
 20
-0.252958
 30
0.0
 11
59.433533
 21
-0.218791
 31
0.0
  0
LINE
  5
793
330
1F
100
AcDbEntity
  8
1
  6
CONTINUOUS
370
50
 62
4
100
AcDbLine
 10
57.85989
 20
-0.212949
 30
0.0
 11
57.822697
 21
-0.180796
 31
0.0
  0
LINE
  5
794
330
1F
100
AcDbEntity
  8
1
  6
CONTINUOUS
370
50
 62
4
100
AcDbLine
 10
59.1189
 20
0.178494
 30
0.0
 11
59.077763
 21
0.214027
 31
0.0
  0
LINE
  5
795
330
1F
100
AcDbEntity
  8
1
  6
CONTINUOUS
370
50
 62
4
100
AcDbLine
 10
59.938278
 20
0.051656
 30
0.0
 11
59.93056499999999
 21
0.058256
 31
0.0
  0
LINE
  5
796
330
1F
100
AcDbEntity
  8
1
  6
CONTINUOUS
370
50
 62
4
100
AcDbLine
 10
59.945038
 20
0.045872
 30
0.0
 11
59.938278
 21
0.051656
 31
0.0
  0
LINE
  5
797
330
1F
100
AcDbEntity
  8
1
  6
CONTINUOUS
370
50
 62
4
100
AcDbLine
 10
59.93056499999999
 20
0.058256
 30
0.0
 11
59.921806
 21
0.065744
 31
0.0
  0
LINE
  5
798
330
1F
100
AcDbEntity
  8
1
  6
CONTINUOUS
370
50
 62
4
100
AcDbLine
 10
59.921806
 20
0.065744
 30
0.0
 11
59.912052
 21
0.074081
 31
0.0
  0
LINE
  5
799
330
1F
100
AcDbEntity
  8
1
  6
CONTINUOUS
370
50
 62
4
100
AcDbLine
 10
59.912052
 20
0.074081
 30
0.0
 11
59.901279
 21
0.083284
 31
0.0
  0
LINE
  5
79A
330
1F
100
AcDbEntity
  8
1
  6
CONTINUOUS
370
50
 62
4
100
AcDbLine
 10
59.901279
 20
0.083284
 30
0.0
 11
59.889458
 21
0.093382
 31
0.0
  0
LINE
  5
79B
330
1F
100
AcDbEntity
  8
1
  6
CONTINUOUS
370
50
 62
4
100
AcDbLine
 10
59.889458
 20
0.093382
 30
0.0
 11
59.878128
 21
0.103057
 31
0.0
  0
LINE
  5
79C
330
1F
100
AcDbEntity
  8
1
  6
CONTINUOUS
370
50
 62
4
100
AcDbLine
 10
59.846512
 20
0.130047
 30
0.0
 11
59.84332999999999
 21
0.132764
 31
0.0
  0
LINE
  5
79D
330
1F
100
AcDbEntity
  8
1
  6
CONTINUOUS
370
50
 62
4
100
AcDbLine
 10
59.860394
 20
0.118198
 30
0.0
 11
59.85413399999999
 21
0.123543
 31
0.0
  0
LINE
  5
79E
330
1F
100
AcDbEntity
  8
1
  6
CONTINUOUS
370
50
 62
4
100
AcDbLine
 10
59.878128
 20
0.103057
 30
0.0
 11
59.868416
 21
0.111349
 31
0.0
  0
LINE
  5
79F
330
1F
100
AcDbEntity
  8
1
  6
CONTINUOUS
370
50
 62
4
100
AcDbLine
 10
59.868416
 20
0.111349
 30
0.0
 11
59.860394
 21
0.118198
 31
0.0
  0
LINE
  5
7A0
330
1F
100
AcDbEntity
  8
1
  6
CONTINUOUS
370
50
 62
4
100
AcDbLine
 10
59.83692199999999
 20
0.138232
 30
0.0
 11
59.83371
 21
0.140974
 31
0.0
  0
LINE
  5
7A1
330
1F
100
AcDbEntity
  8
1
  6
CONTINUOUS
370
50
 62
4
100
AcDbLine
 10
59.84012999999999
 20
0.135494
 30
0.0
 11
59.83692199999999
 21
0.138232
 31
0.0
  0
LINE
  5
7A2
330
1F
100
AcDbEntity
  8
1
  6
CONTINUOUS
370
50
 62
4
100
AcDbLine
 10
59.85413399999999
 20
0.123543
 30
0.0
 11
59.849705
 21
0.127323
 31
0.0
  0
LINE
  5
7A3
330
1F
100
AcDbEntity
  8
1
  6
CONTINUOUS
370
50
 62
4
100
AcDbLine
 10
59.83049399999999
 20
0.143717
 30
0.0
 11
59.827274
 21
0.146465
 31
0.0
  0
LINE
  5
7A4
330
1F
100
AcDbEntity
  8
1
  6
CONTINUOUS
370
50
 62
4
100
AcDbLine
 10
59.84332999999999
 20
0.132764
 30
0.0
 11
59.84012999999999
 21
0.135494
 31
0.0
  0
LINE
  5
7A5
330
1F
100
AcDbEntity
  8
1
  6
CONTINUOUS
370
50
 62
4
100
AcDbLine
 10
59.849705
 20
0.127323
 30
0.0
 11
59.846512
 21
0.130047
 31
0.0
  0
LINE
  5
7A6
330
1F
100
AcDbEntity
  8
1
  6
CONTINUOUS
370
50
 62
4
100
AcDbLine
 10
59.827274
 20
0.146465
 30
0.0
 11
59.824047
 21
0.149218
 31
0.0
  0
LINE
  5
7A7
330
1F
100
AcDbEntity
  8
1
  6
CONTINUOUS
370
50
 62
4
100
AcDbLine
 10
59.83371
 20
0.140974
 30
0.0
 11
59.83049399999999
 21
0.143717
 31
0.0
  0
LINE
  5
7A8
330
1F
100
AcDbEntity
  8
1
  6
CONTINUOUS
370
50
 62
4
100
AcDbLine
 10
59.79721799999999
 20
0.273043
 30
0.0
 11
59.763039
 21
0.302112
 31
0.0
  0
LINE
  5
7A9
330
1F
100
AcDbEntity
  8
1
  6
CONTINUOUS
370
50
 62
4
100
AcDbLine
 10
59.0383
 20
0.172452
 30
0.0
 11
58.969711
 21
0.230781
 31
0.0
  0
LINE
  5
7AA
330
1F
100
AcDbEntity
  8
1
  6
CONTINUOUS
370
50
 62
4
100
AcDbLine
 10
57.64409999999999
 20
-0.002978
 30
0.0
 11
57.620079
 21
0.017427
 31
0.0
  0
LINE
  5
7AB
330
1F
100
AcDbEntity
  8
1
  6
CONTINUOUS
370
50
 62
4
100
AcDbLine
 10
58.187252
 20
0.300454
 30
0.0
 11
58.149017
 21
0.332841
 31
0.0
  0
LINE
  5
7AC
330
1F
100
AcDbEntity
  8
1
  6
CONTINUOUS
370
50
 62
4
100
AcDbLine
 10
59.748558
 20
0.246351
 30
0.0
 11
59.714653
 21
0.274958
 31
0.0
  0
LINE
  5
7AD
330
1F
100
AcDbEntity
  8
1
  6
CONTINUOUS
370
50
 62
4
100
AcDbLine
 10
57.620079
 20
0.017427
 30
0.0
 11
57.596062
 21
0.037553
 31
0.0
  0
LINE
  5
7AE
330
1F
100
AcDbEntity
  8
1
  6
CONTINUOUS
370
50
 62
4
100
AcDbLine
 10
57.993145
 20
-0.250648
 30
0.0
 11
57.929688
 21
-0.197514
 31
0.0
  0
LINE
  5
7AF
330
1F
100
AcDbEntity
  8
1
  6
CONTINUOUS
370
50
 62
4
100
AcDbLine
 10
59.557945
 20
-0.252096
 30
0.0
 11
59.505829
 21
-0.20856
 31
0.0
  0
LINE
  5
7B0
330
1F
100
AcDbEntity
  8
1
  6
CONTINUOUS
370
50
 62
4
100
AcDbLine
 10
57.89722099999999
 20
-0.243852
 30
0.0
 11
57.85989
 21
-0.212949
 31
0.0
  0
LINE
  5
7B1
330
1F
100
AcDbEntity
  8
1
  6
CONTINUOUS
370
50
 62
4
100
AcDbLine
 10
59.077763
 20
0.214027
 30
0.0
 11
59.036251
 21
0.248185
 31
0.0
  0
LINE
  5
7B2
330
1F
100
AcDbEntity
  8
1
  6
CONTINUOUS
370
50
 62
4
100
AcDbLine
 10
58.969711
 20
0.230781
 30
0.0
 11
58.902859
 21
0.285443
 31
0.0
  0
LINE
  5
7B3
330
1F
100
AcDbEntity
  8
1
  6
CONTINUOUS
370
50
 62
4
100
AcDbLine
 10
58.81026499999999
 20
-0.349188
 30
0.0
 11
58.76218
 21
-0.309977
 31
0.0
  0
LINE
  5
7B4
330
1F
100
AcDbEntity
  8
1
  6
CONTINUOUS
370
50
 62
4
100
AcDbLine
 10
58.865993
 20
-0.332496
 30
0.0
 11
58.803864
 21
-0.281889
 31
0.0
  0
LINE
  5
7B5
330
1F
100
AcDbEntity
  8
1
  6
CONTINUOUS
370
50
 62
4
100
AcDbLine
 10
57.596062
 20
0.037553
 30
0.0
 11
57.572044
 21
0.057004
 31
0.0
  0
LINE
  5
7B6
330
1F
100
AcDbEntity
  8
1
  6
CONTINUOUS
370
50
 62
4
100
AcDbLine
 10
57.265987
 20
0.459277
 30
0.0
 11
57.25185399999999
 21
0.470719
 31
0.0
  0
LINE
  5
7B7
330
1F
100
AcDbEntity
  8
1
  6
CONTINUOUS
370
50
 62
4
100
AcDbLine
 10
58.055267
 20
-0.30088
 30
0.0
 11
57.993145
 21
-0.250648
 31
0.0
  0
LINE
  5
7B8
330
1F
100
AcDbEntity
  8
1
  6
CONTINUOUS
370
50
 62
4
100
AcDbLine
 10
59.512905
 20
-0.285262
 30
0.0
 11
59.4729
 21
-0.252958
 31
0.0
  0
LINE
  5
7B9
330
1F
100
AcDbEntity
  8
1
  6
CONTINUOUS
370
50
 62
4
100
AcDbLine
 10
58.123074
 20
0.29104
 30
0.0
 11
58.072174
 21
0.331828
 31
0.0
  0
LINE
  5
7BA
330
1F
100
AcDbEntity
  8
1
  6
CONTINUOUS
370
50
 62
4
100
AcDbLine
 10
57.934441
 20
-0.273437
 30
0.0
 11
57.89722099999999
 21
-0.243852
 31
0.0
  0
LINE
  5
7BB
330
1F
100
AcDbEntity
  8
1
  6
CONTINUOUS
370
50
 62
4
100
AcDbLine
 10
57.420208
 20
-0.406049
 30
0.0
 11
57.400402
 21
-0.39032
 31
0.0
  0
LINE
  5
7BC
330
1F
100
AcDbEntity
  8
1
  6
CONTINUOUS
370
50
 62
4
100
AcDbLine
 10
58.902859
 20
0.285443
 30
0.0
 11
58.843025
 21
0.332942
 31
0.0
  0
LINE
  5
7BD
330
1F
100
AcDbEntity
  8
1
  6
CONTINUOUS
370
50
 62
4
100
AcDbLine
 10
59.714653
 20
0.274958
 30
0.0
 11
59.680386
 21
0.302014
 31
0.0
  0
LINE
  5
7BE
330
1F
100
AcDbEntity
  8
1
  6
CONTINUOUS
370
50
 62
4
100
AcDbLine
 10
58.112457
 20
-0.345938
 30
0.0
 11
58.055267
 21
-0.30088
 31
0.0
  0
LINE
  5
7BF
330
1F
100
AcDbEntity
  8
1
  6
CONTINUOUS
370
50
 62
4
100
AcDbLine
 10
59.036251
 20
0.248185
 30
0.0
 11
58.99472799999999
 21
0.280829
 31
0.0
  0
LINE
  5
7C0
330
1F
100
AcDbEntity
  8
1
  6
CONTINUOUS
370
50
 62
4
100
AcDbLine
 10
59.60886
 20
-0.291972
 30
0.0
 11
59.557945
 21
-0.252096
 31
0.0
  0
LINE
  5
7C1
330
1F
100
AcDbEntity
  8
1
  6
CONTINUOUS
370
50
 62
4
100
AcDbLine
 10
57.572044
 20
0.057004
 30
0.0
 11
57.54803099999999
 21
0.0758
 31
0.0
  0
LINE
  5
7C2
330
1F
100
AcDbEntity
  8
1
  6
CONTINUOUS
370
50
 62
4
100
AcDbLine
 10
59.763039
 20
0.302112
 30
0.0
 11
59.725002
 21
0.331689
 31
0.0
  0
LINE
  5
7C3
330
1F
100
AcDbEntity
  8
1
  6
CONTINUOUS
370
50
 62
4
100
AcDbLine
 10
58.149017
 20
0.332841
 30
0.0
 11
58.109592
 21
0.36321
 31
0.0
  0
LINE
  5
7C4
330
1F
100
AcDbEntity
  8
1
  6
CONTINUOUS
370
50
 62
4
100
AcDbLine
 10
57.97155799999999
 20
-0.301955
 30
0.0
 11
57.934441
 21
-0.273437
 31
0.0
  0
LINE
  5
7C5
330
1F
100
AcDbEntity
  8
1
  6
CONTINUOUS
370
50
 62
4
100
AcDbLine
 10
57.54803099999999
 20
0.0758
 30
0.0
 11
57.52401399999999
 21
0.093963
 31
0.0
  0
LINE
  5
7C6
330
1F
100
AcDbEntity
  8
1
  6
CONTINUOUS
370
50
 62
4
100
AcDbLine
 10
58.99472799999999
 20
0.280829
 30
0.0
 11
58.953545
 21
0.311822
 31
0.0
  0
LINE
  5
7C7
330
1F
100
AcDbEntity
  8
1
  6
CONTINUOUS
370
50
 62
4
100
AcDbLine
 10
59.553265
 20
-0.315631
 30
0.0
 11
59.512905
 21
-0.285262
 31
0.0
  0
LINE
  5
7C8
330
1F
100
AcDbEntity
  8
1
  6
CONTINUOUS
370
50
 62
4
100
AcDbLine
 10
58.843025
 20
0.332942
 30
0.0
 11
58.789665
 21
0.373052
 31
0.0
  0
LINE
  5
7C9
330
1F
100
AcDbEntity
  8
1
  6
CONTINUOUS
370
50
 62
4
100
AcDbLine
 10
59.223408
 20
-0.002325
 30
0.0
 11
59.158882
 21
0.046129
 31
0.0
  0
LINE
  5
7CA
330
1F
100
AcDbEntity
  8
1
  6
CONTINUOUS
370
50
 62
4
100
AcDbLine
 10
58.229733
 20
0.141799
 30
0.0
 11
58.163391
 21
0.191568
 31
0.0
  0
LINE
  5
7CB
330
1F
100
AcDbEntity
  8
1
  6
CONTINUOUS
370
50
 62
4
100
AcDbLine
 10
58.296082
 20
0.092174
 30
0.0
 11
58.229733
 21
0.141799
 31
0.0
  0
LINE
  5
7CC
330
1F
100
AcDbEntity
  8
1
  6
CONTINUOUS
370
50
 62
4
100
AcDbLine
 10
57.268124
 20
0.458579
 30
0.0
 11
57.25185399999999
 21
0.470722
 31
0.0
  0
LINE
  5
7CD
330
1F
100
AcDbEntity
  8
1
  6
CONTINUOUS
370
50
 62
4
100
AcDbLine
 10
57.28442399999999
 20
0.446477
 30
0.0
 11
57.268124
 21
0.458579
 31
0.0
  0
LINE
  5
7CE
330
1F
100
AcDbEntity
  8
1
  6
CONTINUOUS
370
50
 62
4
100
AcDbLine
 10
58.008495
 20
-0.329335
 30
0.0
 11
57.97155799999999
 21
-0.301955
 31
0.0
  0
LINE
  5
7CF
330
1F
100
AcDbEntity
  8
1
  6
CONTINUOUS
370
50
 62
4
100
AcDbLine
 10
59.680386
 20
0.302014
 30
0.0
 11
59.64590099999999
 21
0.327478
 31
0.0
  0
LINE
  5
7D0
330
1F
100
AcDbEntity
  8
1
  6
CONTINUOUS
370
50
 62
4
100
AcDbLine
 10
58.165726
 20
-0.385228
 30
0.0
 11
58.112457
 21
-0.345938
 31
0.0
  0
LINE
  5
7D1
330
1F
100
AcDbEntity
  8
1
  6
CONTINUOUS
370
50
 62
4
100
AcDbLine
 10
59.657898
 20
-0.328095
 30
0.0
 11
59.60886
 21
-0.291972
 31
0.0
  0
LINE
  5
7D2
330
1F
100
AcDbEntity
  8
1
  6
CONTINUOUS
370
50
 62
4
100
AcDbLine
 10
57.328636
 20
0.414057
 30
0.0
 11
57.28442399999999
 21
0.446477
 31
0.0
  0
LINE
  5
7D3
330
1F
100
AcDbEntity
  8
1
  6
CONTINUOUS
370
50
 62
4
100
AcDbLine
 10
59.834961
 20
0.122916
 30
0.0
 11
59.768566
 21
0.171543
 31
0.0
  0
LINE
  5
7D4
330
1F
100
AcDbEntity
  8
1
  6
CONTINUOUS
370
50
 62
4
100
AcDbLine
 10
57.52401399999999
 20
0.093963
 30
0.0
 11
57.5
 21
0.111512
 31
0.0
  0
LINE
  5
7D5
330
1F
100
AcDbEntity
  8
1
  6
CONTINUOUS
370
50
 62
4
100
AcDbLine
 10
58.362434
 20
0.043862
 30
0.0
 11
58.296082
 21
0.092174
 31
0.0
  0
LINE
  5
7D6
330
1F
100
AcDbEntity
  8
1
  6
CONTINUOUS
370
50
 62
4
100
AcDbLine
 10
57.391636
 20
0.368369
 30
0.0
 11
57.328636
 21
0.414057
 31
0.0
  0
LINE
  5
7D7
330
1F
100
AcDbEntity
  8
1
  6
CONTINUOUS
370
50
 62
4
100
AcDbLine
 10
58.953545
 20
0.311822
 30
0.0
 11
58.913013
 21
0.341059
 31
0.0
  0
LINE
  5
7D8
330
1F
100
AcDbEntity
  8
1
  6
CONTINUOUS
370
50
 62
4
100
AcDbLine
 10
58.04513499999999
 20
-0.355383
 30
0.0
 11
58.008495
 21
-0.329335
 31
0.0
  0
LINE
  5
7D9
330
1F
100
AcDbEntity
  8
1
  6
CONTINUOUS
370
50
 62
4
100
AcDbLine
 10
57.44567499999999
 20
0.329969
 30
0.0
 11
57.391636
 21
0.368369
 31
0.0
  0
LINE
  5
7DA
330
1F
100
AcDbEntity
  8
1
  6
CONTINUOUS
370
50
 62
4
100
AcDbLine
 10
59.158882
 20
0.046129
 30
0.0
 11
59.094353
 21
0.091847
 31
0.0
  0
LINE
  5
7DB
330
1F
100
AcDbEntity
  8
1
  6
CONTINUOUS
370
50
 62
4
100
AcDbLine
 10
58.428783
 20
-0.003103
 30
0.0
 11
58.362434
 21
0.043862
 31
0.0
  0
LINE
  5
7DC
330
1F
100
AcDbEntity
  8
1
  6
CONTINUOUS
370
50
 62
4
100
AcDbLine
 10
58.863255
 20
-0.38661
 30
0.0
 11
58.81026499999999
 21
-0.349188
 31
0.0
  0
LINE
  5
7DD
330
1F
100
AcDbEntity
  8
1
  6
CONTINUOUS
370
50
 62
4
100
AcDbLine
 10
58.072174
 20
0.331828
 30
0.0
 11
58.020233
 21
0.368423
 31
0.0
  0
LINE
  5
7DE
330
1F
100
AcDbEntity
  8
1
  6
CONTINUOUS
370
50
 62
4
100
AcDbLine
 10
59.725002
 20
0.331689
 30
0.0
 11
59.68295699999999
 21
0.361189
 31
0.0
  0
LINE
  5
7DF
330
1F
100
AcDbEntity
  8
1
  6
CONTINUOUS
370
50
 62
4
100
AcDbLine
 10
59.59367
 20
-0.343976
 30
0.0
 11
59.553265
 21
-0.315631
 31
0.0
  0
LINE
  5
7E0
330
1F
100
AcDbEntity
  8
1
  6
CONTINUOUS
370
50
 62
4
100
AcDbLine
 10
57.5
 20
0.292008
 30
0.0
 11
57.44567499999999
 21
0.329969
 31
0.0
  0
LINE
  5
7E1
330
1F
100
AcDbEntity
  8
1
  6
CONTINUOUS
370
50
 62
4
100
AcDbLine
 10
59.704071
 20
-0.360187
 30
0.0
 11
59.657898
 21
-0.328095
 31
0.0
  0
LINE
  5
7E2
330
1F
100
AcDbEntity
  8
1
  6
CONTINUOUS
370
50
 62
4
100
AcDbLine
 10
57.25185399999999
 20
0.470719
 30
0.0
 11
57.239613
 21
0.479186
 31
0.0
  0
LINE
  5
7E3
330
1F
100
AcDbEntity
  8
1
  6
CONTINUOUS
370
50
 62
4
100
AcDbLine
 10
58.913013
 20
0.341059
 30
0.0
 11
58.873093
 21
0.368612
 31
0.0
  0
LINE
  5
7E4
330
1F
100
AcDbEntity
  8
1
  6
CONTINUOUS
370
50
 62
4
100
AcDbLine
 10
59.64590099999999
 20
0.327478
 30
0.0
 11
59.611343
 21
0.351305
 31
0.0
  0
LINE
  5
7E5
330
1F
100
AcDbEntity
  8
1
  6
CONTINUOUS
370
50
 62
4
100
AcDbLine
 10
58.929859
 20
-0.376404
 30
0.0
 11
58.865993
 21
-0.332496
 31
0.0
  0
LINE
  5
7E6
330
1F
100
AcDbEntity
  8
1
  6
CONTINUOUS
370
50
 62
4
100
AcDbLine
 10
58.789665
 20
0.373052
 30
0.0
 11
58.740993
 21
0.406303
 31
0.0
  0
LINE
  5
7E7
330
1F
100
AcDbEntity
  8
1
  6
CONTINUOUS
370
50
 62
4
100
AcDbLine
 10
58.109592
 20
0.36321
 30
0.0
 11
58.067989
 21
0.39143
 31
0.0
  0
LINE
  5
7E8
330
1F
100
AcDbEntity
  8
1
  6
CONTINUOUS
370
50
 62
4
100
AcDbLine
 10
58.081352
 20
-0.379903
 30
0.0
 11
58.04513499999999
 21
-0.355383
 31
0.0
  0
LINE
  5
7E9
330
1F
100
AcDbEntity
  8
1
  6
CONTINUOUS
370
50
 62
4
100
AcDbLine
 10
57.44104799999999
 20
-0.420145
 30
0.0
 11
57.420208
 21
-0.406049
 31
0.0
  0
LINE
  5
7EA
330
1F
100
AcDbEntity
  8
1
  6
CONTINUOUS
370
50
 62
4
100
AcDbLine
 10
59.905598
 20
-0.099471
 30
0.0
 11
59.90130199999999
 21
-0.09658
 31
0.0
  0
LINE
  5
7EB
330
1F
100
AcDbEntity
  8
1
  6
CONTINUOUS
370
50
 62
4
100
AcDbLine
 10
59.094353
 20
0.091847
 30
0.0
 11
59.029816
 21
0.135049
 31
0.0
  0
LINE
  5
7EC
330
1F
100
AcDbEntity
  8
1
  6
CONTINUOUS
370
50
 62
4
100
AcDbLine
 10
59.909893
 20
-0.102345
 30
0.0
 11
59.905598
 21
-0.099471
 31
0.0
  0
LINE
  5
7ED
330
1F
100
AcDbEntity
  8
1
  6
CONTINUOUS
370
50
 62
4
100
AcDbLine
 10
59.914192
 20
-0.105203
 30
0.0
 11
59.909893
 21
-0.102345
 31
0.0
  0
LINE
  5
7EE
330
1F
100
AcDbEntity
  8
1
  6
CONTINUOUS
370
50
 62
4
100
AcDbLine
 10
58.239174
 20
-0.049146
 30
0.0
 11
58.23336399999999
 21
-0.0453
 31
0.0
  0
LINE
  5
7EF
330
1F
100
AcDbEntity
  8
1
  6
CONTINUOUS
370
50
 62
4
100
AcDbLine
 10
59.918491
 20
-0.108046
 30
0.0
 11
59.914192
 21
-0.105203
 31
0.0
  0
LINE
  5
7F0
330
1F
100
AcDbEntity
  8
1
  6
CONTINUOUS
370
50
 62
4
100
AcDbLine
 10
58.163391
 20
0.191568
 30
0.0
 11
58.097057
 21
0.23537
 31
0.0
  0
LINE
  5
7F1
330
1F
100
AcDbEntity
  8
1
  6
CONTINUOUS
370
50
 62
4
100
AcDbLine
 10
59.922802
 20
-0.110877
 30
0.0
 11
59.918491
 21
-0.108046
 31
0.0
  0
LINE
  5
7F2
330
1F
100
AcDbEntity
  8
1
  6
CONTINUOUS
370
50
 62
4
100
AcDbLine
 10
59.745892
 20
-0.387645
 30
0.0
 11
59.704071
 21
-0.360187
 31
0.0
  0
LINE
  5
7F3
330
1F
100
AcDbEntity
  8
1
  6
CONTINUOUS
370
50
 62
4
100
AcDbLine
 10
58.245003
 20
-0.052973
 30
0.0
 11
58.239174
 21
-0.049146
 31
0.0
  0
LINE
  5
7F4
330
1F
100
AcDbEntity
  8
1
  6
CONTINUOUS
370
50
 62
4
100
AcDbLine
 10
58.873093
 20
0.368612
 30
0.0
 11
58.833839
 21
0.394323
 31
0.0
  0
LINE
  5
7F5
330
1F
100
AcDbEntity
  8
1
  6
CONTINUOUS
370
50
 62
4
100
AcDbLine
 10
59.634018
 20
-0.370386
 30
0.0
 11
59.59367
 21
-0.343976
 31
0.0
  0
LINE
  5
7F6
330
1F
100
AcDbEntity
  8
1
  6
CONTINUOUS
370
50
 62
4
100
AcDbLine
 10
59.927116
 20
-0.113698
 30
0.0
 11
59.922802
 21
-0.110877
 31
0.0
  0
LINE
  5
7F7
330
1F
100
AcDbEntity
  8
1
  6
CONTINUOUS
370
50
 62
4
100
AcDbLine
 10
58.250843
 20
-0.056777
 30
0.0
 11
58.245003
 21
-0.052973
 31
0.0
  0
LINE
  5
7F8
330
1F
100
AcDbEntity
  8
1
  6
CONTINUOUS
370
50
 62
4
100
AcDbLine
 10
59.93144599999999
 20
-0.116509
 30
0.0
 11
59.927116
 21
-0.113698
 31
0.0
  0
LINE
  5
7F9
330
1F
100
AcDbEntity
  8
1
  6
CONTINUOUS
370
50
 62
4
100
AcDbLine
 10
58.217579
 20
-0.418846
 30
0.0
 11
58.165726
 21
-0.385228
 31
0.0
  0
LINE
  5
7FA
330
1F
100
AcDbEntity
  8
1
  6
CONTINUOUS
370
50
 62
4
100
AcDbLine
 10
58.256691
 20
-0.060553
 30
0.0
 11
58.250843
 21
-0.056777
 31
0.0
  0
LINE
  5
7FB
330
1F
100
AcDbEntity
  8
1
  6
CONTINUOUS
370
50
 62
4
100
AcDbLine
 10
59.768566
 20
0.171543
 30
0.0
 11
59.702171
 21
0.214296
 31
0.0
  0
LINE
  5
7FC
330
1F
100
AcDbEntity
  8
1
  6
CONTINUOUS
370
50
 62
4
100
AcDbLine
 10
59.611343
 20
0.351305
 30
0.0
 11
59.576797
 21
0.373504
 31
0.0
  0
LINE
  5
7FD
330
1F
100
AcDbEntity
  8
1
  6
CONTINUOUS
370
50
 62
4
100
AcDbLine
 10
58.26255
 20
-0.0643
 30
0.0
 11
58.256691
 21
-0.060553
 31
0.0
  0
LINE
  5
7FE
330
1F
100
AcDbEntity
  8
1
  6
CONTINUOUS
370
50
 62
4
100
AcDbLine
 10
58.117027
 20
-0.402703
 30
0.0
 11
58.081352
 21
-0.379903
 31
0.0
  0
LINE
  5
7FF
330
1F
100
AcDbEntity
  8
1
  6
CONTINUOUS
370
50
 62
4
100
AcDbLine
 10
59.029816
 20
0.135049
 30
0.0
 11
58.965275
 21
0.176139
 31
0.0
  0
LINE
  5
800
330
1F
100
AcDbEntity
  8
1
  6
CONTINUOUS
370
50
 62
4
100
AcDbLine
 10
58.268417
 20
-0.068011
 30
0.0
 11
58.26255
 21
-0.0643
 31
0.0
  0
LINE
  5
801
330
1F
100
AcDbEntity
  8
1
  6
CONTINUOUS
370
50
 62
4
100
AcDbLine
 10
58.801949
 20
0.071618
 30
0.0
 11
58.79618499999999
 21
0.075229
 31
0.0
  0
LINE
  5
802
330
1F
100
AcDbEntity
  8
1
  6
CONTINUOUS
370
50
 62
4
100
AcDbLine
 10
58.27428399999999
 20
-0.071685
 30
0.0
 11
58.268417
 21
-0.068011
 31
0.0
  0
LINE
  5
803
330
1F
100
AcDbEntity
  8
1
  6
CONTINUOUS
370
50
 62
4
100
AcDbLine
 10
58.807728
 20
0.068002
 30
0.0
 11
58.801949
 21
0.071618
 31
0.0
  0
LINE
  5
804
330
1F
100
AcDbEntity
  8
1
  6
CONTINUOUS
370
50
 62
4
100
AcDbLine
 10
59.68295699999999
 20
0.361189
 30
0.0
 11
59.637383
 21
0.3897
 31
0.0
  0
LINE
  5
805
330
1F
100
AcDbEntity
  8
1
  6
CONTINUOUS
370
50
 62
4
100
AcDbLine
 10
58.813519
 20
0.064385
 30
0.0
 11
58.807728
 21
0.068002
 31
0.0
  0
LINE
  5
806
330
1F
100
AcDbEntity
  8
1
  6
CONTINUOUS
370
50
 62
4
100
AcDbLine
 10
58.819321
 20
0.060769
 30
0.0
 11
58.813519
 21
0.064385
 31
0.0
  0
LINE
  5
807
330
1F
100
AcDbEntity
  8
1
  6
CONTINUOUS
370
50
 62
4
100
AcDbLine
 10
58.82512999999999
 20
0.057158
 30
0.0
 11
58.819321
 21
0.060769
 31
0.0
  0
LINE
  5
808
330
1F
100
AcDbEntity
  8
1
  6
CONTINUOUS
370
50
 62
4
100
AcDbLine
 10
58.830944
 20
0.053555
 30
0.0
 11
58.82512999999999
 21
0.057158
 31
0.0
  0
LINE
  5
809
330
1F
100
AcDbEntity
  8
1
  6
CONTINUOUS
370
50
 62
4
100
AcDbLine
 10
58.836765
 20
0.049964
 30
0.0
 11
58.830944
 21
0.053555
 31
0.0
  0
LINE
  5
80A
330
1F
100
AcDbEntity
  8
1
  6
CONTINUOUS
370
50
 62
4
100
AcDbLine
 10
59.783413
 20
-0.410761
 30
0.0
 11
59.745892
 21
-0.387645
 31
0.0
  0
LINE
  5
80B
330
1F
100
AcDbEntity
  8
1
  6
CONTINUOUS
370
50
 62
4
100
AcDbLine
 10
58.833839
 20
0.394323
 30
0.0
 11
58.79528
 21
0.418043
 31
0.0
  0
LINE
  5
80C
330
1F
100
AcDbEntity
  8
1
  6
CONTINUOUS
370
50
 62
4
100
AcDbLine
 10
58.020233
 20
0.368423
 30
0.0
 11
57.967602
 21
0.400639
 31
0.0
  0
LINE
  5
80D
330
1F
100
AcDbEntity
  8
1
  6
CONTINUOUS
370
50
 62
4
100
AcDbLine
 10
58.965275
 20
0.176139
 30
0.0
 11
58.900726
 21
0.215551
 31
0.0
  0
LINE
  5
80E
330
1F
100
AcDbEntity
  8
1
  6
CONTINUOUS
370
50
 62
4
100
AcDbLine
 10
59.674332
 20
-0.394946
 30
0.0
 11
59.634018
 21
-0.370386
 31
0.0
  0
LINE
  5
80F
330
1F
100
AcDbEntity
  8
1
  6
CONTINUOUS
370
50
 62
4
100
AcDbLine
 10
58.23336399999999
 20
-0.045272
 30
0.0
 11
58.175831
 21
-0.010552
 31
0.0
  0
LINE
  5
810
330
1F
100
AcDbEntity
  8
1
  6
CONTINUOUS
370
50
 62
4
100
AcDbLine
 10
57.488113
 20
-0.445037
 30
0.0
 11
57.48634
 21
-0.443975
 31
0.0
  0
LINE
  5
811
330
1F
100
AcDbEntity
  8
1
  6
CONTINUOUS
370
50
 62
4
100
AcDbLine
 10
59.576797
 20
0.373504
 30
0.0
 11
59.54218299999999
 21
0.394237
 31
0.0
  0
LINE
  5
812
330
1F
100
AcDbEntity
  8
1
  6
CONTINUOUS
370
50
 62
4
100
AcDbLine
 10
58.152031
 20
-0.423587
 30
0.0
 11
58.117027
 21
-0.402703
 31
0.0
  0
LINE
  5
813
330
1F
100
AcDbEntity
  8
1
  6
CONTINUOUS
370
50
 62
4
100
AcDbLine
 10
58.175831
 20
-0.010552
 30
0.0
 11
58.11821699999999
 21
0.023575
 31
0.0
  0
LINE
  5
814
330
1F
100
AcDbEntity
  8
1
  6
CONTINUOUS
370
50
 62
4
100
AcDbLine
 10
58.900726
 20
0.215551
 30
0.0
 11
58.836178
 21
0.253561
 31
0.0
  0
LINE
  5
815
330
1F
100
AcDbEntity
  8
1
  6
CONTINUOUS
370
50
 62
4
100
AcDbLine
 10
58.740993
 20
0.406303
 30
0.0
 11
58.695232
 21
0.433227
 31
0.0
  0
LINE
  5
816
330
1F
100
AcDbEntity
  8
1
  6
CONTINUOUS
370
50
 62
4
100
AcDbLine
 10
59.90130199999999
 20
-0.09658
 30
0.0
 11
59.850502
 21
-0.066755
 31
0.0
  0
LINE
  5
817
330
1F
100
AcDbEntity
  8
1
  6
CONTINUOUS
370
50
 62
4
100
AcDbLine
 10
59.901306
 20
-0.096569
 30
0.0
 11
59.845009
 21
-0.06365
 31
0.0
  0
LINE
  5
818
330
1F
100
AcDbEntity
  8
1
  6
CONTINUOUS
370
50
 62
4
100
AcDbLine
 10
58.92269899999999
 20
-0.421182
 30
0.0
 11
58.863255
 21
-0.38661
 31
0.0
  0
LINE
  5
819
330
1F
100
AcDbEntity
  8
1
  6
CONTINUOUS
370
50
 62
4
100
AcDbLine
 10
58.067989
 20
0.39143
 30
0.0
 11
58.023354
 21
0.417315
 31
0.0
  0
LINE
  5
81A
330
1F
100
AcDbEntity
  8
1
  6
CONTINUOUS
370
50
 62
4
100
AcDbLine
 10
59.850502
 20
-0.066755
 30
0.0
 11
59.79530699999999
 21
-0.034755
 31
0.0
  0
LINE
  5
81B
330
1F
100
AcDbEntity
  8
1
  6
CONTINUOUS
370
50
 62
4
100
AcDbLine
 10
59.845009
 20
-0.06365
 30
0.0
 11
59.788635
 21
-0.031166
 31
0.0
  0
LINE
  5
81C
330
1F
100
AcDbEntity
  8
1
  6
CONTINUOUS
370
50
 62
4
100
AcDbLine
 10
58.79618499999999
 20
0.075267
 30
0.0
 11
58.742599
 21
0.106108
 31
0.0
  0
LINE
  5
81D
330
1F
100
AcDbEntity
  8
1
  6
CONTINUOUS
370
50
 62
4
100
AcDbLine
 10
57.239613
 20
0.479186
 30
0.0
 11
57.227314
 21
0.486245
 31
0.0
  0
LINE
  5
81E
330
1F
100
AcDbEntity
  8
1
  6
CONTINUOUS
370
50
 62
4
100
AcDbLine
 10
58.995342
 20
-0.413961
 30
0.0
 11
58.929859
 21
-0.376404
 31
0.0
  0
LINE
  5
81F
330
1F
100
AcDbEntity
  8
1
  6
CONTINUOUS
370
50
 62
4
100
AcDbLine
 10
59.816814
 20
-0.429901
 30
0.0
 11
59.783413
 21
-0.410761
 31
0.0
  0
LINE
  5
820
330
1F
100
AcDbEntity
  8
1
  6
CONTINUOUS
370
50
 62
4
100
AcDbLine
 10
57.463047
 20
-0.432743
 30
0.0
 11
57.44104799999999
 21
-0.420145
 31
0.0
  0
LINE
  5
821
330
1F
100
AcDbEntity
  8
1
  6
CONTINUOUS
370
50
 62
4
100
AcDbLine
 10
57.680611
 20
-0.162187
 30
0.0
 11
57.67468299999999
 21
-0.158841
 31
0.0
  0
LINE
  5
822
330
1F
100
AcDbEntity
  8
1
  6
CONTINUOUS
370
50
 62
4
100
AcDbLine
 10
57.48997499999999
 20
-0.446087
 30
0.0
 11
57.488113
 21
-0.445037
 31
0.0
  0
LINE
  5
823
330
1F
100
AcDbEntity
  8
1
  6
CONTINUOUS
370
50
 62
4
100
AcDbLine
 10
58.856358
 20
0.038929
 30
0.0
 11
58.836765
 21
0.049964
 31
0.0
  0
LINE
  5
824
330
1F
100
AcDbEntity
  8
1
  6
CONTINUOUS
370
50
 62
4
100
AcDbLine
 10
59.702171
 20
0.214296
 30
0.0
 11
59.635773
 21
0.25168
 31
0.0
  0
LINE
  5
825
330
1F
100
AcDbEntity
  8
1
  6
CONTINUOUS
370
50
 62
4
100
AcDbLine
 10
59.714382
 20
-0.41746
 30
0.0
 11
59.674332
 21
-0.394946
 31
0.0
  0
LINE
  5
826
330
1F
100
AcDbEntity
  8
1
  6
CONTINUOUS
370
50
 62
4
100
AcDbLine
 10
58.79528
 20
0.418043
 30
0.0
 11
58.756512
 21
0.439779
 31
0.0
  0
LINE
  5
827
330
1F
100
AcDbEntity
  8
1
  6
CONTINUOUS
370
50
 62
4
100
AcDbLine
 10
58.097057
 20
0.23537
 30
0.0
 11
58.030731
 21
0.272287
 31
0.0
  0
LINE
  5
828
330
1F
100
AcDbEntity
  8
1
  6
CONTINUOUS
370
50
 62
4
100
AcDbLine
 10
59.54218299999999
 20
0.394237
 30
0.0
 11
59.507668
 21
0.413436
 31
0.0
  0
LINE
  5
829
330
1F
100
AcDbEntity
  8
1
  6
CONTINUOUS
370
50
 62
4
100
AcDbLine
 10
58.836178
 20
0.253561
 30
0.0
 11
58.771629
 21
0.28941
 31
0.0
  0
LINE
  5
82A
330
1F
100
AcDbEntity
  8
1
  6
CONTINUOUS
370
50
 62
4
100
AcDbLine
 10
57.686562
 20
-0.16549
 30
0.0
 11
57.680611
 21
-0.162187
 31
0.0
  0
LINE
  5
82B
330
1F
100
AcDbEntity
  8
1
  6
CONTINUOUS
370
50
 62
4
100
AcDbLine
 10
59.788635
 20
-0.031166
 30
0.0
 11
59.732235
 21
0.000101
 31
0.0
  0
LINE
  5
82C
330
1F
100
AcDbEntity
  8
1
  6
CONTINUOUS
370
50
 62
4
100
AcDbLine
 10
59.79530699999999
 20
-0.034755
 30
0.0
 11
59.73793
 21
-0.002966
 31
0.0
  0
LINE
  5
82D
330
1F
100
AcDbEntity
  8
1
  6
CONTINUOUS
370
50
 62
4
100
AcDbLine
 10
58.85993999999999
 20
0.037332
 30
0.0
 11
58.836761
 21
0.050163
 31
0.0
  0
LINE
  5
82E
330
1F
100
AcDbEntity
  8
1
  6
CONTINUOUS
370
50
 62
4
100
AcDbLine
 10
58.11821699999999
 20
0.023575
 30
0.0
 11
58.060562
 21
0.055488
 31
0.0
  0
LINE
  5
82F
330
1F
100
AcDbEntity
  8
1
  6
CONTINUOUS
370
50
 62
4
100
AcDbLine
 10
59.637383
 20
0.3897
 30
0.0
 11
59.589718
 21
0.416082
 31
0.0
  0
LINE
  5
830
330
1F
100
AcDbEntity
  8
1
  6
CONTINUOUS
370
50
 62
4
100
AcDbLine
 10
58.876076
 20
0.02803
 30
0.0
 11
58.856358
 21
0.038929
 31
0.0
  0
LINE
  5
831
330
1F
100
AcDbEntity
  8
1
  6
CONTINUOUS
370
50
 62
4
100
AcDbLine
 10
58.293415
 20
-0.082192
 30
0.0
 11
58.27428399999999
 21
-0.071685
 31
0.0
  0
LINE
  5
832
330
1F
100
AcDbEntity
  8
1
  6
CONTINUOUS
370
50
 62
4
100
AcDbLine
 10
58.186245
 20
-0.442362
 30
0.0
 11
58.152031
 21
-0.423587
 31
0.0
  0
LINE
  5
833
330
1F
100
AcDbEntity
  8
1
  6
CONTINUOUS
370
50
 62
4
100
AcDbLine
 10
58.883118
 20
0.024661
 30
0.0
 11
58.85993999999999
 21
0.037332
 31
0.0
  0
LINE
  5
834
330
1F
100
AcDbEntity
  8
1
  6
CONTINUOUS
370
50
 62
4
100
AcDbLine
 10
59.823757
 20
-0.00802
 30
0.0
 11
59.804581
 21
0.002462
 31
0.0
  0
LINE
  5
835
330
1F
100
AcDbEntity
  8
1
  6
CONTINUOUS
370
50
 62
4
100
AcDbLine
 10
59.933186
 20
-0.11746
 30
0.0
 11
59.93144599999999
 21
-0.116509
 31
0.0
  0
LINE
  5
836
330
1F
100
AcDbEntity
  8
1
  6
CONTINUOUS
370
50
 62
4
100
AcDbLine
 10
57.692524
 20
-0.168748
 30
0.0
 11
57.686562
 21
-0.16549
 31
0.0
  0
LINE
  5
837
330
1F
100
AcDbEntity
  8
1
  6
CONTINUOUS
370
50
 62
4
100
AcDbLine
 10
57.59520699999999
 20
-0.117437
 30
0.0
 11
57.565907
 21
-0.101511
 31
0.0
  0
LINE
  5
838
330
1F
100
AcDbEntity
  8
1
  6
CONTINUOUS
370
50
 62
4
100
AcDbLine
 10
59.934929
 20
-0.118407
 30
0.0
 11
59.933186
 21
-0.11746
 31
0.0
  0
LINE
  5
839
330
1F
100
AcDbEntity
  8
1
  6
CONTINUOUS
370
50
 62
4
100
AcDbLine
 10
58.895897
 20
0.017271
 30
0.0
 11
58.876076
 21
0.02803
 31
0.0
  0
LINE
  5
83A
330
1F
100
AcDbEntity
  8
1
  6
CONTINUOUS
370
50
 62
4
100
AcDbLine
 10
59.93667199999999
 20
-0.119351
 30
0.0
 11
59.934929
 21
-0.118407
 31
0.0
  0
LINE
  5
83B
330
1F
100
AcDbEntity
  8
1
  6
CONTINUOUS
370
50
 62
4
100
AcDbLine
 10
57.565907
 20
-0.101511
 30
0.0
 11
57.53434
 21
-0.084447
 31
0.0
  0
LINE
  5
83C
330
1F
100
AcDbEntity
  8
1
  6
CONTINUOUS
370
50
 62
4
100
AcDbLine
 10
58.29694
 20
-0.083867
 30
0.0
 11
58.27428399999999
 21
-0.07163
 31
0.0
  0
LINE
  5
83D
330
1F
100
AcDbEntity
  8
1
  6
CONTINUOUS
370
50
 62
4
100
AcDbLine
 10
58.90629999999999
 20
0.012157
 30
0.0
 11
58.883118
 21
0.024661
 31
0.0
  0
LINE
  5
83E
330
1F
100
AcDbEntity
  8
1
  6
CONTINUOUS
370
50
 62
4
100
AcDbLine
 10
58.742599
 20
0.106108
 30
0.0
 11
58.68894599999999
 21
0.135044
 31
0.0
  0
LINE
  5
83F
330
1F
100
AcDbEntity
  8
1
  6
CONTINUOUS
370
50
 62
4
100
AcDbLine
 10
59.938416
 20
-0.120291
 30
0.0
 11
59.93667199999999
 21
-0.119351
 31
0.0
  0
LINE
  5
840
330
1F
100
AcDbEntity
  8
1
  6
CONTINUOUS
370
50
 62
4
100
AcDbLine
 10
57.622757
 20
-0.13227
 30
0.0
 11
57.59520699999999
 21
-0.117437
 31
0.0
  0
LINE
  5
841
330
1F
100
AcDbEntity
  8
1
  6
CONTINUOUS
370
50
 62
4
100
AcDbLine
 10
59.843002
 20
-0.018372
 30
0.0
 11
59.823757
 21
-0.00802
 31
0.0
  0
LINE
  5
842
330
1F
100
AcDbEntity
  8
1
  6
CONTINUOUS
370
50
 62
4
100
AcDbLine
 10
57.616524
 20
-0.129056
 30
0.0
 11
57.587414
 21
-0.113407
 31
0.0
  0
LINE
  5
843
330
1F
100
AcDbEntity
  8
1
  6
CONTINUOUS
370
50
 62
4
100
AcDbLine
 10
57.698498
 20
-0.171955
 30
0.0
 11
57.692524
 21
-0.168748
 31
0.0
  0
LINE
  5
844
330
1F
100
AcDbEntity
  8
1
  6
CONTINUOUS
370
50
 62
4
100
AcDbLine
 10
57.587414
 20
-0.113407
 30
0.0
 11
57.55828899999999
 21
-0.09779
 31
0.0
  0
LINE
  5
845
330
1F
100
AcDbEntity
  8
1
  6
CONTINUOUS
370
50
 62
4
100
AcDbLine
 10
59.940163
 20
-0.121227
 30
0.0
 11
59.938416
 21
-0.120291
 31
0.0
  0
LINE
  5
846
330
1F
100
AcDbEntity
  8
1
  6
CONTINUOUS
370
50
 62
4
100
AcDbLine
 10
59.941906
 20
-0.122159
 30
0.0
 11
59.940163
 21
-0.121227
 31
0.0
  0
LINE
  5
847
330
1F
100
AcDbEntity
  8
1
  6
CONTINUOUS
370
50
 62
4
100
AcDbLine
 10
57.55828899999999
 20
-0.09779
 30
0.0
 11
57.529152
 21
-0.082228
 31
0.0
  0
LINE
  5
848
330
1F
100
AcDbEntity
  8
1
  6
CONTINUOUS
370
50
 62
4
100
AcDbLine
 10
58.915802
 20
0.006658
 30
0.0
 11
58.895897
 21
0.017271
 31
0.0
  0
LINE
  5
849
330
1F
100
AcDbEntity
  8
1
  6
CONTINUOUS
370
50
 62
4
100
AcDbLine
 10
58.929474
 20
-0.000178
 30
0.0
 11
58.90629999999999
 21
0.012157
 31
0.0
  0
LINE
  5
84A
330
1F
100
AcDbEntity
  8
1
  6
CONTINUOUS
370
50
 62
4
100
AcDbLine
 10
59.933186
 20
-0.117389
 30
0.0
 11
59.93144599999999
 21
-0.116463
 31
0.0
  0
LINE
  5
84B
330
1F
100
AcDbEntity
  8
1
  6
CONTINUOUS
370
50
 62
4
100
AcDbLine
 10
57.491917
 20
-0.44712
 30
0.0
 11
57.48997499999999
 21
-0.446087
 31
0.0
  0
LINE
  5
84C
330
1F
100
AcDbEntity
  8
1
  6
CONTINUOUS
370
50
 62
4
100
AcDbLine
 10
57.53434
 20
-0.084447
 30
0.0
 11
57.5
 21
-0.066197
 31
0.0
  0
LINE
  5
84D
330
1F
100
AcDbEntity
  8
1
  6
CONTINUOUS
370
50
 62
4
100
AcDbLine
 10
57.529152
 20
-0.082228
 30
0.0
 11
57.50000799999999
 21
-0.066746
 31
0.0
  0
LINE
  5
84E
330
1F
100
AcDbEntity
  8
1
  6
CONTINUOUS
370
50
 62
4
100
AcDbLine
 10
59.73793
 20
-0.002966
 30
0.0
 11
59.680065
 21
0.027732
 31
0.0
  0
LINE
  5
84F
330
1F
100
AcDbEntity
  8
1
  6
CONTINUOUS
370
50
 62
4
100
AcDbLine
 10
59.934925
 20
-0.118311
 30
0.0
 11
59.933186
 21
-0.117389
 31
0.0
  0
LINE
  5
850
330
1F
100
AcDbEntity
  8
1
  6
CONTINUOUS
370
50
 62
4
100
AcDbLine
 10
59.862301
 20
-0.028596
 30
0.0
 11
59.843002
 21
-0.018372
 31
0.0
  0
LINE
  5
851
330
1F
100
AcDbEntity
  8
1
  6
CONTINUOUS
370
50
 62
4
100
AcDbLine
 10
58.19053299999999
 20
0.335238
 30
0.0
 11
58.161469
 21
0.350634
 31
0.0
  0
LINE
  5
852
330
1F
100
AcDbEntity
  8
1
  6
CONTINUOUS
370
50
 62
4
100
AcDbLine
 10
58.270512
 20
-0.446884
 30
0.0
 11
58.217579
 21
-0.418846
 31
0.0
  0
LINE
  5
853
330
1F
100
AcDbEntity
  8
1
  6
CONTINUOUS
370
50
 62
4
100
AcDbLine
 10
58.312653
 20
-0.09238
 30
0.0
 11
58.293415
 21
-0.082192
 31
0.0
  0
LINE
  5
854
330
1F
100
AcDbEntity
  8
1
  6
CONTINUOUS
370
50
 62
4
100
AcDbLine
 10
59.732235
 20
0.000101
 30
0.0
 11
59.675846
 21
0.029957
 31
0.0
  0
LINE
  5
855
330
1F
100
AcDbEntity
  8
1
  6
CONTINUOUS
370
50
 62
4
100
AcDbLine
 10
58.789207
 20
0.422624
 30
0.0
 11
58.756516
 21
0.439932
 31
0.0
  0
LINE
  5
856
330
1F
100
AcDbEntity
  8
1
  6
CONTINUOUS
370
50
 62
4
100
AcDbLine
 10
57.645615
 20
-0.144444
 30
0.0
 11
57.616524
 21
-0.129056
 31
0.0
  0
LINE
  5
857
330
1F
100
AcDbEntity
  8
1
  6
CONTINUOUS
370
50
 62
4
100
AcDbLine
 10
59.936665
 20
-0.11923
 30
0.0
 11
59.934925
 21
-0.118311
 31
0.0
  0
LINE
  5
858
330
1F
100
AcDbEntity
  8
1
  6
CONTINUOUS
370
50
 62
4
100
AcDbLine
 10
57.704483
 20
-0.17511
 30
0.0
 11
57.698498
 21
-0.171955
 31
0.0
  0
LINE
  5
859
330
1F
100
AcDbEntity
  8
1
  6
CONTINUOUS
370
50
 62
4
100
AcDbLine
 10
59.846283
 20
-0.445435
 30
0.0
 11
59.816814
 21
-0.429901
 31
0.0
  0
LINE
  5
85A
330
1F
100
AcDbEntity
  8
1
  6
CONTINUOUS
370
50
 62
4
100
AcDbLine
 10
59.938404
 20
-0.120145
 30
0.0
 11
59.936665
 21
-0.11923
 31
0.0
  0
LINE
  5
85B
330
1F
100
AcDbEntity
  8
1
  6
CONTINUOUS
370
50
 62
4
100
AcDbLine
 10
58.952648
 20
-0.012338
 30
0.0
 11
58.929474
 21
-0.000178
 31
0.0
  0
LINE
  5
85C
330
1F
100
AcDbEntity
  8
1
  6
CONTINUOUS
370
50
 62
4
100
AcDbLine
 10
59.940144
 20
-0.121057
 30
0.0
 11
59.938404
 21
-0.120145
 31
0.0
  0
LINE
  5
85D
330
1F
100
AcDbEntity
  8
1
  6
CONTINUOUS
370
50
 62
4
100
AcDbLine
 10
58.935772
 20
-0.003804
 30
0.0
 11
58.915802
 21
0.006658
 31
0.0
  0
LINE
  5
85E
330
1F
100
AcDbEntity
  8
1
  6
CONTINUOUS
370
50
 62
4
100
AcDbLine
 10
57.649078
 20
-0.146056
 30
0.0
 11
57.622757
 21
-0.13227
 31
0.0
  0
LINE
  5
85F
330
1F
100
AcDbEntity
  8
1
  6
CONTINUOUS
370
50
 62
4
100
AcDbLine
 10
59.881687
 20
-0.038719
 30
0.0
 11
59.862301
 21
-0.028596
 31
0.0
  0
LINE
  5
860
330
1F
100
AcDbEntity
  8
1
  6
CONTINUOUS
370
50
 62
4
100
AcDbLine
 10
57.967602
 20
0.400639
 30
0.0
 11
57.91463899999999
 21
0.428294
 31
0.0
  0
LINE
  5
861
330
1F
100
AcDbEntity
  8
1
  6
CONTINUOUS
370
50
 62
4
100
AcDbLine
 10
59.941883
 20
-0.121965
 30
0.0
 11
59.940144
 21
-0.121057
 31
0.0
  0
LINE
  5
862
330
1F
100
AcDbEntity
  8
1
  6
CONTINUOUS
370
50
 62
4
100
AcDbLine
 10
58.319599
 20
-0.09567
 30
0.0
 11
58.29694
 21
-0.083867
 31
0.0
  0
LINE
  5
863
330
1F
100
AcDbEntity
  8
1
  6
CONTINUOUS
370
50
 62
4
100
AcDbLine
 10
58.161469
 20
0.350634
 30
0.0
 11
58.143528
 21
0.359972
 31
0.0
  0
LINE
  5
864
330
1F
100
AcDbEntity
  8
1
  6
CONTINUOUS
370
50
 62
4
100
AcDbLine
 10
58.219753
 20
0.320095
 30
0.0
 11
58.19053299999999
 21
0.335238
 31
0.0
  0
LINE
  5
865
330
1F
100
AcDbEntity
  8
1
  6
CONTINUOUS
370
50
 62
4
100
AcDbLine
 10
57.710472
 20
-0.178208
 30
0.0
 11
57.704483
 21
-0.17511
 31
0.0
  0
LINE
  5
866
330
1F
100
AcDbEntity
  8
1
  6
CONTINUOUS
370
50
 62
4
100
AcDbLine
 10
58.97581899999999
 20
-0.024319
 30
0.0
 11
58.952648
 21
-0.012338
 31
0.0
  0
LINE
  5
867
330
1F
100
AcDbEntity
  8
1
  6
CONTINUOUS
370
50
 62
4
100
AcDbLine
 10
58.95578399999999
 20
-0.014112
 30
0.0
 11
58.935772
 21
-0.003804
 31
0.0
  0
LINE
  5
868
330
1F
100
AcDbEntity
  8
1
  6
CONTINUOUS
370
50
 62
4
100
AcDbLine
 10
58.8228
 20
0.405328
 30
0.0
 11
58.789207
 21
0.422624
 31
0.0
  0
LINE
  5
869
330
1F
100
AcDbEntity
  8
1
  6
CONTINUOUS
370
50
 62
4
100
AcDbLine
 10
59.901245
 20
-0.048783
 30
0.0
 11
59.881687
 21
-0.038719
 31
0.0
  0
LINE
  5
86A
330
1F
100
AcDbEntity
  8
1
  6
CONTINUOUS
370
50
 62
4
100
AcDbLine
 10
58.060562
 20
0.055488
 30
0.0
 11
58.002922
 21
0.085125
 31
0.0
  0
LINE
  5
86B
330
1F
100
AcDbEntity
  8
1
  6
CONTINUOUS
370
50
 62
4
100
AcDbLine
 10
59.507668
 20
0.413436
 30
0.0
 11
59.47343799999999
 21
0.431003
 31
0.0
  0
LINE
  5
86C
330
1F
100
AcDbEntity
  8
1
  6
CONTINUOUS
370
50
 62
4
100
AcDbLine
 10
59.753941
 20
-0.437732
 30
0.0
 11
59.714382
 21
-0.41746
 31
0.0
  0
LINE
  5
86D
330
1F
100
AcDbEntity
  8
1
  6
CONTINUOUS
370
50
 62
4
100
AcDbLine
 10
58.143528
 20
0.359972
 30
0.0
 11
58.115993
 21
0.374034
 31
0.0
  0
LINE
  5
86E
330
1F
100
AcDbEntity
  8
1
  6
CONTINUOUS
370
50
 62
4
100
AcDbLine
 10
58.33199699999999
 20
-0.102255
 30
0.0
 11
58.312653
 21
-0.09238
 31
0.0
  0
LINE
  5
86F
330
1F
100
AcDbEntity
  8
1
  6
CONTINUOUS
370
50
 62
4
100
AcDbLine
 10
59.680065
 20
0.027732
 30
0.0
 11
59.62162799999999
 21
0.057521
 31
0.0
  0
LINE
  5
870
330
1F
100
AcDbEntity
  8
1
  6
CONTINUOUS
370
50
 62
4
100
AcDbLine
 10
59.675846
 20
0.029957
 30
0.0
 11
59.619488
 21
0.058595
 31
0.0
  0
LINE
  5
871
330
1F
100
AcDbEntity
  8
1
  6
CONTINUOUS
370
50
 62
4
100
AcDbLine
 10
57.493908
 20
-0.448131
 30
0.0
 11
57.491917
 21
-0.44712
 31
0.0
  0
LINE
  5
872
330
1F
100
AcDbEntity
  8
1
  6
CONTINUOUS
370
50
 62
4
100
AcDbLine
 10
59.920834
 20
-0.058715
 30
0.0
 11
59.901245
 21
-0.048783
 31
0.0
  0
LINE
  5
873
330
1F
100
AcDbEntity
  8
1
  6
CONTINUOUS
370
50
 62
4
100
AcDbLine
 10
57.716465
 20
-0.181246
 30
0.0
 11
57.710472
 21
-0.178208
 31
0.0
  0
LINE
  5
874
330
1F
100
AcDbEntity
  8
1
  6
CONTINUOUS
370
50
 62
4
100
AcDbLine
 10
58.97581899999999
 20
-0.024261
 30
0.0
 11
58.95578399999999
 21
-0.014112
 31
0.0
  0
LINE
  5
875
330
1F
100
AcDbEntity
  8
1
  6
CONTINUOUS
370
50
 62
4
100
AcDbLine
 10
58.83454099999999
 20
0.399411
 30
0.0
 11
58.8228
 21
0.405328
 31
0.0
  0
LINE
  5
876
330
1F
100
AcDbEntity
  8
1
  6
CONTINUOUS
370
50
 62
4
100
AcDbLine
 10
58.34225499999999
 20
-0.107043
 30
0.0
 11
58.319599
 21
-0.09567
 31
0.0
  0
LINE
  5
877
330
1F
100
AcDbEntity
  8
1
  6
CONTINUOUS
370
50
 62
4
100
AcDbLine
 10
57.67468299999999
 20
-0.158841
 30
0.0
 11
57.649078
 21
-0.146056
 31
0.0
  0
LINE
  5
878
330
1F
100
AcDbEntity
  8
1
  6
CONTINUOUS
370
50
 62
4
100
AcDbLine
 10
59.940453
 20
-0.06851
 30
0.0
 11
59.920834
 21
-0.058715
 31
0.0
  0
LINE
  5
879
330
1F
100
AcDbEntity
  8
1
  6
CONTINUOUS
370
50
 62
4
100
AcDbLine
 10
59.073254
 20
-0.070718
 30
0.0
 11
59.01457199999999
 21
-0.041445
 31
0.0
  0
LINE
  5
87A
330
1F
100
AcDbEntity
  8
1
  6
CONTINUOUS
370
50
 62
4
100
AcDbLine
 10
58.115993
 20
0.374034
 30
0.0
 11
58.087883
 21
0.38804
 31
0.0
  0
LINE
  5
87B
330
1F
100
AcDbEntity
  8
1
  6
CONTINUOUS
370
50
 62
4
100
AcDbLine
 10
58.234978
 20
0.312522
 30
0.0
 11
58.219753
 21
0.320095
 31
0.0
  0
LINE
  5
87C
330
1F
100
AcDbEntity
  8
1
  6
CONTINUOUS
370
50
 62
4
100
AcDbLine
 10
59.079319
 20
-0.073613
 30
0.0
 11
59.014565
 21
-0.041502
 31
0.0
  0
LINE
  5
87D
330
1F
100
AcDbEntity
  8
1
  6
CONTINUOUS
370
50
 62
4
100
AcDbLine
 10
57.67468299999999
 20
-0.158809
 30
0.0
 11
57.645615
 21
-0.144444
 31
0.0
  0
LINE
  5
87E
330
1F
100
AcDbEntity
  8
1
  6
CONTINUOUS
370
50
 62
4
100
AcDbLine
 10
59.62162799999999
 20
0.057521
 30
0.0
 11
59.56316
 21
0.086378
 31
0.0
  0
LINE
  5
87F
330
1F
100
AcDbEntity
  8
1
  6
CONTINUOUS
370
50
 62
4
100
AcDbLine
 10
58.865089
 20
0.384342
 30
0.0
 11
58.83454099999999
 21
0.399411
 31
0.0
  0
LINE
  5
880
330
1F
100
AcDbEntity
  8
1
  6
CONTINUOUS
370
50
 62
4
100
AcDbLine
 10
59.131992
 20
-0.099679
 30
0.0
 11
59.073254
 21
-0.070718
 31
0.0
  0
LINE
  5
881
330
1F
100
AcDbEntity
  8
1
  6
CONTINUOUS
370
50
 62
4
100
AcDbLine
 10
59.875904
 20
0.283246
 30
0.0
 11
59.851765
 21
0.295124
 31
0.0
  0
LINE
  5
882
330
1F
100
AcDbEntity
  8
1
  6
CONTINUOUS
370
50
 62
4
100
AcDbLine
 10
58.351437
 20
-0.11182
 30
0.0
 11
58.33199699999999
 21
-0.102255
 31
0.0
  0
LINE
  5
883
330
1F
100
AcDbEntity
  8
1
  6
CONTINUOUS
370
50
 62
4
100
AcDbLine
 10
59.619488
 20
0.058595
 30
0.0
 11
59.563164
 21
0.086298
 31
0.0
  0
LINE
  5
884
330
1F
100
AcDbEntity
  8
1
  6
CONTINUOUS
370
50
 62
4
100
AcDbLine
 10
59.635773
 20
0.25168
 30
0.0
 11
59.56937
 21
0.28433
 31
0.0
  0
LINE
  5
885
330
1F
100
AcDbEntity
  8
1
  6
CONTINUOUS
370
50
 62
4
100
AcDbLine
 10
59.851765
 20
0.295124
 30
0.0
 11
59.825581
 21
0.307944
 31
0.0
  0
LINE
  5
886
330
1F
100
AcDbEntity
  8
1
  6
CONTINUOUS
370
50
 62
4
100
AcDbLine
 10
58.023354
 20
0.417315
 30
0.0
 11
57.9772
 21
0.439911
 31
0.0
  0
LINE
  5
887
330
1F
100
AcDbEntity
  8
1
  6
CONTINUOUS
370
50
 62
4
100
AcDbLine
 10
58.771629
 20
0.28941
 30
0.0
 11
58.707096
 21
0.320898
 31
0.0
  0
LINE
  5
888
330
1F
100
AcDbEntity
  8
1
  6
CONTINUOUS
370
50
 62
4
100
AcDbLine
 10
59.190765
 20
-0.128313
 30
0.0
 11
59.131992
 21
-0.099679
 31
0.0
  0
LINE
  5
889
330
1F
100
AcDbEntity
  8
1
  6
CONTINUOUS
370
50
 62
4
100
AcDbLine
 10
58.087883
 20
0.38804
 30
0.0
 11
58.062489
 21
0.400391
 31
0.0
  0
LINE
  5
88A
330
1F
100
AcDbEntity
  8
1
  6
CONTINUOUS
370
50
 62
4
100
AcDbLine
 10
59.144382
 20
-0.105221
 30
0.0
 11
59.079319
 21
-0.073613
 31
0.0
  0
LINE
  5
88B
330
1F
100
AcDbEntity
  8
1
  6
CONTINUOUS
370
50
 62
4
100
AcDbLine
 10
59.825581
 20
0.307944
 30
0.0
 11
59.798874
 21
0.32091
 31
0.0
  0
LINE
  5
88C
330
1F
100
AcDbEntity
  8
1
  6
CONTINUOUS
370
50
 62
4
100
AcDbLine
 10
57.495934
 20
-0.449114
 30
0.0
 11
57.493908
 21
-0.448131
 31
0.0
  0
LINE
  5
88D
330
1F
100
AcDbEntity
  8
1
  6
CONTINUOUS
370
50
 62
4
100
AcDbLine
 10
58.756512
 20
0.439779
 30
0.0
 11
58.72020699999999
 21
0.457373
 31
0.0
  0
LINE
  5
88E
330
1F
100
AcDbEntity
  8
1
  6
CONTINUOUS
370
50
 62
4
100
AcDbLine
 10
58.364906
 20
-0.118
 30
0.0
 11
58.34225499999999
 21
-0.107043
 31
0.0
  0
LINE
  5
88F
330
1F
100
AcDbEntity
  8
1
  6
CONTINUOUS
370
50
 62
4
100
AcDbLine
 10
59.589718
 20
0.416082
 30
0.0
 11
59.540569
 21
0.439805
 31
0.0
  0
LINE
  5
890
330
1F
100
AcDbEntity
  8
1
  6
CONTINUOUS
370
50
 62
4
100
AcDbLine
 10
57.48634
 20
-0.443975
 30
0.0
 11
57.463047
 21
-0.432743
 31
0.0
  0
LINE
  5
891
330
1F
100
AcDbEntity
  8
1
  6
CONTINUOUS
370
50
 62
4
100
AcDbLine
 10
59.417435
 20
0.153887
 30
0.0
 11
59.41016
 21
0.157389
 31
0.0
  0
LINE
  5
892
330
1F
100
AcDbEntity
  8
1
  6
CONTINUOUS
370
50
 62
4
100
AcDbLine
 10
59.798874
 20
0.32091
 30
0.0
 11
59.778198
 21
0.330854
 31
0.0
  0
LINE
  5
893
330
1F
100
AcDbEntity
  8
1
  6
CONTINUOUS
370
50
 62
4
100
AcDbLine
 10
59.41016
 20
0.157389
 30
0.0
 11
59.402901
 21
0.160878
 31
0.0
  0
LINE
  5
894
330
1F
100
AcDbEntity
  8
1
  6
CONTINUOUS
370
50
 62
4
100
AcDbLine
 10
58.22015
 20
-0.458652
 30
0.0
 11
58.186245
 21
-0.442362
 31
0.0
  0
LINE
  5
895
330
1F
100
AcDbEntity
  8
1
  6
CONTINUOUS
370
50
 62
4
100
AcDbLine
 10
59.208473
 20
-0.13594
 30
0.0
 11
59.144382
 21
-0.105221
 31
0.0
  0
LINE
  5
896
330
1F
100
AcDbEntity
  8
1
  6
CONTINUOUS
370
50
 62
4
100
AcDbLine
 10
59.402901
 20
0.160878
 30
0.0
 11
59.395657
 21
0.164347
 31
0.0
  0
LINE
  5
897
330
1F
100
AcDbEntity
  8
1
  6
CONTINUOUS
370
50
 62
4
100
AcDbLine
 10
58.002922
 20
0.085125
 30
0.0
 11
57.945313
 21
0.112697
 31
0.0
  0
LINE
  5
898
330
1F
100
AcDbEntity
  8
1
  6
CONTINUOUS
370
50
 62
4
100
AcDbLine
 10
59.87199
 20
-0.457731
 30
0.0
 11
59.846283
 21
-0.445435
 31
0.0
  0
LINE
  5
899
330
1F
100
AcDbEntity
  8
1
  6
CONTINUOUS
370
50
 62
4
100
AcDbLine
 10
58.896255
 20
0.369453
 30
0.0
 11
58.865089
 21
0.384342
 31
0.0
  0
LINE
  5
89A
330
1F
100
AcDbEntity
  8
1
  6
CONTINUOUS
370
50
 62
4
100
AcDbLine
 10
59.26641799999999
 20
-0.163622
 30
0.0
 11
59.208473
 21
-0.13594
 31
0.0
  0
LINE
  5
89B
330
1F
100
AcDbEntity
  8
1
  6
CONTINUOUS
370
50
 62
4
100
AcDbLine
 10
59.513378
 20
0.108757
 30
0.0
 11
59.497391
 21
0.116388
 31
0.0
  0
LINE
  5
89C
330
1F
100
AcDbEntity
  8
1
  6
CONTINUOUS
370
50
 62
4
100
AcDbLine
 10
58.68894599999999
 20
0.135044
 30
0.0
 11
58.635246
 21
0.160676
 31
0.0
  0
LINE
  5
89D
330
1F
100
AcDbEntity
  8
1
  6
CONTINUOUS
370
50
 62
4
100
AcDbLine
 10
58.695232
 20
0.433227
 30
0.0
 11
58.650261
 21
0.454681
 31
0.0
  0
LINE
  5
89E
330
1F
100
AcDbEntity
  8
1
  6
CONTINUOUS
370
50
 62
4
100
AcDbLine
 10
59.90027199999999
 20
0.271625
 30
0.0
 11
59.875904
 21
0.283246
 31
0.0
  0
LINE
  5
89F
330
1F
100
AcDbEntity
  8
1
  6
CONTINUOUS
370
50
 62
4
100
AcDbLine
 10
59.395657
 20
0.164347
 30
0.0
 11
59.388428
 21
0.167791
 31
0.0
  0
LINE
  5
8A0
330
1F
100
AcDbEntity
  8
1
  6
CONTINUOUS
370
50
 62
4
100
AcDbLine
 10
59.24953499999999
 20
-0.156307
 30
0.0
 11
59.190765
 21
-0.128313
 31
0.0
  0
LINE
  5
8A1
330
1F
100
AcDbEntity
  8
1
  6
CONTINUOUS
370
50
 62
4
100
AcDbLine
 10
58.062489
 20
0.400391
 30
0.0
 11
58.038559
 21
0.411772
 31
0.0
  0
LINE
  5
8A2
330
1F
100
AcDbEntity
  8
1
  6
CONTINUOUS
370
50
 62
4
100
AcDbLine
 10
59.778198
 20
0.330854
 30
0.0
 11
59.747452
 21
0.345472
 31
0.0
  0
LINE
  5
8A3
330
1F
100
AcDbEntity
  8
1
  6
CONTINUOUS
370
50
 62
4
100
AcDbLine
 10
58.267021
 20
0.2973
 30
0.0
 11
58.234978
 21
0.312522
 31
0.0
  0
LINE
  5
8A4
330
1F
100
AcDbEntity
  8
1
  6
CONTINUOUS
370
50
 62
4
100
AcDbLine
 10
59.497391
 20
0.116388
 30
0.0
 11
59.481403
 21
0.123974
 31
0.0
  0
LINE
  5
8A5
330
1F
100
AcDbEntity
  8
1
  6
CONTINUOUS
370
50
 62
4
100
AcDbLine
 10
58.37096
 20
-0.121082
 30
0.0
 11
58.351437
 21
-0.11182
 31
0.0
  0
LINE
  5
8A6
330
1F
100
AcDbEntity
  8
1
  6
CONTINUOUS
370
50
 62
4
100
AcDbLine
 10
59.388428
 20
0.167791
 30
0.0
 11
59.381226
 21
0.171206
 31
0.0
  0
LINE
  5
8A7
330
1F
100
AcDbEntity
  8
1
  6
CONTINUOUS
370
50
 62
4
100
AcDbLine
 10
59.513378
 20
0.10874
 30
0.0
 11
59.499577
 21
0.115271
 31
0.0
  0
LINE
  5
8A8
330
1F
100
AcDbEntity
  8
1
  6
CONTINUOUS
370
50
 62
4
100
AcDbLine
 10
59.499577
 20
0.115271
 30
0.0
 11
59.485794
 21
0.121782
 31
0.0
  0
LINE
  5
8A9
330
1F
100
AcDbEntity
  8
1
  6
CONTINUOUS
370
50
 62
4
100
AcDbLine
 10
59.481403
 20
0.123974
 30
0.0
 11
59.465412
 21
0.13152
 31
0.0
  0
LINE
  5
8AA
330
1F
100
AcDbEntity
  8
1
  6
CONTINUOUS
370
50
 62
4
100
AcDbLine
 10
59.485794
 20
0.121782
 30
0.0
 11
59.47204199999999
 21
0.128268
 31
0.0
  0
LINE
  5
8AB
330
1F
100
AcDbEntity
  8
1
  6
CONTINUOUS
370
50
 62
4
100
AcDbLine
 10
59.061684
 20
-0.445234
 30
0.0
 11
58.995342
 21
-0.413961
 31
0.0
  0
LINE
  5
8AC
330
1F
100
AcDbEntity
  8
1
  6
CONTINUOUS
370
50
 62
4
100
AcDbLine
 10
59.381226
 20
0.171206
 30
0.0
 11
59.37405
 21
0.174585
 31
0.0
  0
LINE
  5
8AD
330
1F
100
AcDbEntity
  8
1
  6
CONTINUOUS
370
50
 62
4
100
AcDbLine
 10
59.47204199999999
 20
0.128268
 30
0.0
 11
59.458321
 21
0.134725
 31
0.0
  0
LINE
  5
8AE
330
1F
100
AcDbEntity
  8
1
  6
CONTINUOUS
370
50
 62
4
100
AcDbLine
 10
59.458321
 20
0.134725
 30
0.0
 11
59.44464499999999
 21
0.14115
 31
0.0
  0
LINE
  5
8AF
330
1F
100
AcDbEntity
  8
1
  6
CONTINUOUS
370
50
 62
4
100
AcDbLine
 10
59.465412
 20
0.13152
 30
0.0
 11
59.44942099999999
 21
0.139028
 31
0.0
  0
LINE
  5
8B0
330
1F
100
AcDbEntity
  8
1
  6
CONTINUOUS
370
50
 62
4
100
AcDbLine
 10
59.47343799999999
 20
0.431003
 30
0.0
 11
59.439682
 21
0.446847
 31
0.0
  0
LINE
  5
8B1
330
1F
100
AcDbEntity
  8
1
  6
CONTINUOUS
370
50
 62
4
100
AcDbLine
 10
59.747452
 20
0.345472
 30
0.0
 11
59.71618299999999
 21
0.360132
 31
0.0
  0
LINE
  5
8B2
330
1F
100
AcDbEntity
  8
1
  6
CONTINUOUS
370
50
 62
4
100
AcDbLine
 10
59.44464499999999
 20
0.14115
 30
0.0
 11
59.431011
 21
0.147539
 31
0.0
  0
LINE
  5
8B3
330
1F
100
AcDbEntity
  8
1
  6
CONTINUOUS
370
50
 62
4
100
AcDbLine
 10
57.170341
 20
-0.499718
 30
0.0
 11
57.169937
 21
-0.499529
 31
0.0
  0
LINE
  5
8B4
330
1F
100
AcDbEntity
  8
1
  6
CONTINUOUS
370
50
 62
4
100
AcDbLine
 10
59.431011
 20
0.147539
 30
0.0
 11
59.417435
 21
0.153887
 31
0.0
  0
LINE
  5
8B5
330
1F
100
AcDbEntity
  8
1
  6
CONTINUOUS
370
50
 62
4
100
AcDbLine
 10
57.497971
 20
-0.450066
 30
0.0
 11
57.495934
 21
-0.449114
 31
0.0
  0
LINE
  5
8B6
330
1F
100
AcDbEntity
  8
1
  6
CONTINUOUS
370
50
 62
4
100
AcDbLine
 10
59.37405
 20
0.174585
 30
0.0
 11
59.366901
 21
0.177925
 31
0.0
  0
LINE
  5
8B7
330
1F
100
AcDbEntity
  8
1
  6
CONTINUOUS
370
50
 62
4
100
AcDbLine
 10
59.44942099999999
 20
0.139028
 30
0.0
 11
59.433426
 21
0.146497
 31
0.0
  0
LINE
  5
8B8
330
1F
100
AcDbEntity
  8
1
  6
CONTINUOUS
370
50
 62
4
100
AcDbLine
 10
58.38755399999999
 20
-0.128564
 30
0.0
 11
58.364906
 21
-0.118
 31
0.0
  0
LINE
  5
8B9
330
1F
100
AcDbEntity
  8
1
  6
CONTINUOUS
370
50
 62
4
100
AcDbLine
 10
58.038559
 20
0.411772
 30
0.0
 11
58.01432399999999
 21
0.423058
 31
0.0
  0
LINE
  5
8BA
330
1F
100
AcDbEntity
  8
1
  6
CONTINUOUS
370
50
 62
4
100
AcDbLine
 10
58.918484
 20
0.359128
 30
0.0
 11
58.896255
 21
0.369453
 31
0.0
  0
LINE
  5
8BB
330
1F
100
AcDbEntity
  8
1
  6
CONTINUOUS
370
50
 62
4
100
AcDbLine
 10
59.71618299999999
 20
0.360132
 30
0.0
 11
59.70462
 21
0.365499
 31
0.0
  0
LINE
  5
8BC
330
1F
100
AcDbEntity
  8
1
  6
CONTINUOUS
370
50
 62
4
100
AcDbLine
 10
59.433426
 20
0.146497
 30
0.0
 11
59.417435
 21
0.153916
 31
0.0
  0
LINE
  5
8BD
330
1F
100
AcDbEntity
  8
1
  6
CONTINUOUS
370
50
 62
4
100
AcDbLine
 10
58.030731
 20
0.272287
 30
0.0
 11
57.964397
 21
0.303059
 31
0.0
  0
LINE
  5
8BE
330
1F
100
AcDbEntity
  8
1
  6
CONTINUOUS
370
50
 62
4
100
AcDbLine
 10
59.318039
 20
-0.187385
 30
0.0
 11
59.26641799999999
 21
-0.163622
 31
0.0
  0
LINE
  5
8BF
330
1F
100
AcDbEntity
  8
1
  6
CONTINUOUS
370
50
 62
4
100
AcDbLine
 10
59.308258
 20
-0.183333
 30
0.0
 11
59.24953499999999
 21
-0.156307
 31
0.0
  0
LINE
  5
8C0
330
1F
100
AcDbEntity
  8
1
  6
CONTINUOUS
370
50
 62
4
100
AcDbLine
 10
59.70462
 20
0.365499
 30
0.0
 11
59.666985
 21
0.382802
 31
0.0
  0
LINE
  5
8C1
330
1F
100
AcDbEntity
  8
1
  6
CONTINUOUS
370
50
 62
4
100
AcDbLine
 10
58.987434
 20
-0.450914
 30
0.0
 11
58.92269899999999
 21
-0.421182
 31
0.0
  0
LINE
  5
8C2
330
1F
100
AcDbEntity
  8
1
  6
CONTINUOUS
370
50
 62
4
100
AcDbLine
 10
59.79277399999999
 20
-0.455566
 30
0.0
 11
59.753941
 21
-0.437732
 31
0.0
  0
LINE
  5
8C3
330
1F
100
AcDbEntity
  8
1
  6
CONTINUOUS
370
50
 62
4
100
AcDbLine
 10
58.390556
 20
-0.130056
 30
0.0
 11
58.37096
 21
-0.121082
 31
0.0
  0
LINE
  5
8C4
330
1F
100
AcDbEntity
  8
1
  6
CONTINUOUS
370
50
 62
4
100
AcDbLine
 10
58.01432399999999
 20
0.423058
 30
0.0
 11
57.9772
 21
0.439921
 31
0.0
  0
LINE
  5
8C5
330
1F
100
AcDbEntity
  8
1
  6
CONTINUOUS
370
50
 62
4
100
AcDbLine
 10
59.666985
 20
0.382802
 30
0.0
 11
59.628891
 21
0.40009
 31
0.0
  0
LINE
  5
8C6
330
1F
100
AcDbEntity
  8
1
  6
CONTINUOUS
370
50
 62
4
100
AcDbLine
 10
58.943962
 20
0.347581
 30
0.0
 11
58.918484
 21
0.359128
 31
0.0
  0
LINE
  5
8C7
330
1F
100
AcDbEntity
  8
1
  6
CONTINUOUS
370
50
 62
4
100
AcDbLine
 10
59.520432
 20
0.105549
 30
0.0
 11
59.513378
 21
0.10874
 31
0.0
  0
LINE
  5
8C8
330
1F
100
AcDbEntity
  8
1
  6
CONTINUOUS
370
50
 62
4
100
AcDbLine
 10
57.227314
 20
0.486245
 30
0.0
 11
57.214954
 21
0.491832
 31
0.0
  0
LINE
  5
8C9
330
1F
100
AcDbEntity
  8
1
  6
CONTINUOUS
370
50
 62
4
100
AcDbLine
 10
58.981319
 20
-0.026745
 30
0.0
 11
58.97581899999999
 21
-0.024261
 31
0.0
  0
LINE
  5
8CA
330
1F
100
AcDbEntity
  8
1
  6
CONTINUOUS
370
50
 62
4
100
AcDbLine
 10
57.5
 20
-0.450981
 30
0.0
 11
57.497971
 21
-0.450066
 31
0.0
  0
LINE
  5
8CB
330
1F
100
AcDbEntity
  8
1
  6
CONTINUOUS
370
50
 62
4
100
AcDbLine
 10
59.527534
 20
0.102347
 30
0.0
 11
59.520432
 21
0.105549
 31
0.0
  0
LINE
  5
8CC
330
1F
100
AcDbEntity
  8
1
  6
CONTINUOUS
370
50
 62
4
100
AcDbLine
 10
58.41019799999999
 20
-0.138756
 30
0.0
 11
58.38755399999999
 21
-0.128564
 31
0.0
  0
LINE
  5
8CD
330
1F
100
AcDbEntity
  8
1
  6
CONTINUOUS
370
50
 62
4
100
AcDbLine
 10
59.534668
 20
0.099139
 30
0.0
 11
59.527534
 21
0.102347
 31
0.0
  0
LINE
  5
8CE
330
1F
100
AcDbEntity
  8
1
  6
CONTINUOUS
370
50
 62
4
100
AcDbLine
 10
59.628891
 20
0.40009
 30
0.0
 11
59.593246
 21
0.416118
 31
0.0
  0
LINE
  5
8CF
330
1F
100
AcDbEntity
  8
1
  6
CONTINUOUS
370
50
 62
4
100
AcDbLine
 10
59.37405
 20
-0.210893
 30
0.0
 11
59.366901
 21
-0.20768
 31
0.0
  0
LINE
  5
8D0
330
1F
100
AcDbEntity
  8
1
  6
CONTINUOUS
370
50
 62
4
100
AcDbLine
 10
57.945313
 20
0.112697
 30
0.0
 11
57.887745
 21
0.138549
 31
0.0
  0
LINE
  5
8D1
330
1F
100
AcDbEntity
  8
1
  6
CONTINUOUS
370
50
 62
4
100
AcDbLine
 10
58.986847
 20
-0.029226
 30
0.0
 11
58.981319
 21
-0.026745
 31
0.0
  0
LINE
  5
8D2
330
1F
100
AcDbEntity
  8
1
  6
CONTINUOUS
370
50
 62
4
100
AcDbLine
 10
59.54181699999999
 20
0.095932
 30
0.0
 11
59.534668
 21
0.099139
 31
0.0
  0
LINE
  5
8D3
330
1F
100
AcDbEntity
  8
1
  6
CONTINUOUS
370
50
 62
4
100
AcDbLine
 10
59.548962
 20
0.092732
 30
0.0
 11
59.54181699999999
 21
0.095932
 31
0.0
  0
LINE
  5
8D4
330
1F
100
AcDbEntity
  8
1
  6
CONTINUOUS
370
50
 62
4
100
AcDbLine
 10
59.56316
 20
0.086378
 30
0.0
 11
59.556084
 21
0.089545
 31
0.0
  0
LINE
  5
8D5
330
1F
100
AcDbEntity
  8
1
  6
CONTINUOUS
370
50
 62
4
100
AcDbLine
 10
59.556084
 20
0.089545
 30
0.0
 11
59.548962
 21
0.092732
 31
0.0
  0
LINE
  5
8D6
330
1F
100
AcDbEntity
  8
1
  6
CONTINUOUS
370
50
 62
4
100
AcDbLine
 10
59.593246
 20
0.416118
 30
0.0
 11
59.557606
 21
0.43206
 31
0.0
  0
LINE
  5
8D7
330
1F
100
AcDbEntity
  8
1
  6
CONTINUOUS
370
50
 62
4
100
AcDbLine
 10
59.925213
 20
0.260478
 30
0.0
 11
59.90027199999999
 21
0.271625
 31
0.0
  0
LINE
  5
8D8
330
1F
100
AcDbEntity
  8
1
  6
CONTINUOUS
370
50
 62
4
100
AcDbLine
 10
58.99239
 20
-0.031702
 30
0.0
 11
58.986847
 21
-0.029226
 31
0.0
  0
LINE
  5
8D9
330
1F
100
AcDbEntity
  8
1
  6
CONTINUOUS
370
50
 62
4
100
AcDbLine
 10
59.557606
 20
0.43206
 30
0.0
 11
59.540565
 21
0.43967
 31
0.0
  0
LINE
  5
8DA
330
1F
100
AcDbEntity
  8
1
  6
CONTINUOUS
370
50
 62
4
100
AcDbLine
 10
58.299854
 20
0.282695
 30
0.0
 11
58.267021
 21
0.2973
 31
0.0
  0
LINE
  5
8DB
330
1F
100
AcDbEntity
  8
1
  6
CONTINUOUS
370
50
 62
4
100
AcDbLine
 10
58.997944
 20
-0.034171
 30
0.0
 11
58.99239
 21
-0.031702
 31
0.0
  0
LINE
  5
8DC
330
1F
100
AcDbEntity
  8
1
  6
CONTINUOUS
370
50
 62
4
100
AcDbLine
 10
59.003494
 20
-0.036628
 30
0.0
 11
58.997944
 21
-0.034171
 31
0.0
  0
LINE
  5
8DD
330
1F
100
AcDbEntity
  8
1
  6
CONTINUOUS
370
50
 62
4
100
AcDbLine
 10
58.410206
 20
-0.138748
 30
0.0
 11
58.390556
 21
-0.130056
 31
0.0
  0
LINE
  5
8DE
330
1F
100
AcDbEntity
  8
1
  6
CONTINUOUS
370
50
 62
4
100
AcDbLine
 10
59.366905
 20
0.17804
 30
0.0
 11
59.349846
 21
0.185578
 31
0.0
  0
LINE
  5
8DF
330
1F
100
AcDbEntity
  8
1
  6
CONTINUOUS
370
50
 62
4
100
AcDbLine
 10
58.969685
 20
0.336215
 30
0.0
 11
58.943962
 21
0.347581
 31
0.0
  0
LINE
  5
8E0
330
1F
100
AcDbEntity
  8
1
  6
CONTINUOUS
370
50
 62
4
100
AcDbLine
 10
59.009037
 20
-0.039073
 30
0.0
 11
59.003494
 21
-0.036628
 31
0.0
  0
LINE
  5
8E1
330
1F
100
AcDbEntity
  8
1
  6
CONTINUOUS
370
50
 62
4
100
AcDbLine
 10
57.91463899999999
 20
0.428294
 30
0.0
 11
57.861431
 21
0.451675
 31
0.0
  0
LINE
  5
8E2
330
1F
100
AcDbEntity
  8
1
  6
CONTINUOUS
370
50
 62
4
100
AcDbLine
 10
59.014565
 20
-0.041502
 30
0.0
 11
59.009037
 21
-0.039073
 31
0.0
  0
LINE
  5
8E3
330
1F
100
AcDbEntity
  8
1
  6
CONTINUOUS
370
50
 62
4
100
AcDbLine
 10
59.381226
 20
-0.21403
 30
0.0
 11
59.37405
 21
-0.210893
 31
0.0
  0
LINE
  5
8E4
330
1F
100
AcDbEntity
  8
1
  6
CONTINUOUS
370
50
 62
4
100
AcDbLine
 10
59.349846
 20
0.185578
 30
0.0
 11
59.332783
 21
0.193025
 31
0.0
  0
LINE
  5
8E5
330
1F
100
AcDbEntity
  8
1
  6
CONTINUOUS
370
50
 62
4
100
AcDbLine
 10
57.55122799999999
 20
0.274296
 30
0.0
 11
57.52846899999999
 21
0.284216
 31
0.0
  0
LINE
  5
8E6
330
1F
100
AcDbEntity
  8
1
  6
CONTINUOUS
370
50
 62
4
100
AcDbLine
 10
57.52846899999999
 20
0.284216
 30
0.0
 11
57.499985
 21
0.296627
 31
0.0
  0
LINE
  5
8E7
330
1F
100
AcDbEntity
  8
1
  6
CONTINUOUS
370
50
 62
4
100
AcDbLine
 10
57.573597
 20
0.264557
 30
0.0
 11
57.55122799999999
 21
0.274296
 31
0.0
  0
LINE
  5
8E8
330
1F
100
AcDbEntity
  8
1
  6
CONTINUOUS
370
50
 62
4
100
AcDbLine
 10
57.607479
 20
0.249877
 30
0.0
 11
57.573597
 21
0.264557
 31
0.0
  0
LINE
  5
8E9
330
1F
100
AcDbEntity
  8
1
  6
CONTINUOUS
370
50
 62
4
100
AcDbLine
 10
59.332783
 20
0.193025
 30
0.0
 11
59.315712
 21
0.200376
 31
0.0
  0
LINE
  5
8EA
330
1F
100
AcDbEntity
  8
1
  6
CONTINUOUS
370
50
 62
4
100
AcDbLine
 10
59.56937
 20
0.28433
 30
0.0
 11
59.50295999999999
 21
0.312879
 31
0.0
  0
LINE
  5
8EB
330
1F
100
AcDbEntity
  8
1
  6
CONTINUOUS
370
50
 62
4
100
AcDbLine
 10
59.00666
 20
0.320348
 30
0.0
 11
58.969685
 21
0.336215
 31
0.0
  0
LINE
  5
8EC
330
1F
100
AcDbEntity
  8
1
  6
CONTINUOUS
370
50
 62
4
100
AcDbLine
 10
58.308388
 20
0.27906
 30
0.0
 11
58.299854
 21
0.282695
 31
0.0
  0
LINE
  5
8ED
330
1F
100
AcDbEntity
  8
1
  6
CONTINUOUS
370
50
 62
4
100
AcDbLine
 10
59.894127
 20
-0.467158
 30
0.0
 11
59.87199
 21
-0.457731
 31
0.0
  0
LINE
  5
8EE
330
1F
100
AcDbEntity
  8
1
  6
CONTINUOUS
370
50
 62
4
100
AcDbLine
 10
59.388428
 20
-0.217085
 30
0.0
 11
59.381226
 21
-0.21403
 31
0.0
  0
LINE
  5
8EF
330
1F
100
AcDbEntity
  8
1
  6
CONTINUOUS
370
50
 62
4
100
AcDbLine
 10
57.540726
 20
-0.46376
 30
0.0
 11
57.5
 21
-0.446505
 31
0.0
  0
LINE
  5
8F0
330
1F
100
AcDbEntity
  8
1
  6
CONTINUOUS
370
50
 62
4
100
AcDbLine
 10
59.939442
 20
0.25445
 30
0.0
 11
59.925213
 21
0.260478
 31
0.0
  0
LINE
  5
8F1
330
1F
100
AcDbEntity
  8
1
  6
CONTINUOUS
370
50
 62
4
100
AcDbLine
 10
57.73494299999999
 20
-0.189066
 30
0.0
 11
57.716465
 21
-0.181246
 31
0.0
  0
LINE
  5
8F2
330
1F
100
AcDbEntity
  8
1
  6
CONTINUOUS
370
50
 62
4
100
AcDbLine
 10
57.847511
 20
0.154904
 30
0.0
 11
57.82568
 21
0.164134
 31
0.0
  0
LINE
  5
8F3
330
1F
100
AcDbEntity
  8
1
  6
CONTINUOUS
370
50
 62
4
100
AcDbLine
 10
59.439682
 20
0.446847
 30
0.0
 11
59.406437
 21
0.460889
 31
0.0
  0
LINE
  5
8F4
330
1F
100
AcDbEntity
  8
1
  6
CONTINUOUS
370
50
 62
4
100
AcDbLine
 10
57.647125
 20
0.233198
 30
0.0
 11
57.607479
 21
0.249877
 31
0.0
  0
LINE
  5
8F5
330
1F
100
AcDbEntity
  8
1
  6
CONTINUOUS
370
50
 62
4
100
AcDbLine
 10
58.635246
 20
0.160676
 30
0.0
 11
58.581551
 21
0.183193
 31
0.0
  0
LINE
  5
8F6
330
1F
100
AcDbEntity
  8
1
  6
CONTINUOUS
370
50
 62
4
100
AcDbLine
 10
59.315712
 20
0.200376
 30
0.0
 11
59.298637
 21
0.207507
 31
0.0
  0
LINE
  5
8F7
330
1F
100
AcDbEntity
  8
1
  6
CONTINUOUS
370
50
 62
4
100
AcDbLine
 10
57.84751499999999
 20
0.154877
 30
0.0
 11
57.828579
 21
0.162785
 31
0.0
  0
LINE
  5
8F8
330
1F
100
AcDbEntity
  8
1
  6
CONTINUOUS
370
50
 62
4
100
AcDbLine
 10
59.540569
 20
0.439805
 30
0.0
 11
59.499908
 21
0.456781
 31
0.0
  0
LINE
  5
8F9
330
1F
100
AcDbEntity
  8
1
  6
CONTINUOUS
370
50
 62
4
100
AcDbLine
 10
59.043148
 20
0.30517
 30
0.0
 11
59.00666
 21
0.320348
 31
0.0
  0
LINE
  5
8FA
330
1F
100
AcDbEntity
  8
1
  6
CONTINUOUS
370
50
 62
4
100
AcDbLine
 10
57.738312
 20
-0.190302
 30
0.0
 11
57.716465
 21
-0.181217
 31
0.0
  0
LINE
  5
8FB
330
1F
100
AcDbEntity
  8
1
  6
CONTINUOUS
370
50
 62
4
100
AcDbLine
 10
59.366901
 20
-0.20768
 30
0.0
 11
59.318039
 21
-0.187385
 31
0.0
  0
LINE
  5
8FC
330
1F
100
AcDbEntity
  8
1
  6
CONTINUOUS
370
50
 62
4
100
AcDbLine
 10
59.366905
 20
-0.207673
 30
0.0
 11
59.308258
 21
-0.183333
 31
0.0
  0
LINE
  5
8FD
330
1F
100
AcDbEntity
  8
1
  6
CONTINUOUS
370
50
 62
4
100
AcDbLine
 10
58.487968
 20
-0.169035
 30
0.0
 11
58.449471
 21
-0.153068
 31
0.0
  0
LINE
  5
8FE
330
1F
100
AcDbEntity
  8
1
  6
CONTINUOUS
370
50
 62
4
100
AcDbLine
 10
57.82568
 20
0.164134
 30
0.0
 11
57.803841
 21
0.173173
 31
0.0
  0
LINE
  5
8FF
330
1F
100
AcDbEntity
  8
1
  6
CONTINUOUS
370
50
 62
4
100
AcDbLine
 10
57.9772
 20
0.439911
 30
0.0
 11
57.937946
 21
0.456157
 31
0.0
  0
LINE
  5
900
330
1F
100
AcDbEntity
  8
1
  6
CONTINUOUS
370
50
 62
4
100
AcDbLine
 10
57.828579
 20
0.162785
 30
0.0
 11
57.809692
 21
0.170569
 31
0.0
  0
LINE
  5
901
330
1F
100
AcDbEntity
  8
1
  6
CONTINUOUS
370
50
 62
4
100
AcDbLine
 10
59.395657
 20
-0.220053
 30
0.0
 11
59.388428
 21
-0.217085
 31
0.0
  0
LINE
  5
902
330
1F
100
AcDbEntity
  8
1
  6
CONTINUOUS
370
50
 62
4
100
AcDbLine
 10
58.48880399999999
 20
-0.16914
 30
0.0
 11
58.449471
 21
-0.153058
 31
0.0
  0
LINE
  5
903
330
1F
100
AcDbEntity
  8
1
  6
CONTINUOUS
370
50
 62
4
100
AcDbLine
 10
57.88773699999999
 20
0.138597
 30
0.0
 11
57.882008
 21
0.140934
 31
0.0
  0
LINE
  5
904
330
1F
100
AcDbEntity
  8
1
  6
CONTINUOUS
370
50
 62
4
100
AcDbLine
 10
57.809692
 20
0.170569
 30
0.0
 11
57.790874
 21
0.178222
 31
0.0
  0
LINE
  5
905
330
1F
100
AcDbEntity
  8
1
  6
CONTINUOUS
370
50
 62
4
100
AcDbLine
 10
58.34472299999999
 20
0.264295
 30
0.0
 11
58.308388
 21
0.27906
 31
0.0
  0
LINE
  5
906
330
1F
100
AcDbEntity
  8
1
  6
CONTINUOUS
370
50
 62
4
100
AcDbLine
 10
57.882008
 20
0.140934
 30
0.0
 11
57.876251
 21
0.143273
 31
0.0
  0
LINE
  5
907
330
1F
100
AcDbEntity
  8
1
  6
CONTINUOUS
370
50
 62
4
100
AcDbLine
 10
59.069565
 20
0.294438
 30
0.0
 11
59.043148
 21
0.30517
 31
0.0
  0
LINE
  5
908
330
1F
100
AcDbEntity
  8
1
  6
CONTINUOUS
370
50
 62
4
100
AcDbLine
 10
57.876251
 20
0.143273
 30
0.0
 11
57.870483
 21
0.14561
 31
0.0
  0
LINE
  5
909
330
1F
100
AcDbEntity
  8
1
  6
CONTINUOUS
370
50
 62
4
100
AcDbLine
 10
57.803841
 20
0.173173
 30
0.0
 11
57.78199799999999
 21
0.182023
 31
0.0
  0
LINE
  5
90A
330
1F
100
AcDbEntity
  8
1
  6
CONTINUOUS
370
50
 62
4
100
AcDbLine
 10
57.870483
 20
0.14561
 30
0.0
 11
57.86471599999999
 21
0.147943
 31
0.0
  0
LINE
  5
90B
330
1F
100
AcDbEntity
  8
1
  6
CONTINUOUS
370
50
 62
4
100
AcDbLine
 10
57.86471599999999
 20
0.147943
 30
0.0
 11
57.858959
 21
0.150268
 31
0.0
  0
LINE
  5
90C
330
1F
100
AcDbEntity
  8
1
  6
CONTINUOUS
370
50
 62
4
100
AcDbLine
 10
57.858959
 20
0.150268
 30
0.0
 11
57.853222
 21
0.15258
 31
0.0
  0
LINE
  5
90D
330
1F
100
AcDbEntity
  8
1
  6
CONTINUOUS
370
50
 62
4
100
AcDbLine
 10
57.853222
 20
0.15258
 30
0.0
 11
57.84751499999999
 21
0.154877
 31
0.0
  0
LINE
  5
90E
330
1F
100
AcDbEntity
  8
1
  6
CONTINUOUS
370
50
 62
4
100
AcDbLine
 10
59.830536
 20
-0.470762
 30
0.0
 11
59.79277399999999
 21
-0.455566
 31
0.0
  0
LINE
  5
90F
330
1F
100
AcDbEntity
  8
1
  6
CONTINUOUS
370
50
 62
4
100
AcDbLine
 10
57.790874
 20
0.178222
 30
0.0
 11
57.772129
 21
0.185741
 31
0.0
  0
LINE
  5
910
330
1F
100
AcDbEntity
  8
1
  6
CONTINUOUS
370
50
 62
4
100
AcDbLine
 10
58.326424
 20
-0.469269
 30
0.0
 11
58.270512
 21
-0.446884
 31
0.0
  0
LINE
  5
911
330
1F
100
AcDbEntity
  8
1
  6
CONTINUOUS
370
50
 62
4
100
AcDbLine
 10
59.095997
 20
0.283893
 30
0.0
 11
59.069565
 21
0.294438
 31
0.0
  0
LINE
  5
912
330
1F
100
AcDbEntity
  8
1
  6
CONTINUOUS
370
50
 62
4
100
AcDbLine
 10
57.753532
 20
-0.196473
 30
0.0
 11
57.73494299999999
 21
-0.189066
 31
0.0
  0
LINE
  5
913
330
1F
100
AcDbEntity
  8
1
  6
CONTINUOUS
370
50
 62
4
100
AcDbLine
 10
59.402901
 20
-0.222929
 30
0.0
 11
59.395657
 21
-0.220053
 31
0.0
  0
LINE
  5
914
330
1F
100
AcDbEntity
  8
1
  6
CONTINUOUS
370
50
 62
4
100
AcDbLine
 10
57.78199799999999
 20
0.182023
 30
0.0
 11
57.760155
 21
0.190686
 31
0.0
  0
LINE
  5
915
330
1F
100
AcDbEntity
  8
1
  6
CONTINUOUS
370
50
 62
4
100
AcDbLine
 10
58.72020699999999
 20
0.457373
 30
0.0
 11
58.681999
 21
0.472505
 31
0.0
  0
LINE
  5
916
330
1F
100
AcDbEntity
  8
1
  6
CONTINUOUS
370
50
 62
4
100
AcDbLine
 10
57.772129
 20
0.185741
 30
0.0
 11
57.753479
 21
0.193113
 31
0.0
  0
LINE
  5
917
330
1F
100
AcDbEntity
  8
1
  6
CONTINUOUS
370
50
 62
4
100
AcDbLine
 10
58.52649299999999
 20
-0.184214
 30
0.0
 11
58.487968
 21
-0.169035
 31
0.0
  0
LINE
  5
918
330
1F
100
AcDbEntity
  8
1
  6
CONTINUOUS
370
50
 62
4
100
AcDbLine
 10
59.11668
 20
0.275758
 30
0.0
 11
59.095997
 21
0.283893
 31
0.0
  0
LINE
  5
919
330
1F
100
AcDbEntity
  8
1
  6
CONTINUOUS
370
50
 62
4
100
AcDbLine
 10
59.298637
 20
0.207507
 30
0.0
 11
59.281551
 21
0.214197
 31
0.0
  0
LINE
  5
91A
330
1F
100
AcDbEntity
  8
1
  6
CONTINUOUS
370
50
 62
4
100
AcDbLine
 10
57.760155
 20
-0.198824
 30
0.0
 11
57.738312
 21
-0.190302
 31
0.0
  0
LINE
  5
91B
330
1F
100
AcDbEntity
  8
1
  6
CONTINUOUS
370
50
 62
4
100
AcDbLine
 10
58.25471899999999
 20
-0.472112
 30
0.0
 11
58.22015
 21
-0.458652
 31
0.0
  0
LINE
  5
91C
330
1F
100
AcDbEntity
  8
1
  6
CONTINUOUS
370
50
 62
4
100
AcDbLine
 10
57.753479
 20
0.193113
 30
0.0
 11
57.734924
 21
0.200322
 31
0.0
  0
LINE
  5
91D
330
1F
100
AcDbEntity
  8
1
  6
CONTINUOUS
370
50
 62
4
100
AcDbLine
 10
57.760155
 20
0.190686
 30
0.0
 11
57.738312
 21
0.199152
 31
0.0
  0
LINE
  5
91E
330
1F
100
AcDbEntity
  8
1
  6
CONTINUOUS
370
50
 62
4
100
AcDbLine
 10
59.14996
 20
0.262874
 30
0.0
 11
59.11668
 21
0.275758
 31
0.0
  0
LINE
  5
91F
330
1F
100
AcDbEntity
  8
1
  6
CONTINUOUS
370
50
 62
4
100
AcDbLine
 10
58.528397
 20
-0.184433
 30
0.0
 11
58.48880399999999
 21
-0.16914
 31
0.0
  0
LINE
  5
920
330
1F
100
AcDbEntity
  8
1
  6
CONTINUOUS
370
50
 62
4
100
AcDbLine
 10
59.41016
 20
-0.225708
 30
0.0
 11
59.402901
 21
-0.222929
 31
0.0
  0
LINE
  5
921
330
1F
100
AcDbEntity
  8
1
  6
CONTINUOUS
370
50
 62
4
100
AcDbLine
 10
57.734924
 20
0.200322
 30
0.0
 11
57.716465
 21
0.207355
 31
0.0
  0
LINE
  5
922
330
1F
100
AcDbEntity
  8
1
  6
CONTINUOUS
370
50
 62
4
100
AcDbLine
 10
59.18277699999999
 20
0.250402
 30
0.0
 11
59.14996
 21
0.262874
 31
0.0
  0
LINE
  5
923
330
1F
100
AcDbEntity
  8
1
  6
CONTINUOUS
370
50
 62
4
100
AcDbLine
 10
57.716465
 20
0.207355
 30
0.0
 11
57.710865
 21
0.209483
 31
0.0
  0
LINE
  5
924
330
1F
100
AcDbEntity
  8
1
  6
CONTINUOUS
370
50
 62
4
100
AcDbLine
 10
57.964397
 20
0.303059
 30
0.0
 11
57.89805999999999
 21
0.328266
 31
0.0
  0
LINE
  5
925
330
1F
100
AcDbEntity
  8
1
  6
CONTINUOUS
370
50
 62
4
100
AcDbLine
 10
57.738312
 20
0.199152
 30
0.0
 11
57.716465
 21
0.207388
 31
0.0
  0
LINE
  5
926
330
1F
100
AcDbEntity
  8
1
  6
CONTINUOUS
370
50
 62
4
100
AcDbLine
 10
57.682953
 20
0.219709
 30
0.0
 11
57.647125
 21
0.233198
 31
0.0
  0
LINE
  5
927
330
1F
100
AcDbEntity
  8
1
  6
CONTINUOUS
370
50
 62
4
100
AcDbLine
 10
58.415779
 20
-0.140844
 30
0.0
 11
58.410206
 21
-0.138748
 31
0.0
  0
LINE
  5
928
330
1F
100
AcDbEntity
  8
1
  6
CONTINUOUS
370
50
 62
4
100
AcDbLine
 10
58.38177899999999
 20
0.250366
 30
0.0
 11
58.34472299999999
 21
0.264295
 31
0.0
  0
LINE
  5
929
330
1F
100
AcDbEntity
  8
1
  6
CONTINUOUS
370
50
 62
4
100
AcDbLine
 10
57.710865
 20
0.209483
 30
0.0
 11
57.70526899999999
 21
0.211586
 31
0.0
  0
LINE
  5
92A
330
1F
100
AcDbEntity
  8
1
  6
CONTINUOUS
370
50
 62
4
100
AcDbLine
 10
59.19027699999999
 20
0.247584
 30
0.0
 11
59.18277699999999
 21
0.250402
 31
0.0
  0
LINE
  5
92B
330
1F
100
AcDbEntity
  8
1
  6
CONTINUOUS
370
50
 62
4
100
AcDbLine
 10
57.772213
 20
-0.203476
 30
0.0
 11
57.753532
 21
-0.196473
 31
0.0
  0
LINE
  5
92C
330
1F
100
AcDbEntity
  8
1
  6
CONTINUOUS
370
50
 62
4
100
AcDbLine
 10
59.12743
 20
-0.469851
 30
0.0
 11
59.061684
 21
-0.445234
 31
0.0
  0
LINE
  5
92D
330
1F
100
AcDbEntity
  8
1
  6
CONTINUOUS
370
50
 62
4
100
AcDbLine
 10
58.650261
 20
0.454681
 30
0.0
 11
58.60539199999999
 21
0.471454
 31
0.0
  0
LINE
  5
92E
330
1F
100
AcDbEntity
  8
1
  6
CONTINUOUS
370
50
 62
4
100
AcDbLine
 10
58.565037
 20
-0.198586
 30
0.0
 11
58.52649299999999
 21
-0.184214
 31
0.0
  0
LINE
  5
92F
330
1F
100
AcDbEntity
  8
1
  6
CONTINUOUS
370
50
 62
4
100
AcDbLine
 10
58.42137899999999
 20
-0.142925
 30
0.0
 11
58.415779
 21
-0.140844
 31
0.0
  0
LINE
  5
930
330
1F
100
AcDbEntity
  8
1
  6
CONTINUOUS
370
50
 62
4
100
AcDbLine
 10
57.70526899999999
 20
0.211586
 30
0.0
 11
57.69967699999999
 21
0.213661
 31
0.0
  0
LINE
  5
931
330
1F
100
AcDbEntity
  8
1
  6
CONTINUOUS
370
50
 62
4
100
AcDbLine
 10
59.406437
 20
0.460889
 30
0.0
 11
59.373714
 21
0.473008
 31
0.0
  0
LINE
  5
932
330
1F
100
AcDbEntity
  8
1
  6
CONTINUOUS
370
50
 62
4
100
AcDbLine
 10
59.227871
 20
0.233662
 30
0.0
 11
59.19027699999999
 21
0.247584
 31
0.0
  0
LINE
  5
933
330
1F
100
AcDbEntity
  8
1
  6
CONTINUOUS
370
50
 62
4
100
AcDbLine
 10
59.914494
 20
-0.474679
 30
0.0
 11
59.894127
 21
-0.467158
 31
0.0
  0
LINE
  5
934
330
1F
100
AcDbEntity
  8
1
  6
CONTINUOUS
370
50
 62
4
100
AcDbLine
 10
59.50295999999999
 20
0.312879
 30
0.0
 11
59.436543
 21
0.337372
 31
0.0
  0
LINE
  5
935
330
1F
100
AcDbEntity
  8
1
  6
CONTINUOUS
370
50
 62
4
100
AcDbLine
 10
59.417435
 20
-0.228384
 30
0.0
 11
59.41016
 21
-0.225708
 31
0.0
  0
LINE
  5
936
330
1F
100
AcDbEntity
  8
1
  6
CONTINUOUS
370
50
 62
4
100
AcDbLine
 10
58.426998
 20
-0.144991
 30
0.0
 11
58.42137899999999
 21
-0.142925
 31
0.0
  0
LINE
  5
937
330
1F
100
AcDbEntity
  8
1
  6
CONTINUOUS
370
50
 62
4
100
AcDbLine
 10
57.69967699999999
 20
0.213661
 30
0.0
 11
57.694092
 21
0.215708
 31
0.0
  0
LINE
  5
938
330
1F
100
AcDbEntity
  8
1
  6
CONTINUOUS
370
50
 62
4
100
AcDbLine
 10
58.581551
 20
0.183193
 30
0.0
 11
58.527874
 21
0.202855
 31
0.0
  0
LINE
  5
939
330
1F
100
AcDbEntity
  8
1
  6
CONTINUOUS
370
50
 62
4
100
AcDbLine
 10
58.707096
 20
0.320898
 30
0.0
 11
58.642567
 21
0.344534
 31
0.0
  0
LINE
  5
93A
330
1F
100
AcDbEntity
  8
1
  6
CONTINUOUS
370
50
 62
4
100
AcDbLine
 10
59.281551
 20
0.214197
 30
0.0
 11
59.26446199999999
 21
0.220453
 31
0.0
  0
LINE
  5
93B
330
1F
100
AcDbEntity
  8
1
  6
CONTINUOUS
370
50
 62
4
100
AcDbLine
 10
57.78199799999999
 20
-0.206804
 30
0.0
 11
57.760155
 21
-0.198824
 31
0.0
  0
LINE
  5
93C
330
1F
100
AcDbEntity
  8
1
  6
CONTINUOUS
370
50
 62
4
100
AcDbLine
 10
58.567966
 20
-0.198862
 30
0.0
 11
58.528397
 21
-0.184433
 31
0.0
  0
LINE
  5
93D
330
1F
100
AcDbEntity
  8
1
  6
CONTINUOUS
370
50
 62
4
100
AcDbLine
 10
58.43262499999999
 20
-0.147039
 30
0.0
 11
58.426998
 21
-0.144991
 31
0.0
  0
LINE
  5
93E
330
1F
100
AcDbEntity
  8
1
  6
CONTINUOUS
370
50
 62
4
100
AcDbLine
 10
57.694092
 20
0.215708
 30
0.0
 11
57.688515
 21
0.217725
 31
0.0
  0
LINE
  5
93F
330
1F
100
AcDbEntity
  8
1
  6
CONTINUOUS
370
50
 62
4
100
AcDbLine
 10
57.578457
 20
-0.477404
 30
0.0
 11
57.540726
 21
-0.46376
 31
0.0
  0
LINE
  5
940
330
1F
100
AcDbEntity
  8
1
  6
CONTINUOUS
370
50
 62
4
100
AcDbLine
 10
57.861431
 20
0.451675
 30
0.0
 11
57.808479
 21
0.470797
 31
0.0
  0
LINE
  5
941
330
1F
100
AcDbEntity
  8
1
  6
CONTINUOUS
370
50
 62
4
100
AcDbLine
 10
58.43825099999999
 20
-0.149068
 30
0.0
 11
58.43262499999999
 21
-0.147039
 31
0.0
  0
LINE
  5
942
330
1F
100
AcDbEntity
  8
1
  6
CONTINUOUS
370
50
 62
4
100
AcDbLine
 10
59.264511
 20
0.220464
 30
0.0
 11
59.227871
 21
0.233662
 31
0.0
  0
LINE
  5
943
330
1F
100
AcDbEntity
  8
1
  6
CONTINUOUS
370
50
 62
4
100
AcDbLine
 10
58.44387099999999
 20
-0.151075
 30
0.0
 11
58.43825099999999
 21
-0.149068
 31
0.0
  0
LINE
  5
944
330
1F
100
AcDbEntity
  8
1
  6
CONTINUOUS
370
50
 62
4
100
AcDbLine
 10
59.499908
 20
0.456781
 30
0.0
 11
59.45898099999999
 21
0.471375
 31
0.0
  0
LINE
  5
945
330
1F
100
AcDbEntity
  8
1
  6
CONTINUOUS
370
50
 62
4
100
AcDbLine
 10
57.688515
 20
0.217725
 30
0.0
 11
57.682953
 21
0.219708
 31
0.0
  0
LINE
  5
946
330
1F
100
AcDbEntity
  8
1
  6
CONTINUOUS
370
50
 62
4
100
AcDbLine
 10
58.449471
 20
-0.153058
 30
0.0
 11
58.44387099999999
 21
-0.151075
 31
0.0
  0
LINE
  5
947
330
1F
100
AcDbEntity
  8
1
  6
CONTINUOUS
370
50
 62
4
100
AcDbLine
 10
57.790966
 20
-0.210088
 30
0.0
 11
57.772213
 21
-0.203476
 31
0.0
  0
LINE
  5
948
330
1F
100
AcDbEntity
  8
1
  6
CONTINUOUS
370
50
 62
4
100
AcDbLine
 10
58.603596
 20
-0.212136
 30
0.0
 11
58.565037
 21
-0.198586
 31
0.0
  0
LINE
  5
949
330
1F
100
AcDbEntity
  8
1
  6
CONTINUOUS
370
50
 62
4
100
AcDbLine
 10
59.052864
 20
-0.473768
 30
0.0
 11
58.987434
 21
-0.450914
 31
0.0
  0
LINE
  5
94A
330
1F
100
AcDbEntity
  8
1
  6
CONTINUOUS
370
50
 62
4
100
AcDbLine
 10
57.937946
 20
0.456157
 30
0.0
 11
57.898674
 21
0.469843
 31
0.0
  0
LINE
  5
94B
330
1F
100
AcDbEntity
  8
1
  6
CONTINUOUS
370
50
 62
4
100
AcDbLine
 10
58.41833099999999
 20
0.237653
 30
0.0
 11
58.38177899999999
 21
0.250366
 31
0.0
  0
LINE
  5
94C
330
1F
100
AcDbEntity
  8
1
  6
CONTINUOUS
370
50
 62
4
100
AcDbLine
 10
58.607231
 20
-0.212355
 30
0.0
 11
58.567966
 21
-0.198862
 31
0.0
  0
LINE
  5
94D
330
1F
100
AcDbEntity
  8
1
  6
CONTINUOUS
370
50
 62
4
100
AcDbLine
 10
57.803841
 20
-0.214264
 30
0.0
 11
57.78199799999999
 21
-0.206804
 31
0.0
  0
LINE
  5
94E
330
1F
100
AcDbEntity
  8
1
  6
CONTINUOUS
370
50
 62
4
100
AcDbLine
 10
59.867672
 20
-0.483073
 30
0.0
 11
59.830536
 21
-0.470762
 31
0.0
  0
LINE
  5
94F
330
1F
100
AcDbEntity
  8
1
  6
CONTINUOUS
370
50
 62
4
100
AcDbLine
 10
57.80978
 20
-0.21632
 30
0.0
 11
57.790966
 21
-0.210088
 31
0.0
  0
LINE
  5
950
330
1F
100
AcDbEntity
  8
1
  6
CONTINUOUS
370
50
 62
4
100
AcDbLine
 10
57.214954
 20
0.491832
 30
0.0
 11
57.202427
 21
0.495957
 31
0.0
  0
LINE
  5
951
330
1F
100
AcDbEntity
  8
1
  6
CONTINUOUS
370
50
 62
4
100
AcDbLine
 10
58.642162
 20
-0.224824
 30
0.0
 11
58.603596
 21
-0.212136
 31
0.0
  0
LINE
  5
952
330
1F
100
AcDbEntity
  8
1
  6
CONTINUOUS
370
50
 62
4
100
AcDbLine
 10
58.645378
 20
-0.224698
 30
0.0
 11
58.607231
 21
-0.212355
 31
0.0
  0
LINE
  5
953
330
1F
100
AcDbEntity
  8
1
  6
CONTINUOUS
370
50
 62
4
100
AcDbLine
 10
58.455215
 20
0.225769
 30
0.0
 11
58.41833099999999
 21
0.237653
 31
0.0
  0
LINE
  5
954
330
1F
100
AcDbEntity
  8
1
  6
CONTINUOUS
370
50
 62
4
100
AcDbLine
 10
58.527874
 20
0.202855
 30
0.0
 11
58.474236
 21
0.219994
 31
0.0
  0
LINE
  5
955
330
1F
100
AcDbEntity
  8
1
  6
CONTINUOUS
370
50
 62
4
100
AcDbLine
 10
57.82568
 20
-0.221226
 30
0.0
 11
57.803841
 21
-0.214264
 31
0.0
  0
LINE
  5
956
330
1F
100
AcDbEntity
  8
1
  6
CONTINUOUS
370
50
 62
4
100
AcDbLine
 10
59.935112
 20
-0.481167
 30
0.0
 11
59.914494
 21
-0.474679
 31
0.0
  0
LINE
  5
957
330
1F
100
AcDbEntity
  8
1
  6
CONTINUOUS
370
50
 62
4
100
AcDbLine
 10
59.373714
 20
0.473008
 30
0.0
 11
59.341507
 21
0.483085
 31
0.0
  0
LINE
  5
958
330
1F
100
AcDbEntity
  8
1
  6
CONTINUOUS
370
50
 62
4
100
AcDbLine
 10
59.424118
 20
-0.230473
 30
0.0
 11
59.417435
 21
-0.228384
 31
0.0
  0
LINE
  5
959
330
1F
100
AcDbEntity
  8
1
  6
CONTINUOUS
370
50
 62
4
100
AcDbLine
 10
57.828636
 20
-0.222183
 30
0.0
 11
57.80978
 21
-0.21632
 31
0.0
  0
LINE
  5
95A
330
1F
100
AcDbEntity
  8
1
  6
CONTINUOUS
370
50
 62
4
100
AcDbLine
 10
59.424129
 20
-0.230441
 30
0.0
 11
59.417435
 21
-0.228369
 31
0.0
  0
LINE
  5
95B
330
1F
100
AcDbEntity
  8
1
  6
CONTINUOUS
370
50
 62
4
100
AcDbLine
 10
58.680294
 20
-0.235334
 30
0.0
 11
58.645378
 21
-0.224698
 31
0.0
  0
LINE
  5
95C
330
1F
100
AcDbEntity
  8
1
  6
CONTINUOUS
370
50
 62
4
100
AcDbLine
 10
57.89805999999999
 20
0.328266
 30
0.0
 11
57.831715
 21
0.348469
 31
0.0
  0
LINE
  5
95D
330
1F
100
AcDbEntity
  8
1
  6
CONTINUOUS
370
50
 62
4
100
AcDbLine
 10
58.289894
 20
-0.482819
 30
0.0
 11
58.25471899999999
 21
-0.472112
 31
0.0
  0
LINE
  5
95E
330
1F
100
AcDbEntity
  8
1
  6
CONTINUOUS
370
50
 62
4
100
AcDbLine
 10
58.474277
 20
0.219972
 30
0.0
 11
58.455215
 21
0.225769
 31
0.0
  0
LINE
  5
95F
330
1F
100
AcDbEntity
  8
1
  6
CONTINUOUS
370
50
 62
4
100
AcDbLine
 10
59.430817
 20
-0.232506
 30
0.0
 11
59.424118
 21
-0.230473
 31
0.0
  0
LINE
  5
960
330
1F
100
AcDbEntity
  8
1
  6
CONTINUOUS
370
50
 62
4
100
AcDbLine
 10
58.680725
 20
-0.236488
 30
0.0
 11
58.642162
 21
-0.224824
 31
0.0
  0
LINE
  5
961
330
1F
100
AcDbEntity
  8
1
  6
CONTINUOUS
370
50
 62
4
100
AcDbLine
 10
59.430828
 20
-0.232458
 30
0.0
 11
59.424129
 21
-0.230441
 31
0.0
  0
LINE
  5
962
330
1F
100
AcDbEntity
  8
1
  6
CONTINUOUS
370
50
 62
4
100
AcDbLine
 10
58.681999
 20
0.472505
 30
0.0
 11
58.64108299999999
 21
0.484753
 31
0.0
  0
LINE
  5
963
330
1F
100
AcDbEntity
  8
1
  6
CONTINUOUS
370
50
 62
4
100
AcDbLine
 10
57.847511
 20
-0.227714
 30
0.0
 11
57.82568
 21
-0.221226
 31
0.0
  0
LINE
  5
964
330
1F
100
AcDbEntity
  8
1
  6
CONTINUOUS
370
50
 62
4
100
AcDbLine
 10
59.437527
 20
-0.234482
 30
0.0
 11
59.430817
 21
-0.232506
 31
0.0
  0
LINE
  5
965
330
1F
100
AcDbEntity
  8
1
  6
CONTINUOUS
370
50
 62
4
100
AcDbLine
 10
59.436543
 20
0.337372
 30
0.0
 11
59.370129
 21
0.356883
 31
0.0
  0
LINE
  5
966
330
1F
100
AcDbEntity
  8
1
  6
CONTINUOUS
370
50
 62
4
100
AcDbLine
 10
59.437527
 20
-0.23442
 30
0.0
 11
59.430828
 21
-0.232458
 31
0.0
  0
LINE
  5
967
330
1F
100
AcDbEntity
  8
1
  6
CONTINUOUS
370
50
 62
4
100
AcDbLine
 10
59.45898099999999
 20
0.471375
 30
0.0
 11
59.41809499999999
 21
0.483307
 31
0.0
  0
LINE
  5
968
330
1F
100
AcDbEntity
  8
1
  6
CONTINUOUS
370
50
 62
4
100
AcDbLine
 10
57.84751499999999
 20
-0.227688
 30
0.0
 11
57.828636
 21
-0.222183
 31
0.0
  0
LINE
  5
969
330
1F
100
AcDbEntity
  8
1
  6
CONTINUOUS
370
50
 62
4
100
AcDbLine
 10
57.614235
 20
-0.48764
 30
0.0
 11
57.578457
 21
-0.477404
 31
0.0
  0
LINE
  5
96A
330
1F
100
AcDbEntity
  8
1
  6
CONTINUOUS
370
50
 62
4
100
AcDbLine
 10
59.44424799999999
 20
-0.236403
 30
0.0
 11
59.437527
 21
-0.234482
 31
0.0
  0
LINE
  5
96B
330
1F
100
AcDbEntity
  8
1
  6
CONTINUOUS
370
50
 62
4
100
AcDbLine
 10
59.444221
 20
-0.236328
 30
0.0
 11
59.437527
 21
-0.23442
 31
0.0
  0
LINE
  5
96C
330
1F
100
AcDbEntity
  8
1
  6
CONTINUOUS
370
50
 62
4
100
AcDbLine
 10
57.898674
 20
0.469843
 30
0.0
 11
57.857723
 21
0.48149
 31
0.0
  0
LINE
  5
96D
330
1F
100
AcDbEntity
  8
1
  6
CONTINUOUS
370
50
 62
4
100
AcDbLine
 10
58.60539199999999
 20
0.471454
 30
0.0
 11
58.561073
 21
0.483953
 31
0.0
  0
LINE
  5
96E
330
1F
100
AcDbEntity
  8
1
  6
CONTINUOUS
370
50
 62
4
100
AcDbLine
 10
58.383636
 20
-0.485394
 30
0.0
 11
58.326424
 21
-0.469269
 31
0.0
  0
LINE
  5
96F
330
1F
100
AcDbEntity
  8
1
  6
CONTINUOUS
370
50
 62
4
100
AcDbLine
 10
57.808479
 20
0.470797
 30
0.0
 11
57.756481
 21
0.485375
 31
0.0
  0
LINE
  5
970
330
1F
100
AcDbEntity
  8
1
  6
CONTINUOUS
370
50
 62
4
100
AcDbLine
 10
59.18969
 20
-0.48722
 30
0.0
 11
59.12743
 21
-0.469851
 31
0.0
  0
LINE
  5
971
330
1F
100
AcDbEntity
  8
1
  6
CONTINUOUS
370
50
 62
4
100
AcDbLine
 10
59.450981
 20
-0.238269
 30
0.0
 11
59.44424799999999
 21
-0.236403
 31
0.0
  0
LINE
  5
972
330
1F
100
AcDbEntity
  8
1
  6
CONTINUOUS
370
50
 62
4
100
AcDbLine
 10
59.45092
 20
-0.238182
 30
0.0
 11
59.444221
 21
-0.236328
 31
0.0
  0
LINE
  5
973
330
1F
100
AcDbEntity
  8
1
  6
CONTINUOUS
370
50
 62
4
100
AcDbLine
 10
57.888157
 20
-0.236522
 30
0.0
 11
57.888088
 21
-0.236503
 31
0.0
  0
LINE
  5
974
330
1F
100
AcDbEntity
  8
1
  6
CONTINUOUS
370
50
 62
4
100
AcDbLine
 10
57.88795099999999
 20
-0.236467
 30
0.0
 11
57.887882
 21
-0.236448
 31
0.0
  0
LINE
  5
975
330
1F
100
AcDbEntity
  8
1
  6
CONTINUOUS
370
50
 62
4
100
AcDbLine
 10
57.53067799999999
 20
-0.485544
 30
0.0
 11
57.5
 21
-0.477173
 31
0.0
  0
LINE
  5
976
330
1F
100
AcDbEntity
  8
1
  6
CONTINUOUS
370
50
 62
4
100
AcDbLine
 10
57.887897
 20
-0.23627
 30
0.0
 11
57.887871
 21
-0.236263
 31
0.0
  0
LINE
  5
977
330
1F
100
AcDbEntity
  8
1
  6
CONTINUOUS
370
50
 62
4
100
AcDbLine
 10
59.457615
 20
-0.239983
 30
0.0
 11
59.45092
 21
-0.238182
 31
0.0
  0
LINE
  5
978
330
1F
100
AcDbEntity
  8
1
  6
CONTINUOUS
370
50
 62
4
100
AcDbLine
 10
56.599998
 20
0.49995
 30
0.0
 11
47.299999
 21
2.99995
 31
0.0
  0
LINE
  5
979
330
1F
100
AcDbEntity
  8
1
  6
CONTINUOUS
370
50
 62
4
100
AcDbLine
 10
59.45772599999999
 20
-0.240081
 30
0.0
 11
59.450981
 21
-0.238269
 31
0.0
  0
LINE
  5
97A
330
1F
100
AcDbEntity
  8
1
  6
CONTINUOUS
370
50
 62
4
100
AcDbLine
 10
57.888088
 20
-0.236503
 30
0.0
 11
57.88802
 21
-0.236485
 31
0.0
  0
LINE
  5
97B
330
1F
100
AcDbEntity
  8
1
  6
CONTINUOUS
370
50
 62
4
100
AcDbLine
 10
57.887882
 20
-0.236448
 30
0.0
 11
57.887814
 21
-0.23643
 31
0.0
  0
LINE
  5
97C
330
1F
100
AcDbEntity
  8
1
  6
CONTINUOUS
370
50
 62
4
100
AcDbLine
 10
59.955997
 20
-0.486651
 30
0.0
 11
59.935112
 21
-0.481167
 31
0.0
  0
LINE
  5
97D
330
1F
100
AcDbEntity
  8
1
  6
CONTINUOUS
370
50
 62
4
100
AcDbLine
 10
57.88802
 20
-0.236485
 30
0.0
 11
57.88795099999999
 21
-0.236467
 31
0.0
  0
LINE
  5
97E
330
1F
100
AcDbEntity
  8
1
  6
CONTINUOUS
370
50
 62
4
100
AcDbLine
 10
57.887814
 20
-0.23643
 30
0.0
 11
57.887745
 21
-0.236412
 31
0.0
  0
LINE
  5
97F
330
1F
100
AcDbEntity
  8
1
  6
CONTINUOUS
370
50
 62
4
100
AcDbLine
 10
57.887871
 20
-0.236263
 30
0.0
 11
57.887817
 21
-0.236249
 31
0.0
  0
LINE
  5
980
330
1F
100
AcDbEntity
  8
1
  6
CONTINUOUS
370
50
 62
4
100
AcDbLine
 10
57.887791
 20
-0.236243
 30
0.0
 11
57.88773699999999
 21
-0.236229
 31
0.0
  0
LINE
  5
981
330
1F
100
AcDbEntity
  8
1
  6
CONTINUOUS
370
50
 62
4
100
AcDbLine
 10
58.642567
 20
0.344534
 30
0.0
 11
58.578041
 21
0.361115
 31
0.0
  0
LINE
  5
982
330
1F
100
AcDbEntity
  8
1
  6
CONTINUOUS
370
50
 62
4
100
AcDbLine
 10
59.116341
 20
-0.489402
 30
0.0
 11
59.052864
 21
-0.473768
 31
0.0
  0
LINE
  5
983
330
1F
100
AcDbEntity
  8
1
  6
CONTINUOUS
370
50
 62
4
100
AcDbLine
 10
59.905479
 20
-0.49223
 30
0.0
 11
59.867672
 21
-0.483073
 31
0.0
  0
LINE
  5
984
330
1F
100
AcDbEntity
  8
1
  6
CONTINUOUS
370
50
 62
4
100
AcDbLine
 10
59.341507
 20
0.483085
 30
0.0
 11
59.307087
 21
0.49139
 31
0.0
  0
LINE
  5
985
330
1F
100
AcDbEntity
  8
1
  6
CONTINUOUS
370
50
 62
4
100
AcDbLine
 10
57.831715
 20
0.348469
 30
0.0
 11
57.765366
 21
0.363878
 31
0.0
  0
LINE
  5
986
330
1F
100
AcDbEntity
  8
1
  6
CONTINUOUS
370
50
 62
4
100
AcDbLine
 10
57.887817
 20
-0.236249
 30
0.0
 11
57.887791
 21
-0.236243
 31
0.0
  0
LINE
  5
987
330
1F
100
AcDbEntity
  8
1
  6
CONTINUOUS
370
50
 62
4
100
AcDbLine
 10
57.853222
 20
-0.228984
 30
0.0
 11
57.84751499999999
 21
-0.227688
 31
0.0
  0
LINE
  5
988
330
1F
100
AcDbEntity
  8
1
  6
CONTINUOUS
370
50
 62
4
100
AcDbLine
 10
58.325615
 20
-0.490862
 30
0.0
 11
58.289894
 21
-0.482819
 31
0.0
  0
LINE
  5
989
330
1F
100
AcDbEntity
  8
1
  6
CONTINUOUS
370
50
 62
4
100
AcDbLine
 10
59.41809499999999
 20
0.483307
 30
0.0
 11
59.377579
 21
0.492299
 31
0.0
  0
LINE
  5
98A
330
1F
100
AcDbEntity
  8
1
  6
CONTINUOUS
370
50
 62
4
100
AcDbLine
 10
57.858959
 20
-0.230256
 30
0.0
 11
57.853222
 21
-0.228984
 31
0.0
  0
LINE
  5
98B
330
1F
100
AcDbEntity
  8
1
  6
CONTINUOUS
370
50
 62
4
100
AcDbLine
 10
57.55904
 20
-0.491797
 30
0.0
 11
57.53067799999999
 21
-0.485544
 31
0.0
  0
LINE
  5
98C
330
1F
100
AcDbEntity
  8
1
  6
CONTINUOUS
370
50
 62
4
100
AcDbLine
 10
57.86471599999999
 20
-0.231503
 30
0.0
 11
57.858959
 21
-0.230256
 31
0.0
  0
LINE
  5
98D
330
1F
100
AcDbEntity
  8
1
  6
CONTINUOUS
370
50
 62
4
100
AcDbLine
 10
57.857723
 20
0.48149
 30
0.0
 11
57.81395699999999
 21
0.490958
 31
0.0
  0
LINE
  5
98E
330
1F
100
AcDbEntity
  8
1
  6
CONTINUOUS
370
50
 62
4
100
AcDbLine
 10
59.977146
 20
-0.491159
 30
0.0
 11
59.955997
 21
-0.486651
 31
0.0
  0
LINE
  5
98F
330
1F
100
AcDbEntity
  8
1
  6
CONTINUOUS
370
50
 62
4
100
AcDbLine
 10
57.870483
 20
-0.232725
 30
0.0
 11
57.86471599999999
 21
-0.231503
 31
0.0
  0
LINE
  5
990
330
1F
100
AcDbEntity
  8
1
  6
CONTINUOUS
370
50
 62
4
100
AcDbLine
 10
57.202427
 20
0.495957
 30
0.0
 11
57.189629
 21
0.49863
 31
0.0
  0
LINE
  5
991
330
1F
100
AcDbEntity
  8
1
  6
CONTINUOUS
370
50
 62
4
100
AcDbLine
 10
57.876251
 20
-0.23392
 30
0.0
 11
57.870483
 21
-0.232725
 31
0.0
  0
LINE
  5
992
330
1F
100
AcDbEntity
  8
1
  6
CONTINUOUS
370
50
 62
4
100
AcDbLine
 10
59.370129
 20
0.356883
 30
0.0
 11
59.30371899999999
 21
0.370381
 31
0.0
  0
LINE
  5
993
330
1F
100
AcDbEntity
  8
1
  6
CONTINUOUS
370
50
 62
4
100
AcDbLine
 10
57.882008
 20
-0.235088
 30
0.0
 11
57.876251
 21
-0.23392
 31
0.0
  0
LINE
  5
994
330
1F
100
AcDbEntity
  8
1
  6
CONTINUOUS
370
50
 62
4
100
AcDbLine
 10
57.64910099999999
 20
-0.494671
 30
0.0
 11
57.614235
 21
-0.48764
 31
0.0
  0
LINE
  5
995
330
1F
100
AcDbEntity
  8
1
  6
CONTINUOUS
370
50
 62
4
100
AcDbLine
 10
58.64108299999999
 20
0.484753
 30
0.0
 11
58.596653
 21
0.493698
 31
0.0
  0
LINE
  5
996
330
1F
100
AcDbEntity
  8
1
  6
CONTINUOUS
370
50
 62
4
100
AcDbLine
 10
57.88773699999999
 20
-0.236229
 30
0.0
 11
57.882008
 21
-0.235088
 31
0.0
  0
LINE
  5
997
330
1F
100
AcDbEntity
  8
1
  6
CONTINUOUS
370
50
 62
4
100
AcDbLine
 10
58.561073
 20
0.483953
 30
0.0
 11
58.51775
 21
0.492581
 31
0.0
  0
LINE
  5
998
330
1F
100
AcDbEntity
  8
1
  6
CONTINUOUS
370
50
 62
4
100
AcDbLine
 10
57.756481
 20
0.485375
 30
0.0
 11
57.70567699999999
 21
0.495125
 31
0.0
  0
LINE
  5
999
330
1F
100
AcDbEntity
  8
1
  6
CONTINUOUS
370
50
 62
4
100
AcDbLine
 10
57.171062
 20
-0.49985
 30
0.0
 11
57.170341
 21
-0.499718
 31
0.0
  0
LINE
  5
99A
330
1F
100
AcDbEntity
  8
1
  6
CONTINUOUS
370
50
 62
4
100
AcDbLine
 10
59.245617
 20
-0.497062
 30
0.0
 11
59.18969
 21
-0.48722
 31
0.0
  0
LINE
  5
99B
330
1F
100
AcDbEntity
  8
1
  6
CONTINUOUS
370
50
 62
4
100
AcDbLine
 10
58.441044
 20
-0.495454
 30
0.0
 11
58.383636
 21
-0.485394
 31
0.0
  0
LINE
  5
99C
330
1F
100
AcDbEntity
  8
1
  6
CONTINUOUS
370
50
 62
4
100
AcDbLine
 10
59.998562
 20
-0.494717
 30
0.0
 11
59.977146
 21
-0.491159
 31
0.0
  0
LINE
  5
99D
330
1F
100
AcDbEntity
  8
1
  6
CONTINUOUS
370
50
 62
4
100
AcDbLine
 10
57.585423
 20
-0.496133
 30
0.0
 11
57.55904
 21
-0.491797
 31
0.0
  0
LINE
  5
99E
330
1F
100
AcDbEntity
  8
1
  6
CONTINUOUS
370
50
 62
4
100
AcDbLine
 10
58.578041
 20
0.361115
 30
0.0
 11
58.51350799999999
 21
0.371495
 31
0.0
  0
LINE
  5
99F
330
1F
100
AcDbEntity
  8
1
  6
CONTINUOUS
370
50
 62
4
100
AcDbLine
 10
59.307087
 20
0.49139
 30
0.0
 11
59.26823
 21
0.497369
 31
0.0
  0
LINE
  5
9A0
330
1F
100
AcDbEntity
  8
1
  6
CONTINUOUS
370
50
 62
4
100
AcDbLine
 10
58.361813
 20
-0.496325
 30
0.0
 11
58.325615
 21
-0.490862
 31
0.0
  0
LINE
  5
9A1
330
1F
100
AcDbEntity
  8
1
  6
CONTINUOUS
370
50
 62
4
100
AcDbLine
 10
57.765366
 20
0.363878
 30
0.0
 11
57.699013
 21
0.373547
 31
0.0
  0
LINE
  5
9A2
330
1F
100
AcDbEntity
  8
1
  6
CONTINUOUS
370
50
 62
4
100
AcDbLine
 10
59.173512
 20
-0.497727
 30
0.0
 11
59.116341
 21
-0.489402
 31
0.0
  0
LINE
  5
9A3
330
1F
100
AcDbEntity
  8
1
  6
CONTINUOUS
370
50
 62
4
100
AcDbLine
 10
59.945251
 20
-0.497963
 30
0.0
 11
59.905479
 21
-0.49223
 31
0.0
  0
LINE
  5
9A4
330
1F
100
AcDbEntity
  8
1
  6
CONTINUOUS
370
50
 62
4
100
AcDbLine
 10
59.377579
 20
0.492299
 30
0.0
 11
59.33757
 21
0.498029
 31
0.0
  0
LINE
  5
9A5
330
1F
100
AcDbEntity
  8
1
  6
CONTINUOUS
370
50
 62
4
100
AcDbLine
 10
57.81395699999999
 20
0.490958
 30
0.0
 11
57.76802799999999
 21
0.497383
 31
0.0
  0
LINE
  5
9A6
330
1F
100
AcDbEntity
  8
1
  6
CONTINUOUS
370
50
 62
4
100
AcDbLine
 10
57.231049
 20
0.487173
 30
0.0
 11
57.22327
 21
0.488197
 31
0.0
  0
LINE
  5
9A7
330
1F
100
AcDbEntity
  8
1
  6
CONTINUOUS
370
50
 62
4
100
AcDbLine
 10
58.51775
 20
0.492581
 30
0.0
 11
58.475868
 21
0.497743
 31
0.0
  0
LINE
  5
9A8
330
1F
100
AcDbEntity
  8
1
  6
CONTINUOUS
370
50
 62
4
100
AcDbLine
 10
57.239037
 20
0.486206
 30
0.0
 11
57.231049
 21
0.487173
 31
0.0
  0
LINE
  5
9A9
330
1F
100
AcDbEntity
  8
1
  6
CONTINUOUS
370
50
 62
4
100
AcDbLine
 10
57.684105
 20
-0.498699
 30
0.0
 11
57.64910099999999
 21
-0.494671
 31
0.0
  0
LINE
  5
9AA
330
1F
100
AcDbEntity
  8
1
  6
CONTINUOUS
370
50
 62
4
100
AcDbLine
 10
57.247238
 20
0.485297
 30
0.0
 11
57.239037
 21
0.486206
 31
0.0
  0
LINE
  5
9AB
330
1F
100
AcDbEntity
  8
1
  6
CONTINUOUS
370
50
 62
4
100
AcDbLine
 10
58.596653
 20
0.493698
 30
0.0
 11
58.548302
 21
0.498877
 31
0.0
  0
LINE
  5
9AC
330
1F
100
AcDbEntity
  8
1
  6
CONTINUOUS
370
50
 62
4
100
AcDbLine
 10
57.61015699999999
 20
-0.498753
 30
0.0
 11
57.585423
 21
-0.496133
 31
0.0
  0
LINE
  5
9AD
330
1F
100
AcDbEntity
  8
1
  6
CONTINUOUS
370
50
 62
4
100
AcDbLine
 10
57.25563
 20
0.48445
 30
0.0
 11
57.247238
 21
0.485297
 31
0.0
  0
LINE
  5
9AE
330
1F
100
AcDbEntity
  8
1
  6
CONTINUOUS
370
50
 62
4
100
AcDbLine
 10
57.189629
 20
0.49863
 30
0.0
 11
57.176453
 21
0.499859
 31
0.0
  0
LINE
  5
9AF
330
1F
100
AcDbEntity
  8
1
  6
CONTINUOUS
370
50
 62
4
100
AcDbLine
 10
57.70567699999999
 20
0.495125
 30
0.0
 11
57.656033
 21
0.499649
 31
0.0
  0
LINE
  5
9B0
330
1F
100
AcDbEntity
  8
1
  6
CONTINUOUS
370
50
 62
4
100
AcDbLine
 10
57.264179
 20
0.483673
 30
0.0
 11
57.25563
 21
0.48445
 31
0.0
  0
LINE
  5
9B1
330
1F
100
AcDbEntity
  8
1
  6
CONTINUOUS
370
50
 62
4
100
AcDbLine
 10
59.30371899999999
 20
0.370381
 30
0.0
 11
59.23732
 21
0.376239
 31
0.0
  0
LINE
  5
9B2
330
1F
100
AcDbEntity
  8
1
  6
CONTINUOUS
370
50
 62
4
100
AcDbLine
 10
57.27284599999999
 20
0.482969
 30
0.0
 11
57.264179
 21
0.483673
 31
0.0
  0
LINE
  5
9B3
330
1F
100
AcDbEntity
  8
1
  6
CONTINUOUS
370
50
 62
4
100
AcDbLine
 10
58.398418
 20
-0.499295
 30
0.0
 11
58.361813
 21
-0.496325
 31
0.0
  0
LINE
  5
9B4
330
1F
100
AcDbEntity
  8
1
  6
CONTINUOUS
370
50
 62
4
100
AcDbLine
 10
58.49777599999999
 20
-0.499746
 30
0.0
 11
58.441044
 21
-0.495454
 31
0.0
  0
LINE
  5
9B5
330
1F
100
AcDbEntity
  8
1
  6
CONTINUOUS
370
50
 62
4
100
AcDbLine
 10
57.172081
 20
-0.499926
 30
0.0
 11
57.171062
 21
-0.49985
 31
0.0
  0
LINE
  5
9B6
330
1F
100
AcDbEntity
  8
1
  6
CONTINUOUS
370
50
 62
4
100
AcDbLine
 10
58.51350799999999
 20
0.371495
 30
0.0
 11
58.448971
 21
0.376262
 31
0.0
  0
LINE
  5
9B7
330
1F
100
AcDbEntity
  8
1
  6
CONTINUOUS
370
50
 62
4
100
AcDbLine
 10
57.28160099999999
 20
0.482345
 30
0.0
 11
57.27284599999999
 21
0.482969
 31
0.0
  0
LINE
  5
9B8
330
1F
100
AcDbEntity
  8
1
  6
CONTINUOUS
370
50
 62
4
100
AcDbLine
 10
57.290432
 20
0.481804
 30
0.0
 11
57.28160099999999
 21
0.482345
 31
0.0
  0
LINE
  5
9B9
330
1F
100
AcDbEntity
  8
1
  6
CONTINUOUS
370
50
 62
4
100
AcDbLine
 10
59.29714199999999
 20
-0.500097
 30
0.0
 11
59.245617
 21
-0.497062
 31
0.0
  0
LINE
  5
9BA
330
1F
100
AcDbEntity
  8
1
  6
CONTINUOUS
370
50
 62
4
100
AcDbLine
 10
59.26823
 20
0.497369
 30
0.0
 11
59.224506
 21
0.499911
 31
0.0
  0
LINE
  5
9BB
330
1F
100
AcDbEntity
  8
1
  6
CONTINUOUS
370
50
 62
4
100
AcDbLine
 10
57.76802799999999
 20
0.497383
 30
0.0
 11
57.720585
 21
0.499905
 31
0.0
  0
LINE
  5
9BC
330
1F
100
AcDbEntity
  8
1
  6
CONTINUOUS
370
50
 62
4
100
AcDbLine
 10
58.475868
 20
0.497743
 30
0.0
 11
58.435871
 21
0.499842
 31
0.0
  0
LINE
  5
9BD
330
1F
100
AcDbEntity
  8
1
  6
CONTINUOUS
370
50
 62
4
100
AcDbLine
 10
57.299347
 20
0.481347
 30
0.0
 11
57.290432
 21
0.481804
 31
0.0
  0
LINE
  5
9BE
330
1F
100
AcDbEntity
  8
1
  6
CONTINUOUS
370
50
 62
4
100
AcDbLine
 10
59.33757
 20
0.498029
 30
0.0
 11
59.29714199999999
 21
0.500097
 31
0.0
  0
LINE
  5
9BF
330
1F
100
AcDbEntity
  8
1
  6
CONTINUOUS
370
50
 62
4
100
AcDbLine
 10
57.63358299999999
 20
-0.499858
 30
0.0
 11
57.61015699999999
 21
-0.498753
 31
0.0
  0
LINE
  5
9C0
330
1F
100
AcDbEntity
  8
1
  6
CONTINUOUS
370
50
 62
4
100
AcDbLine
 10
57.176453
 20
0.499859
 30
0.0
 11
57.175888
 21
0.499885
 31
0.0
  0
LINE
  5
9C1
330
1F
100
AcDbEntity
  8
1
  6
CONTINUOUS
370
50
 62
4
100
AcDbLine
 10
59.224506
 20
-0.499911
 30
0.0
 11
59.173512
 21
-0.497727
 31
0.0
  0
LINE
  5
9C2
330
1F
100
AcDbEntity
  8
1
  6
CONTINUOUS
370
50
 62
4
100
AcDbLine
 10
57.308331
 20
0.480975
 30
0.0
 11
57.299347
 21
0.481347
 31
0.0
  0
LINE
  5
9C3
330
1F
100
AcDbEntity
  8
1
  6
CONTINUOUS
370
50
 62
4
100
AcDbLine
 10
57.699013
 20
0.373547
 30
0.0
 11
57.632664
 21
0.37629
 31
0.0
  0
LINE
  5
9C4
330
1F
100
AcDbEntity
  8
1
  6
CONTINUOUS
370
50
 62
4
100
AcDbLine
 10
57.175888
 20
0.499885
 30
0.0
 11
57.175343
 21
0.499907
 31
0.0
  0
LINE
  5
9C5
330
1F
100
AcDbEntity
  8
1
  6
CONTINUOUS
370
50
 62
4
100
AcDbLine
 10
57.175343
 20
0.499907
 30
0.0
 11
57.17482
 21
0.499925
 31
0.0
  0
LINE
  5
9C6
330
1F
100
AcDbEntity
  8
1
  6
CONTINUOUS
370
50
 62
4
100
AcDbLine
 10
57.719929
 20
-0.499909
 30
0.0
 11
57.684105
 21
-0.498699
 31
0.0
  0
LINE
  5
9C7
330
1F
100
AcDbEntity
  8
1
  6
CONTINUOUS
370
50
 62
4
100
AcDbLine
 10
57.317364
 20
0.48069
 30
0.0
 11
57.308331
 21
0.480975
 31
0.0
  0
LINE
  5
9C8
330
1F
100
AcDbEntity
  8
1
  6
CONTINUOUS
370
50
 62
4
100
AcDbLine
 10
57.17482
 20
0.499925
 30
0.0
 11
57.174324
 21
0.499938
 31
0.0
  0
LINE
  5
9C9
330
1F
100
AcDbEntity
  8
1
  6
CONTINUOUS
370
50
 62
4
100
AcDbLine
 10
57.326424
 20
0.480495
 30
0.0
 11
57.317364
 21
0.48069
 31
0.0
  0
LINE
  5
9CA
330
1F
100
AcDbEntity
  8
1
  6
CONTINUOUS
370
50
 62
4
100
AcDbLine
 10
57.173389
 20
-0.499949
 30
0.0
 11
57.172081
 21
-0.499926
 31
0.0
  0
LINE
  5
9CB
330
1F
100
AcDbEntity
  8
1
  6
CONTINUOUS
370
50
 62
4
100
AcDbLine
 10
58.548302
 20
0.498877
 30
0.0
 11
58.49777599999999
 21
0.499746
 31
0.0
  0
LINE
  5
9CC
330
1F
100
AcDbEntity
  8
1
  6
CONTINUOUS
370
50
 62
4
100
AcDbLine
 10
57.174324
 20
0.499938
 30
0.0
 11
57.173851
 21
0.499946
 31
0.0
  0
LINE
  5
9CD
330
1F
100
AcDbEntity
  8
1
  6
CONTINUOUS
370
50
 62
4
100
AcDbLine
 10
58.435871
 20
-0.499842
 30
0.0
 11
58.398418
 21
-0.499295
 31
0.0
  0
LINE
  5
9CE
330
1F
100
AcDbEntity
  8
1
  6
CONTINUOUS
370
50
 62
4
100
AcDbLine
 10
59.900002
 20
0.00126
 30
0.0
 11
59.830994
 21
0.00213
 31
0.0
  0
LINE
  5
9CF
330
1F
100
AcDbEntity
  8
1
  6
CONTINUOUS
370
50
 62
4
100
AcDbLine
 10
59.830994
 20
0.00213
 30
0.0
 11
59.804581
 21
0.002462
 31
0.0
  0
LINE
  5
9D0
330
1F
100
AcDbEntity
  8
1
  6
CONTINUOUS
370
50
 62
4
100
AcDbLine
 10
57.33549499999999
 20
0.48039
 30
0.0
 11
57.326424
 21
0.480495
 31
0.0
  0
LINE
  5
9D1
330
1F
100
AcDbEntity
  8
1
  6
CONTINUOUS
370
50
 62
4
100
AcDbLine
 10
57.656033
 20
0.499649
 30
0.0
 11
57.63358299999999
 21
0.499858
 31
0.0
  0
LINE
  5
9D2
330
1F
100
AcDbEntity
  8
1
  6
CONTINUOUS
370
50
 62
4
100
AcDbLine
 10
57.173851
 20
0.499946
 30
0.0
 11
57.173405
 21
0.499949
 31
0.0
  0
LINE
  5
9D3
330
1F
100
AcDbEntity
  8
1
  6
CONTINUOUS
370
50
 62
4
100
AcDbLine
 10
57.358997
 20
0.480241
 30
0.0
 11
57.33549499999999
 21
0.48039
 31
0.0
  0
LINE
  5
9D4
330
1F
100
AcDbEntity
  8
1
  6
CONTINUOUS
370
50
 62
4
100
AcDbLine
 10
57.382496
 20
0.480096
 30
0.0
 11
57.358997
 21
0.480241
 31
0.0
  0
LINE
  5
9D5
330
1F
100
AcDbEntity
  8
1
  6
CONTINUOUS
370
50
 62
4
100
AcDbLine
 10
57.405994
 20
0.479953
 30
0.0
 11
57.382496
 21
0.480096
 31
0.0
  0
LINE
  5
9D6
330
1F
100
AcDbEntity
  8
1
  6
CONTINUOUS
370
50
 62
4
100
AcDbLine
 10
57.429497
 20
0.479813
 30
0.0
 11
57.405994
 21
0.479953
 31
0.0
  0
LINE
  5
9D7
330
1F
100
AcDbEntity
  8
1
  6
CONTINUOUS
370
50
 62
4
100
AcDbLine
 10
57.452999
 20
0.479677
 30
0.0
 11
57.429497
 21
0.479813
 31
0.0
  0
LINE
  5
9D8
330
1F
100
AcDbEntity
  8
1
  6
CONTINUOUS
370
50
 62
4
100
AcDbLine
 10
57.476498
 20
0.479544
 30
0.0
 11
57.452999
 21
0.479677
 31
0.0
  0
LINE
  5
9D9
330
1F
100
AcDbEntity
  8
1
  6
CONTINUOUS
370
50
 62
4
100
AcDbLine
 10
57.5
 20
0.479414
 30
0.0
 11
57.476498
 21
0.479544
 31
0.0
  0
LINE
  5
9DA
330
1F
100
AcDbEntity
  8
1
  6
CONTINUOUS
370
50
 62
4
100
AcDbLine
 10
58.51340099999999
 20
-0.499941
 30
0.0
 11
58.425659
 21
-0.499937
 31
0.0
  0
LINE
  5
9DB
330
1F
100
AcDbEntity
  8
1
  6
CONTINUOUS
370
50
 62
4
100
AcDbLine
 10
57.717506
 20
-0.499909
 30
0.0
 11
57.640896
 21
-0.499906
 31
0.0
  0
LINE
  5
9DC
330
1F
100
AcDbEntity
  8
1
  6
CONTINUOUS
370
50
 62
4
100
AcDbLine
 10
59.297661
 20
-0.499972
 30
0.0
 11
59.22137799999999
 21
-0.499969
 31
0.0
  0
LINE
  5
9DD
330
1F
100
AcDbEntity
  8
1
  6
CONTINUOUS
370
50
 62
4
100
AcDbLine
 10
59.99883699999999
 20
-0.5
 30
0.0
 11
60.0
 21
-0.5
 31
0.0
  0
LINE
  5
9DE
330
1F
100
AcDbEntity
  8
1
  6
CONTINUOUS
370
50
 62
4
100
AcDbLine
 10
56.599998
 20
-0.49995
 30
0.0
 11
57.173271
 21
-0.49995
 31
0.0
  0
LINE
  5
9DF
330
1F
100
AcDbEntity
  8
1
  6
CONTINUOUS
370
50
 62
4
100
AcDbLine
 10
56.599998
 20
0.49995
 30
0.0
 11
57.173283
 21
0.49995
 31
0.0
  0
LINE
  5
9E0
330
1F
100
AcDbEntity
  8
1
  6
CONTINUOUS
370
50
 62
4
100
AcDbLine
 10
59.22137799999999
 20
0.499969
 30
0.0
 11
59.297661
 21
0.499972
 31
0.0
  0
LINE
  5
9E1
330
1F
100
AcDbEntity
  8
1
  6
CONTINUOUS
370
50
 62
4
100
AcDbLine
 10
57.640896
 20
0.499906
 30
0.0
 11
57.717491
 21
0.499909
 31
0.0
  0
LINE
  5
9E2
330
1F
100
AcDbEntity
  8
1
  6
CONTINUOUS
370
50
 62
4
100
AcDbLine
 10
58.425659
 20
0.499937
 30
0.0
 11
58.51340099999999
 21
0.499941
 31
0.0
  0
LINE
  5
9E3
330
1F
100
AcDbEntity
  8
1
  6
CONTINUOUS
370
50
 62
4
100
AcDbLine
 10
57.476498
 20
-0.479544
 30
0.0
 11
57.5
 21
-0.479414
 31
0.0
  0
LINE
  5
9E4
330
1F
100
AcDbEntity
  8
1
  6
CONTINUOUS
370
50
 62
4
100
AcDbLine
 10
57.452999
 20
-0.479677
 30
0.0
 11
57.476498
 21
-0.479544
 31
0.0
  0
LINE
  5
9E5
330
1F
100
AcDbEntity
  8
1
  6
CONTINUOUS
370
50
 62
4
100
AcDbLine
 10
57.429497
 20
-0.479813
 30
0.0
 11
57.452999
 21
-0.479677
 31
0.0
  0
LINE
  5
9E6
330
1F
100
AcDbEntity
  8
1
  6
CONTINUOUS
370
50
 62
4
100
AcDbLine
 10
57.405994
 20
-0.479953
 30
0.0
 11
57.429497
 21
-0.479813
 31
0.0
  0
LINE
  5
9E7
330
1F
100
AcDbEntity
  8
1
  6
CONTINUOUS
370
50
 62
4
100
AcDbLine
 10
57.382496
 20
-0.480096
 30
0.0
 11
57.405994
 21
-0.479953
 31
0.0
  0
LINE
  5
9E8
330
1F
100
AcDbEntity
  8
1
  6
CONTINUOUS
370
50
 62
4
100
AcDbLine
 10
57.358997
 20
-0.480241
 30
0.0
 11
57.382496
 21
-0.480096
 31
0.0
  0
LINE
  5
9E9
330
1F
100
AcDbEntity
  8
1
  6
CONTINUOUS
370
50
 62
4
100
AcDbLine
 10
57.33549499999999
 20
-0.48039
 30
0.0
 11
57.358997
 21
-0.480241
 31
0.0
  0
LINE
  5
9EA
330
1F
100
AcDbEntity
  8
1
  6
CONTINUOUS
370
50
 62
4
100
AcDbLine
 10
57.173389
 20
-0.499949
 30
0.0
 11
57.17384
 21
-0.499946
 31
0.0
  0
LINE
  5
9EB
330
1F
100
AcDbEntity
  8
1
  6
CONTINUOUS
370
50
 62
4
100
AcDbLine
 10
57.63358299999999
 20
-0.499858
 30
0.0
 11
57.656033
 21
-0.499649
 31
0.0
  0
LINE
  5
9EC
330
1F
100
AcDbEntity
  8
1
  6
CONTINUOUS
370
50
 62
4
100
AcDbLine
 10
58.38442999999999
 20
0.375606
 30
0.0
 11
58.448971
 21
0.376262
 31
0.0
  0
LINE
  5
9ED
330
1F
100
AcDbEntity
  8
1
  6
CONTINUOUS
370
50
 62
4
100
AcDbLine
 10
57.326839
 20
-0.480488
 30
0.0
 11
57.33549499999999
 21
-0.48039
 31
0.0
  0
LINE
  5
9EE
330
1F
100
AcDbEntity
  8
1
  6
CONTINUOUS
370
50
 62
4
100
AcDbLine
 10
57.17384
 20
-0.499946
 30
0.0
 11
57.174316
 21
-0.499938
 31
0.0
  0
LINE
  5
9EF
330
1F
100
AcDbEntity
  8
1
  6
CONTINUOUS
370
50
 62
4
100
AcDbLine
 10
58.395458
 20
0.499147
 30
0.0
 11
58.435871
 21
0.499842
 31
0.0
  0
LINE
  5
9F0
330
1F
100
AcDbEntity
  8
1
  6
CONTINUOUS
370
50
 62
4
100
AcDbLine
 10
58.49777599999999
 20
-0.499746
 30
0.0
 11
58.548298
 21
-0.498877
 31
0.0
  0
LINE
  5
9F1
330
1F
100
AcDbEntity
  8
1
  6
CONTINUOUS
370
50
 62
4
100
AcDbLine
 10
57.476498
 20
0.141378
 30
0.0
 11
57.5
 21
0.141817
 31
0.0
  0
LINE
  5
9F2
330
1F
100
AcDbEntity
  8
1
  6
CONTINUOUS
370
50
 62
4
100
AcDbLine
 10
57.452999
 20
0.140926
 30
0.0
 11
57.476498
 21
0.141378
 31
0.0
  0
LINE
  5
9F3
330
1F
100
AcDbEntity
  8
1
  6
CONTINUOUS
370
50
 62
4
100
AcDbLine
 10
57.429497
 20
0.140461
 30
0.0
 11
57.452999
 21
0.140926
 31
0.0
  0
LINE
  5
9F4
330
1F
100
AcDbEntity
  8
1
  6
CONTINUOUS
370
50
 62
4
100
AcDbLine
 10
57.405994
 20
0.139983
 30
0.0
 11
57.429497
 21
0.140461
 31
0.0
  0
LINE
  5
9F5
330
1F
100
AcDbEntity
  8
1
  6
CONTINUOUS
370
50
 62
4
100
AcDbLine
 10
57.382496
 20
0.139493
 30
0.0
 11
57.405994
 21
0.139983
 31
0.0
  0
LINE
  5
9F6
330
1F
100
AcDbEntity
  8
1
  6
CONTINUOUS
370
50
 62
4
100
AcDbLine
 10
57.318188
 20
-0.480669
 30
0.0
 11
57.326839
 21
-0.480488
 31
0.0
  0
LINE
  5
9F7
330
1F
100
AcDbEntity
  8
1
  6
CONTINUOUS
370
50
 62
4
100
AcDbLine
 10
57.358997
 20
0.13899
 30
0.0
 11
57.382496
 21
0.139493
 31
0.0
  0
LINE
  5
9F8
330
1F
100
AcDbEntity
  8
1
  6
CONTINUOUS
370
50
 62
4
100
AcDbLine
 10
57.33549499999999
 20
0.138475
 30
0.0
 11
57.358997
 21
0.13899
 31
0.0
  0
LINE
  5
9F9
330
1F
100
AcDbEntity
  8
1
  6
CONTINUOUS
370
50
 62
4
100
AcDbLine
 10
59.17092899999999
 20
0.374698
 30
0.0
 11
59.23732
 21
0.376239
 31
0.0
  0
LINE
  5
9FA
330
1F
100
AcDbEntity
  8
1
  6
CONTINUOUS
370
50
 62
4
100
AcDbLine
 10
57.174316
 20
-0.499938
 30
0.0
 11
57.174816
 21
-0.499925
 31
0.0
  0
LINE
  5
9FB
330
1F
100
AcDbEntity
  8
1
  6
CONTINUOUS
370
50
 62
4
100
AcDbLine
 10
57.309563
 20
-0.480931
 30
0.0
 11
57.318188
 21
-0.480669
 31
0.0
  0
LINE
  5
9FC
330
1F
100
AcDbEntity
  8
1
  6
CONTINUOUS
370
50
 62
4
100
AcDbLine
 10
57.174816
 20
-0.499925
 30
0.0
 11
57.17533899999999
 21
-0.499908
 31
0.0
  0
LINE
  5
9FD
330
1F
100
AcDbEntity
  8
1
  6
CONTINUOUS
370
50
 62
4
100
AcDbLine
 10
57.300976
 20
-0.481273
 30
0.0
 11
57.309563
 21
-0.480931
 31
0.0
  0
LINE
  5
9FE
330
1F
100
AcDbEntity
  8
1
  6
CONTINUOUS
370
50
 62
4
100
AcDbLine
 10
57.326294
 20
0.138107
 30
0.0
 11
57.33549499999999
 21
0.138475
 31
0.0
  0
LINE
  5
9FF
330
1F
100
AcDbEntity
  8
1
  6
CONTINUOUS
370
50
 62
4
100
AcDbLine
 10
57.17533899999999
 20
-0.499908
 30
0.0
 11
57.175884
 21
-0.499885
 31
0.0
  0
LINE
  5
A00
330
1F
100
AcDbEntity
  8
1
  6
CONTINUOUS
370
50
 62
4
100
AcDbLine
 10
59.173313
 20
0.497709
 30
0.0
 11
59.224506
 21
0.499911
 31
0.0
  0
LINE
  5
A01
330
1F
100
AcDbEntity
  8
1
  6
CONTINUOUS
370
50
 62
4
100
AcDbLine
 10
57.175884
 20
-0.499885
 30
0.0
 11
57.176453
 21
-0.499859
 31
0.0
  0
LINE
  5
A02
330
1F
100
AcDbEntity
  8
1
  6
CONTINUOUS
370
50
 62
4
100
AcDbLine
 10
57.61015699999999
 20
0.498753
 30
0.0
 11
57.63358299999999
 21
0.499858
 31
0.0
  0
LINE
  5
A03
330
1F
100
AcDbEntity
  8
1
  6
CONTINUOUS
370
50
 62
4
100
AcDbLine
 10
57.292454
 20
-0.481693
 30
0.0
 11
57.300976
 21
-0.481273
 31
0.0
  0
LINE
  5
A04
330
1F
100
AcDbEntity
  8
1
  6
CONTINUOUS
370
50
 62
4
100
AcDbLine
 10
59.29714199999999
 20
-0.500097
 30
0.0
 11
59.33757
 21
-0.498029
 31
0.0
  0
LINE
  5
A05
330
1F
100
AcDbEntity
  8
1
  6
CONTINUOUS
370
50
 62
4
100
AcDbLine
 10
57.719929
 20
-0.499909
 30
0.0
 11
57.767548
 21
-0.497432
 31
0.0
  0
LINE
  5
A06
330
1F
100
AcDbEntity
  8
1
  6
CONTINUOUS
370
50
 62
4
100
AcDbLine
 10
57.284
 20
-0.482189
 30
0.0
 11
57.292454
 21
-0.481693
 31
0.0
  0
LINE
  5
A07
330
1F
100
AcDbEntity
  8
1
  6
CONTINUOUS
370
50
 62
4
100
AcDbLine
 10
57.275627
 20
-0.482761
 30
0.0
 11
57.284
 21
-0.482189
 31
0.0
  0
LINE
  5
A08
330
1F
100
AcDbEntity
  8
1
  6
CONTINUOUS
370
50
 62
4
100
AcDbLine
 10
57.176453
 20
-0.499859
 30
0.0
 11
57.18454699999999
 21
-0.499279
 31
0.0
  0
LINE
  5
A09
330
1F
100
AcDbEntity
  8
1
  6
CONTINUOUS
370
50
 62
4
100
AcDbLine
 10
57.56633
 20
0.371365
 30
0.0
 11
57.632664
 21
0.37629
 31
0.0
  0
LINE
  5
A0A
330
1F
100
AcDbEntity
  8
1
  6
CONTINUOUS
370
50
 62
4
100
AcDbLine
 10
57.31710099999999
 20
0.137412
 30
0.0
 11
57.326294
 21
0.138107
 31
0.0
  0
LINE
  5
A0B
330
1F
100
AcDbEntity
  8
1
  6
CONTINUOUS
370
50
 62
4
100
AcDbLine
 10
57.267323
 20
-0.483408
 30
0.0
 11
57.275627
 21
-0.482761
 31
0.0
  0
LINE
  5
A0C
330
1F
100
AcDbEntity
  8
1
  6
CONTINUOUS
370
50
 62
4
100
AcDbLine
 10
57.259113
 20
-0.484123
 30
0.0
 11
57.267323
 21
-0.483408
 31
0.0
  0
LINE
  5
A0D
330
1F
100
AcDbEntity
  8
1
  6
CONTINUOUS
370
50
 62
4
100
AcDbLine
 10
58.355961
 20
0.495617
 30
0.0
 11
58.395458
 21
0.499147
 31
0.0
  0
LINE
  5
A0E
330
1F
100
AcDbEntity
  8
1
  6
CONTINUOUS
370
50
 62
4
100
AcDbLine
 10
57.25103799999999
 20
-0.484903
 30
0.0
 11
57.259113
 21
-0.484123
 31
0.0
  0
LINE
  5
A0F
330
1F
100
AcDbEntity
  8
1
  6
CONTINUOUS
370
50
 62
4
100
AcDbLine
 10
58.319881
 20
0.369066
 30
0.0
 11
58.38442999999999
 21
0.375606
 31
0.0
  0
LINE
  5
A10
330
1F
100
AcDbEntity
  8
1
  6
CONTINUOUS
370
50
 62
4
100
AcDbLine
 10
57.585423
 20
0.496133
 30
0.0
 11
57.61015699999999
 21
0.498753
 31
0.0
  0
LINE
  5
A11
330
1F
100
AcDbEntity
  8
1
  6
CONTINUOUS
370
50
 62
4
100
AcDbLine
 10
57.243114
 20
-0.485743
 30
0.0
 11
57.25103799999999
 21
-0.484903
 31
0.0
  0
LINE
  5
A12
330
1F
100
AcDbEntity
  8
1
  6
CONTINUOUS
370
50
 62
4
100
AcDbLine
 10
58.548298
 20
-0.498877
 30
0.0
 11
58.596653
 21
-0.493698
 31
0.0
  0
LINE
  5
A13
330
1F
100
AcDbEntity
  8
1
  6
CONTINUOUS
370
50
 62
4
100
AcDbLine
 10
57.307941
 20
0.136388
 30
0.0
 11
57.31710099999999
 21
0.137412
 31
0.0
  0
LINE
  5
A14
330
1F
100
AcDbEntity
  8
1
  6
CONTINUOUS
370
50
 62
4
100
AcDbLine
 10
57.23538199999999
 20
-0.486638
 30
0.0
 11
57.243114
 21
-0.485743
 31
0.0
  0
LINE
  5
A15
330
1F
100
AcDbEntity
  8
1
  6
CONTINUOUS
370
50
 62
4
100
AcDbLine
 10
59.10453399999999
 20
0.366933
 30
0.0
 11
59.17092899999999
 21
0.374698
 31
0.0
  0
LINE
  5
A16
330
1F
100
AcDbEntity
  8
1
  6
CONTINUOUS
370
50
 62
4
100
AcDbLine
 10
57.22784
 20
-0.487585
 30
0.0
 11
57.23538199999999
 21
-0.486638
 31
0.0
  0
LINE
  5
A17
330
1F
100
AcDbEntity
  8
1
  6
CONTINUOUS
370
50
 62
4
100
AcDbLine
 10
57.220509
 20
-0.48858
 30
0.0
 11
57.22784
 21
-0.487585
 31
0.0
  0
LINE
  5
A18
330
1F
100
AcDbEntity
  8
1
  6
CONTINUOUS
370
50
 62
4
100
AcDbLine
 10
57.767548
 20
-0.497432
 30
0.0
 11
57.81361
 21
-0.49102
 31
0.0
  0
LINE
  5
A19
330
1F
100
AcDbEntity
  8
1
  6
CONTINUOUS
370
50
 62
4
100
AcDbLine
 10
57.18454699999999
 20
-0.499279
 30
0.0
 11
57.19249
 21
-0.498163
 31
0.0
  0
LINE
  5
A1A
330
1F
100
AcDbEntity
  8
1
  6
CONTINUOUS
370
50
 62
4
100
AcDbLine
 10
59.33757
 20
-0.498029
 30
0.0
 11
59.377579
 21
-0.492299
 31
0.0
  0
LINE
  5
A1B
330
1F
100
AcDbEntity
  8
1
  6
CONTINUOUS
370
50
 62
4
100
AcDbLine
 10
57.213432
 20
-0.489613
 30
0.0
 11
57.220509
 21
-0.48858
 31
0.0
  0
LINE
  5
A1C
330
1F
100
AcDbEntity
  8
1
  6
CONTINUOUS
370
50
 62
4
100
AcDbLine
 10
59.115906
 20
0.489316
 30
0.0
 11
59.173313
 21
0.497709
 31
0.0
  0
LINE
  5
A1D
330
1F
100
AcDbEntity
  8
1
  6
CONTINUOUS
370
50
 62
4
100
AcDbLine
 10
59.903461
 20
0.491833
 30
0.0
 11
59.945251
 21
0.497963
 31
0.0
  0
LINE
  5
A1E
330
1F
100
AcDbEntity
  8
1
  6
CONTINUOUS
370
50
 62
4
100
AcDbLine
 10
57.298828
 20
0.135031
 30
0.0
 11
57.307941
 21
0.136388
 31
0.0
  0
LINE
  5
A1F
330
1F
100
AcDbEntity
  8
1
  6
CONTINUOUS
370
50
 62
4
100
AcDbLine
 10
57.206669
 20
-0.490672
 30
0.0
 11
57.213432
 21
-0.489613
 31
0.0
  0
LINE
  5
A20
330
1F
100
AcDbEntity
  8
1
  6
CONTINUOUS
370
50
 62
4
100
AcDbLine
 10
57.55904
 20
0.491797
 30
0.0
 11
57.585423
 21
0.496133
 31
0.0
  0
LINE
  5
A21
330
1F
100
AcDbEntity
  8
1
  6
CONTINUOUS
370
50
 62
4
100
AcDbLine
 10
58.316948
 20
0.489161
 30
0.0
 11
58.355961
 21
0.495617
 31
0.0
  0
LINE
  5
A22
330
1F
100
AcDbEntity
  8
1
  6
CONTINUOUS
370
50
 62
4
100
AcDbLine
 10
57.200275
 20
-0.491746
 30
0.0
 11
57.206669
 21
-0.490672
 31
0.0
  0
LINE
  5
A23
330
1F
100
AcDbEntity
  8
1
  6
CONTINUOUS
370
50
 62
4
100
AcDbLine
 10
57.5
 20
0.359653
 30
0.0
 11
57.56633
 21
0.371365
 31
0.0
  0
LINE
  5
A24
330
1F
100
AcDbEntity
  8
1
  6
CONTINUOUS
370
50
 62
4
100
AcDbLine
 10
57.194309
 20
-0.492823
 30
0.0
 11
57.200275
 21
-0.491746
 31
0.0
  0
LINE
  5
A25
330
1F
100
AcDbEntity
  8
1
  6
CONTINUOUS
370
50
 62
4
100
AcDbLine
 10
57.289787
 20
0.133342
 30
0.0
 11
57.298828
 21
0.135031
 31
0.0
  0
LINE
  5
A26
330
1F
100
AcDbEntity
  8
1
  6
CONTINUOUS
370
50
 62
4
100
AcDbLine
 10
57.188835
 20
-0.493888
 30
0.0
 11
57.194309
 21
-0.492823
 31
0.0
  0
LINE
  5
A27
330
1F
100
AcDbEntity
  8
1
  6
CONTINUOUS
370
50
 62
4
100
AcDbLine
 10
59.038132
 20
0.353876
 30
0.0
 11
59.10453399999999
 21
0.366933
 31
0.0
  0
LINE
  5
A28
330
1F
100
AcDbEntity
  8
1
  6
CONTINUOUS
370
50
 62
4
100
AcDbLine
 10
58.596653
 20
-0.493698
 30
0.0
 11
58.641087
 21
-0.484753
 31
0.0
  0
LINE
  5
A29
330
1F
100
AcDbEntity
  8
1
  6
CONTINUOUS
370
50
 62
4
100
AcDbLine
 10
58.255329
 20
0.355951
 30
0.0
 11
58.319881
 21
0.369066
 31
0.0
  0
LINE
  5
A2A
330
1F
100
AcDbEntity
  8
1
  6
CONTINUOUS
370
50
 62
4
100
AcDbLine
 10
57.18391399999999
 20
-0.494924
 30
0.0
 11
57.188835
 21
-0.493888
 31
0.0
  0
LINE
  5
A2B
330
1F
100
AcDbEntity
  8
1
  6
CONTINUOUS
370
50
 62
4
100
AcDbLine
 10
57.19249
 20
-0.498163
 30
0.0
 11
57.200294
 21
-0.496508
 31
0.0
  0
LINE
  5
A2C
330
1F
100
AcDbEntity
  8
1
  6
CONTINUOUS
370
50
 62
4
100
AcDbLine
 10
57.81361
 20
-0.49102
 30
0.0
 11
57.85746
 21
-0.481556
 31
0.0
  0
LINE
  5
A2D
330
1F
100
AcDbEntity
  8
1
  6
CONTINUOUS
370
50
 62
4
100
AcDbLine
 10
57.53067799999999
 20
0.485544
 30
0.0
 11
57.55904
 21
0.491797
 31
0.0
  0
LINE
  5
A2E
330
1F
100
AcDbEntity
  8
1
  6
CONTINUOUS
370
50
 62
4
100
AcDbLine
 10
59.377579
 20
-0.492299
 30
0.0
 11
59.41809499999999
 21
-0.483307
 31
0.0
  0
LINE
  5
A2F
330
1F
100
AcDbEntity
  8
1
  6
CONTINUOUS
370
50
 62
4
100
AcDbLine
 10
57.280838
 20
0.131317
 30
0.0
 11
57.289787
 21
0.133342
 31
0.0
  0
LINE
  5
A30
330
1F
100
AcDbEntity
  8
1
  6
CONTINUOUS
370
50
 62
4
100
AcDbLine
 10
57.179619
 20
-0.495913
 30
0.0
 11
57.18391399999999
 21
-0.494924
 31
0.0
  0
LINE
  5
A31
330
1F
100
AcDbEntity
  8
1
  6
CONTINUOUS
370
50
 62
4
100
AcDbLine
 10
58.278515
 20
0.479669
 30
0.0
 11
58.316948
 21
0.489161
 31
0.0
  0
LINE
  5
A32
330
1F
100
AcDbEntity
  8
1
  6
CONTINUOUS
370
50
 62
4
100
AcDbLine
 10
59.052155
 20
0.473557
 30
0.0
 11
59.115906
 21
0.489316
 31
0.0
  0
LINE
  5
A33
330
1F
100
AcDbEntity
  8
1
  6
CONTINUOUS
370
50
 62
4
100
AcDbLine
 10
59.863777
 20
0.481928
 30
0.0
 11
59.903461
 21
0.491833
 31
0.0
  0
LINE
  5
A34
330
1F
100
AcDbEntity
  8
1
  6
CONTINUOUS
370
50
 62
4
100
AcDbLine
 10
57.176018
 20
-0.496838
 30
0.0
 11
57.179619
 21
-0.495913
 31
0.0
  0
LINE
  5
A35
330
1F
100
AcDbEntity
  8
1
  6
CONTINUOUS
370
50
 62
4
100
AcDbLine
 10
57.27196499999999
 20
0.128944
 30
0.0
 11
57.280838
 21
0.131317
 31
0.0
  0
LINE
  5
A36
330
1F
100
AcDbEntity
  8
1
  6
CONTINUOUS
370
50
 62
4
100
AcDbLine
 10
47.299999
 20
-2.99995
 30
0.0
 11
56.599998
 21
-0.49995
 31
0.0
  0
LINE
  5
A37
330
1F
100
AcDbEntity
  8
1
  6
CONTINUOUS
370
50
 62
4
100
AcDbLine
 10
57.5
 20
0.477173
 30
0.0
 11
57.53067799999999
 21
0.485544
 31
0.0
  0
LINE
  5
A38
330
1F
100
AcDbEntity
  8
1
  6
CONTINUOUS
370
50
 62
4
100
AcDbLine
 10
59.823986
 20
0.352654
 30
0.0
 11
59.834961
 21
0.35569
 31
0.0
  0
LINE
  5
A39
330
1F
100
AcDbEntity
  8
1
  6
CONTINUOUS
370
50
 62
4
100
AcDbLine
 10
58.971722
 20
0.335333
 30
0.0
 11
59.038132
 21
0.353876
 31
0.0
  0
LINE
  5
A3A
330
1F
100
AcDbEntity
  8
1
  6
CONTINUOUS
370
50
 62
4
100
AcDbLine
 10
57.85746
 20
-0.481556
 30
0.0
 11
57.89843399999999
 21
-0.469918
 31
0.0
  0
LINE
  5
A3B
330
1F
100
AcDbEntity
  8
1
  6
CONTINUOUS
370
50
 62
4
100
AcDbLine
 10
57.200294
 20
-0.496508
 30
0.0
 11
57.20799599999999
 21
-0.494312
 31
0.0
  0
LINE
  5
A3C
330
1F
100
AcDbEntity
  8
1
  6
CONTINUOUS
370
50
 62
4
100
AcDbLine
 10
59.813011
 20
0.349457
 30
0.0
 11
59.823986
 21
0.352654
 31
0.0
  0
LINE
  5
A3D
330
1F
100
AcDbEntity
  8
1
  6
CONTINUOUS
370
50
 62
4
100
AcDbLine
 10
59.41809499999999
 20
-0.483307
 30
0.0
 11
59.45898099999999
 21
-0.471375
 31
0.0
  0
LINE
  5
A3E
330
1F
100
AcDbEntity
  8
1
  6
CONTINUOUS
370
50
 62
4
100
AcDbLine
 10
57.173206
 20
-0.497668
 30
0.0
 11
57.176018
 21
-0.496838
 31
0.0
  0
LINE
  5
A3F
330
1F
100
AcDbEntity
  8
1
  6
CONTINUOUS
370
50
 62
4
100
AcDbLine
 10
58.641087
 20
-0.484753
 30
0.0
 11
58.681999
 21
-0.472504
 31
0.0
  0
LINE
  5
A40
330
1F
100
AcDbEntity
  8
1
  6
CONTINUOUS
370
50
 62
4
100
AcDbLine
 10
59.80203599999999
 20
0.346105
 30
0.0
 11
59.813011
 21
0.349457
 31
0.0
  0
LINE
  5
A41
330
1F
100
AcDbEntity
  8
1
  6
CONTINUOUS
370
50
 62
4
100
AcDbLine
 10
57.263184
 20
0.126212
 30
0.0
 11
57.27196499999999
 21
0.128944
 31
0.0
  0
LINE
  5
A42
330
1F
100
AcDbEntity
  8
1
  6
CONTINUOUS
370
50
 62
4
100
AcDbLine
 10
59.791061
 20
0.342607
 30
0.0
 11
59.80203599999999
 21
0.346105
 31
0.0
  0
LINE
  5
A43
330
1F
100
AcDbEntity
  8
1
  6
CONTINUOUS
370
50
 62
4
100
AcDbLine
 10
58.190788
 20
0.335106
 30
0.0
 11
58.255329
 21
0.355951
 31
0.0
  0
LINE
  5
A44
330
1F
100
AcDbEntity
  8
1
  6
CONTINUOUS
370
50
 62
4
100
AcDbLine
 10
59.78008699999999
 20
0.338969
 30
0.0
 11
59.791061
 21
0.342607
 31
0.0
  0
LINE
  5
A45
330
1F
100
AcDbEntity
  8
1
  6
CONTINUOUS
370
50
 62
4
100
AcDbLine
 10
58.240742
 20
0.467035
 30
0.0
 11
58.278515
 21
0.479669
 31
0.0
  0
LINE
  5
A46
330
1F
100
AcDbEntity
  8
1
  6
CONTINUOUS
370
50
 62
4
100
AcDbLine
 10
59.824684
 20
0.46856
 30
0.0
 11
59.863777
 21
0.481928
 31
0.0
  0
LINE
  5
A47
330
1F
100
AcDbEntity
  8
1
  6
CONTINUOUS
370
50
 62
4
100
AcDbLine
 10
59.769112
 20
0.335198
 30
0.0
 11
59.78008699999999
 21
0.338969
 31
0.0
  0
LINE
  5
A48
330
1F
100
AcDbEntity
  8
1
  6
CONTINUOUS
370
50
 62
4
100
AcDbLine
 10
57.89843399999999
 20
-0.469918
 30
0.0
 11
57.937828
 21
-0.456202
 31
0.0
  0
LINE
  5
A49
330
1F
100
AcDbEntity
  8
1
  6
CONTINUOUS
370
50
 62
4
100
AcDbLine
 10
58.98648799999999
 20
0.450532
 30
0.0
 11
59.052155
 21
0.473557
 31
0.0
  0
LINE
  5
A4A
330
1F
100
AcDbEntity
  8
1
  6
CONTINUOUS
370
50
 62
4
100
AcDbLine
 10
59.45898099999999
 20
-0.471375
 30
0.0
 11
59.499908
 21
-0.456781
 31
0.0
  0
LINE
  5
A4B
330
1F
100
AcDbEntity
  8
1
  6
CONTINUOUS
370
50
 62
4
100
AcDbLine
 10
57.254528
 20
0.123114
 30
0.0
 11
57.263184
 21
0.126212
 31
0.0
  0
LINE
  5
A4C
330
1F
100
AcDbEntity
  8
1
  6
CONTINUOUS
370
50
 62
4
100
AcDbLine
 10
59.824047
 20
0.399592
 30
0.0
 11
59.827274
 21
0.40075
 31
0.0
  0
LINE
  5
A4D
330
1F
100
AcDbEntity
  8
1
  6
CONTINUOUS
370
50
 62
4
100
AcDbLine
 10
57.20799599999999
 20
-0.494312
 30
0.0
 11
57.215614
 21
-0.491573
 31
0.0
  0
LINE
  5
A4E
330
1F
100
AcDbEntity
  8
1
  6
CONTINUOUS
370
50
 62
4
100
AcDbLine
 10
57.171234
 20
-0.498385
 30
0.0
 11
57.173206
 21
-0.497668
 31
0.0
  0
LINE
  5
A4F
330
1F
100
AcDbEntity
  8
1
  6
CONTINUOUS
370
50
 62
4
100
AcDbLine
 10
59.827274
 20
0.40075
 30
0.0
 11
59.83049399999999
 21
0.401939
 31
0.0
  0
LINE
  5
A50
330
1F
100
AcDbEntity
  8
1
  6
CONTINUOUS
370
50
 62
4
100
AcDbLine
 10
59.83049399999999
 20
0.401939
 30
0.0
 11
59.83371
 21
0.403165
 31
0.0
  0
LINE
  5
A51
330
1F
100
AcDbEntity
  8
1
  6
CONTINUOUS
370
50
 62
4
100
AcDbLine
 10
59.83371
 20
0.403165
 30
0.0
 11
59.83692199999999
 21
0.404432
 31
0.0
  0
LINE
  5
A52
330
1F
100
AcDbEntity
  8
1
  6
CONTINUOUS
370
50
 62
4
100
AcDbLine
 10
58.681999
 20
-0.472504
 30
0.0
 11
58.72020699999999
 21
-0.457372
 31
0.0
  0
LINE
  5
A53
330
1F
100
AcDbEntity
  8
1
  6
CONTINUOUS
370
50
 62
4
100
AcDbLine
 10
59.83692199999999
 20
0.404432
 30
0.0
 11
59.84012999999999
 21
0.405742
 31
0.0
  0
LINE
  5
A54
330
1F
100
AcDbEntity
  8
1
  6
CONTINUOUS
370
50
 62
4
100
AcDbLine
 10
57.24604
 20
0.119644
 30
0.0
 11
57.254528
 21
0.123114
 31
0.0
  0
LINE
  5
A55
330
1F
100
AcDbEntity
  8
1
  6
CONTINUOUS
370
50
 62
4
100
AcDbLine
 10
59.784718
 20
0.452045
 30
0.0
 11
59.824684
 21
0.46856
 31
0.0
  0
LINE
  5
A56
330
1F
100
AcDbEntity
  8
1
  6
CONTINUOUS
370
50
 62
4
100
AcDbLine
 10
57.937828
 20
-0.456202
 30
0.0
 11
57.9772
 21
-0.439911
 31
0.0
  0
LINE
  5
A57
330
1F
100
AcDbEntity
  8
1
  6
CONTINUOUS
370
50
 62
4
100
AcDbLine
 10
59.499908
 20
-0.456781
 30
0.0
 11
59.540569
 21
-0.439805
 31
0.0
  0
LINE
  5
A58
330
1F
100
AcDbEntity
  8
1
  6
CONTINUOUS
370
50
 62
4
100
AcDbLine
 10
59.84012999999999
 20
0.405742
 30
0.0
 11
59.84332999999999
 21
0.407097
 31
0.0
  0
LINE
  5
A59
330
1F
100
AcDbEntity
  8
1
  6
CONTINUOUS
370
50
 62
4
100
AcDbLine
 10
58.203709
 20
0.451147
 30
0.0
 11
58.240742
 21
0.467035
 31
0.0
  0
LINE
  5
A5A
330
1F
100
AcDbEntity
  8
1
  6
CONTINUOUS
370
50
 62
4
100
AcDbLine
 10
57.215614
 20
-0.491573
 30
0.0
 11
57.223171
 21
-0.488288
 31
0.0
  0
LINE
  5
A5B
330
1F
100
AcDbEntity
  8
1
  6
CONTINUOUS
370
50
 62
4
100
AcDbLine
 10
59.84332999999999
 20
0.407097
 30
0.0
 11
59.846512
 21
0.408498
 31
0.0
  0
LINE
  5
A5C
330
1F
100
AcDbEntity
  8
1
  6
CONTINUOUS
370
50
 62
4
100
AcDbLine
 10
59.540565
 20
-0.43967
 30
0.0
 11
59.551376
 21
-0.434844
 31
0.0
  0
LINE
  5
A5D
330
1F
100
AcDbEntity
  8
1
  6
CONTINUOUS
370
50
 62
4
100
AcDbLine
 10
59.551376
 20
-0.434844
 30
0.0
 11
59.564514
 21
-0.428975
 31
0.0
  0
LINE
  5
A5E
330
1F
100
AcDbEntity
  8
1
  6
CONTINUOUS
370
50
 62
4
100
AcDbLine
 10
59.564514
 20
-0.428975
 30
0.0
 11
59.589634
 21
-0.417736
 31
0.0
  0
LINE
  5
A5F
330
1F
100
AcDbEntity
  8
1
  6
CONTINUOUS
370
50
 62
4
100
AcDbLine
 10
59.589634
 20
-0.417736
 30
0.0
 11
59.61240799999999
 21
-0.407516
 31
0.0
  0
LINE
  5
A60
330
1F
100
AcDbEntity
  8
1
  6
CONTINUOUS
370
50
 62
4
100
AcDbLine
 10
59.61240799999999
 20
-0.407516
 30
0.0
 11
59.63515899999999
 21
-0.397258
 31
0.0
  0
LINE
  5
A61
330
1F
100
AcDbEntity
  8
1
  6
CONTINUOUS
370
50
 62
4
100
AcDbLine
 10
57.9772
 20
-0.439921
 30
0.0
 11
58.004654
 21
-0.427492
 31
0.0
  0
LINE
  5
A62
330
1F
100
AcDbEntity
  8
1
  6
CONTINUOUS
370
50
 62
4
100
AcDbLine
 10
59.63515899999999
 20
-0.397258
 30
0.0
 11
59.659588
 21
-0.386175
 31
0.0
  0
LINE
  5
A63
330
1F
100
AcDbEntity
  8
1
  6
CONTINUOUS
370
50
 62
4
100
AcDbLine
 10
59.846512
 20
0.408498
 30
0.0
 11
59.849705
 21
0.40996
 31
0.0
  0
LINE
  5
A64
330
1F
100
AcDbEntity
  8
1
  6
CONTINUOUS
370
50
 62
4
100
AcDbLine
 10
58.004654
 20
-0.427492
 30
0.0
 11
58.023483
 21
-0.418821
 31
0.0
  0
LINE
  5
A65
330
1F
100
AcDbEntity
  8
1
  6
CONTINUOUS
370
50
 62
4
100
AcDbLine
 10
58.921555
 20
0.420587
 30
0.0
 11
58.98648799999999
 21
0.450532
 31
0.0
  0
LINE
  5
A66
330
1F
100
AcDbEntity
  8
1
  6
CONTINUOUS
370
50
 62
4
100
AcDbLine
 10
57.237751
 20
0.115793
 30
0.0
 11
57.24604
 21
0.119644
 31
0.0
  0
LINE
  5
A67
330
1F
100
AcDbEntity
  8
1
  6
CONTINUOUS
370
50
 62
4
100
AcDbLine
 10
58.023483
 20
-0.418821
 30
0.0
 11
58.040112
 21
-0.411041
 31
0.0
  0
LINE
  5
A68
330
1F
100
AcDbEntity
  8
1
  6
CONTINUOUS
370
50
 62
4
100
AcDbLine
 10
59.743652
 20
0.432656
 30
0.0
 11
59.784718
 21
0.452045
 31
0.0
  0
LINE
  5
A69
330
1F
100
AcDbEntity
  8
1
  6
CONTINUOUS
370
50
 62
4
100
AcDbLine
 10
58.040112
 20
-0.411041
 30
0.0
 11
58.056587
 21
-0.403219
 31
0.0
  0
LINE
  5
A6A
330
1F
100
AcDbEntity
  8
1
  6
CONTINUOUS
370
50
 62
4
100
AcDbLine
 10
58.056587
 20
-0.403219
 30
0.0
 11
58.073498
 21
-0.39507
 31
0.0
  0
LINE
  5
A6B
330
1F
100
AcDbEntity
  8
1
  6
CONTINUOUS
370
50
 62
4
100
AcDbLine
 10
58.72020699999999
 20
-0.457372
 30
0.0
 11
58.756512
 21
-0.439778
 31
0.0
  0
LINE
  5
A6C
330
1F
100
AcDbEntity
  8
1
  6
CONTINUOUS
370
50
 62
4
100
AcDbLine
 10
59.849705
 20
0.40996
 30
0.0
 11
59.85413399999999
 21
0.412115
 31
0.0
  0
LINE
  5
A6D
330
1F
100
AcDbEntity
  8
1
  6
CONTINUOUS
370
50
 62
4
100
AcDbLine
 10
58.073498
 20
-0.39507
 30
0.0
 11
58.09126699999999
 21
-0.386373
 31
0.0
  0
LINE
  5
A6E
330
1F
100
AcDbEntity
  8
1
  6
CONTINUOUS
370
50
 62
4
100
AcDbLine
 10
58.839653
 20
-0.396866
 30
0.0
 11
58.862038
 21
-0.385828
 31
0.0
  0
LINE
  5
A6F
330
1F
100
AcDbEntity
  8
1
  6
CONTINUOUS
370
50
 62
4
100
AcDbLine
 10
58.829884
 20
-0.40175
 30
0.0
 11
58.839653
 21
-0.396866
 31
0.0
  0
LINE
  5
A70
330
1F
100
AcDbEntity
  8
1
  6
CONTINUOUS
370
50
 62
4
100
AcDbLine
 10
58.82214699999999
 20
-0.40566
 30
0.0
 11
58.829884
 21
-0.40175
 31
0.0
  0
LINE
  5
A71
330
1F
100
AcDbEntity
  8
1
  6
CONTINUOUS
370
50
 62
4
100
AcDbLine
 10
58.800602
 20
-0.416714
 30
0.0
 11
58.82214699999999
 21
-0.40566
 31
0.0
  0
LINE
  5
A72
330
1F
100
AcDbEntity
  8
1
  6
CONTINUOUS
370
50
 62
4
100
AcDbLine
 10
58.167088
 20
0.432063
 30
0.0
 11
58.203709
 21
0.451147
 31
0.0
  0
LINE
  5
A73
330
1F
100
AcDbEntity
  8
1
  6
CONTINUOUS
370
50
 62
4
100
AcDbLine
 10
58.77778199999999
 20
-0.428623
 30
0.0
 11
58.800602
 21
-0.416714
 31
0.0
  0
LINE
  5
A74
330
1F
100
AcDbEntity
  8
1
  6
CONTINUOUS
370
50
 62
4
100
AcDbLine
 10
57.229679
 20
0.11155
 30
0.0
 11
57.237751
 21
0.115793
 31
0.0
  0
LINE
  5
A75
330
1F
100
AcDbEntity
  8
1
  6
CONTINUOUS
370
50
 62
4
100
AcDbLine
 10
59.701851
 20
0.410624
 30
0.0
 11
59.743652
 21
0.432656
 31
0.0
  0
LINE
  5
A76
330
1F
100
AcDbEntity
  8
1
  6
CONTINUOUS
370
50
 62
4
100
AcDbLine
 10
57.170116
 20
-0.498979
 30
0.0
 11
57.171234
 21
-0.498385
 31
0.0
  0
LINE
  5
A77
330
1F
100
AcDbEntity
  8
1
  6
CONTINUOUS
370
50
 62
4
100
AcDbLine
 10
58.756516
 20
-0.439931
 30
0.0
 11
58.77778199999999
 21
-0.428623
 31
0.0
  0
LINE
  5
A78
330
1F
100
AcDbEntity
  8
1
  6
CONTINUOUS
370
50
 62
4
100
AcDbLine
 10
59.85413399999999
 20
0.412115
 30
0.0
 11
59.860394
 21
0.415459
 31
0.0
  0
LINE
  5
A79
330
1F
100
AcDbEntity
  8
1
  6
CONTINUOUS
370
50
 62
4
100
AcDbLine
 10
58.129589
 20
0.410379
 30
0.0
 11
58.167088
 21
0.432063
 31
0.0
  0
LINE
  5
A7A
330
1F
100
AcDbEntity
  8
1
  6
CONTINUOUS
370
50
 62
4
100
AcDbLine
 10
59.659588
 20
0.386177
 30
0.0
 11
59.701851
 21
0.410624
 31
0.0
  0
LINE
  5
A7B
330
1F
100
AcDbEntity
  8
1
  6
CONTINUOUS
370
50
 62
4
100
AcDbLine
 10
58.862041
 20
0.385823
 30
0.0
 11
58.921555
 21
0.420587
 31
0.0
  0
LINE
  5
A7C
330
1F
100
AcDbEntity
  8
1
  6
CONTINUOUS
370
50
 62
4
100
AcDbLine
 10
59.860394
 20
0.415459
 30
0.0
 11
59.868416
 21
0.420203
 31
0.0
  0
LINE
  5
A7D
330
1F
100
AcDbEntity
  8
1
  6
CONTINUOUS
370
50
 62
4
100
AcDbLine
 10
57.221832
 20
0.106876
 30
0.0
 11
57.229679
 21
0.11155
 31
0.0
  0
LINE
  5
A7E
330
1F
100
AcDbEntity
  8
1
  6
CONTINUOUS
370
50
 62
4
100
AcDbLine
 10
58.091263
 20
0.386379
 30
0.0
 11
58.129589
 21
0.410379
 31
0.0
  0
LINE
  5
A7F
330
1F
100
AcDbEntity
  8
1
  6
CONTINUOUS
370
50
 62
4
100
AcDbLine
 10
59.868416
 20
0.420203
 30
0.0
 11
59.878128
 21
0.426562
 31
0.0
  0
LINE
  5
A80
330
1F
100
AcDbEntity
  8
1
  6
CONTINUOUS
370
50
 62
4
100
AcDbLine
 10
57.214268
 20
0.101761
 30
0.0
 11
57.221832
 21
0.106876
 31
0.0
  0
LINE
  5
A81
330
1F
100
AcDbEntity
  8
1
  6
CONTINUOUS
370
50
 62
4
100
AcDbLine
 10
59.940453
 20
-0.06851
 30
0.0
 11
59.951721
 21
-0.060729
 31
0.0
  0
LINE
  5
A82
330
1F
100
AcDbEntity
  8
1
  6
CONTINUOUS
370
50
 62
4
100
AcDbLine
 10
59.878128
 20
0.426562
 30
0.0
 11
59.889458
 21
0.434746
 31
0.0
  0
LINE
  5
A83
330
1F
100
AcDbEntity
  8
1
  6
CONTINUOUS
370
50
 62
4
100
AcDbLine
 10
57.20705
 20
0.096196
 30
0.0
 11
57.214268
 21
0.101761
 31
0.0
  0
LINE
  5
A84
330
1F
100
AcDbEntity
  8
1
  6
CONTINUOUS
370
50
 62
4
100
AcDbLine
 10
59.889458
 20
0.434746
 30
0.0
 11
59.901279
 21
0.444152
 31
0.0
  0
LINE
  5
A85
330
1F
100
AcDbEntity
  8
1
  6
CONTINUOUS
370
50
 62
4
100
AcDbLine
 10
59.93802299999999
 20
-0.051875
 30
0.0
 11
59.939507
 21
-0.050607
 31
0.0
  0
LINE
  5
A86
330
1F
100
AcDbEntity
  8
1
  6
CONTINUOUS
370
50
 62
4
100
AcDbLine
 10
59.94371
 20
-0.047007
 30
0.0
 11
59.945038
 21
-0.045872
 31
0.0
  0
LINE
  5
A87
330
1F
100
AcDbEntity
  8
1
  6
CONTINUOUS
370
50
 62
4
100
AcDbLine
 10
59.940945
 20
-0.049374
 30
0.0
 11
59.942348
 21
-0.048174
 31
0.0
  0
LINE
  5
A88
330
1F
100
AcDbEntity
  8
1
  6
CONTINUOUS
370
50
 62
4
100
AcDbLine
 10
59.936501
 20
-0.053177
 30
0.0
 11
59.93802299999999
 21
-0.051875
 31
0.0
  0
LINE
  5
A89
330
1F
100
AcDbEntity
  8
1
  6
CONTINUOUS
370
50
 62
4
100
AcDbLine
 10
59.942348
 20
-0.048174
 30
0.0
 11
59.94371
 21
-0.047007
 31
0.0
  0
LINE
  5
A8A
330
1F
100
AcDbEntity
  8
1
  6
CONTINUOUS
370
50
 62
4
100
AcDbLine
 10
59.939507
 20
-0.050607
 30
0.0
 11
59.940945
 21
-0.049374
 31
0.0
  0
LINE
  5
A8B
330
1F
100
AcDbEntity
  8
1
  6
CONTINUOUS
370
50
 62
4
100
AcDbLine
 10
57.200245
 20
0.090175
 30
0.0
 11
57.20705
 21
0.096196
 31
0.0
  0
LINE
  5
A8C
330
1F
100
AcDbEntity
  8
1
  6
CONTINUOUS
370
50
 62
4
100
AcDbLine
 10
59.901279
 20
0.444152
 30
0.0
 11
59.912052
 21
0.453787
 31
0.0
  0
LINE
  5
A8D
330
1F
100
AcDbEntity
  8
1
  6
CONTINUOUS
370
50
 62
4
100
AcDbLine
 10
57.19392
 20
0.083689
 30
0.0
 11
57.200245
 21
0.090175
 31
0.0
  0
LINE
  5
A8E
330
1F
100
AcDbEntity
  8
1
  6
CONTINUOUS
370
50
 62
4
100
AcDbLine
 10
59.912052
 20
0.453787
 30
0.0
 11
59.921806
 21
0.463847
 31
0.0
  0
LINE
  5
A8F
330
1F
100
AcDbEntity
  8
1
  6
CONTINUOUS
370
50
 62
4
100
AcDbLine
 10
59.804581
 20
0.002463
 30
0.0
 11
59.808666
 21
0.006979
 31
0.0
  0
LINE
  5
A90
330
1F
100
AcDbEntity
  8
1
  6
CONTINUOUS
370
50
 62
4
100
AcDbLine
 10
57.169857
 20
-0.499283
 30
0.0
 11
57.170116
 21
-0.498979
 31
0.0
  0
LINE
  5
A91
330
1F
100
AcDbEntity
  8
1
  6
CONTINUOUS
370
50
 62
4
100
AcDbLine
 10
59.808666
 20
0.006979
 30
0.0
 11
59.812569
 21
0.011654
 31
0.0
  0
LINE
  5
A92
330
1F
100
AcDbEntity
  8
1
  6
CONTINUOUS
370
50
 62
4
100
AcDbLine
 10
57.188156
 20
0.076739
 30
0.0
 11
57.19392
 21
0.083689
 31
0.0
  0
LINE
  5
A93
330
1F
100
AcDbEntity
  8
1
  6
CONTINUOUS
370
50
 62
4
100
AcDbLine
 10
59.921806
 20
0.463847
 30
0.0
 11
59.93056499999999
 21
0.474504
 31
0.0
  0
LINE
  5
A94
330
1F
100
AcDbEntity
  8
1
  6
CONTINUOUS
370
50
 62
4
100
AcDbLine
 10
59.812569
 20
0.011654
 30
0.0
 11
59.81628
 21
0.016478
 31
0.0
  0
LINE
  5
A95
330
1F
100
AcDbEntity
  8
1
  6
CONTINUOUS
370
50
 62
4
100
AcDbLine
 10
59.81628
 20
0.016478
 30
0.0
 11
59.819782
 21
0.021438
 31
0.0
  0
LINE
  5
A96
330
1F
100
AcDbEntity
  8
1
  6
CONTINUOUS
370
50
 62
4
100
AcDbLine
 10
57.18303299999999
 20
0.069331
 30
0.0
 11
57.188156
 21
0.076739
 31
0.0
  0
LINE
  5
A97
330
1F
100
AcDbEntity
  8
1
  6
CONTINUOUS
370
50
 62
4
100
AcDbLine
 10
59.93056499999999
 20
0.474504
 30
0.0
 11
59.938278
 21
0.485802
 31
0.0
  0
LINE
  5
A98
330
1F
100
AcDbEntity
  8
1
  6
CONTINUOUS
370
50
 62
4
100
AcDbLine
 10
59.819782
 20
0.021438
 30
0.0
 11
59.823029
 21
0.026454
 31
0.0
  0
LINE
  5
A99
330
1F
100
AcDbEntity
  8
1
  6
CONTINUOUS
370
50
 62
4
100
AcDbLine
 10
59.823029
 20
0.026454
 30
0.0
 11
59.826
 21
0.031491
 31
0.0
  0
LINE
  5
A9A
330
1F
100
AcDbEntity
  8
1
  6
CONTINUOUS
370
50
 62
4
100
AcDbLine
 10
57.178627
 20
0.061467
 30
0.0
 11
57.18303299999999
 21
0.069331
 31
0.0
  0
LINE
  5
A9B
330
1F
100
AcDbEntity
  8
1
  6
CONTINUOUS
370
50
 62
4
100
AcDbLine
 10
59.938278
 20
0.485802
 30
0.0
 11
59.945038
 21
0.49789
 31
0.0
  0
LINE
  5
A9C
330
1F
100
AcDbEntity
  8
1
  6
CONTINUOUS
370
50
 62
4
100
AcDbLine
 10
59.826
 20
0.031491
 30
0.0
 11
59.828701
 21
0.036538
 31
0.0
  0
LINE
  5
A9D
330
1F
100
AcDbEntity
  8
1
  6
CONTINUOUS
370
50
 62
4
100
AcDbLine
 10
59.828701
 20
0.036538
 30
0.0
 11
59.831139
 21
0.041583
 31
0.0
  0
LINE
  5
A9E
330
1F
100
AcDbEntity
  8
1
  6
CONTINUOUS
370
50
 62
4
100
AcDbLine
 10
57.17503
 20
0.053172
 30
0.0
 11
57.178627
 21
0.061467
 31
0.0
  0
LINE
  5
A9F
330
1F
100
AcDbEntity
  8
1
  6
CONTINUOUS
370
50
 62
4
100
AcDbLine
 10
59.831139
 20
0.041583
 30
0.0
 11
59.83331699999999
 21
0.046615
 31
0.0
  0
LINE
  5
AA0
330
1F
100
AcDbEntity
  8
1
  6
CONTINUOUS
370
50
 62
4
100
AcDbLine
 10
59.83331699999999
 20
0.046615
 30
0.0
 11
59.835228
 21
0.051603
 31
0.0
  0
LINE
  5
AA1
330
1F
100
AcDbEntity
  8
1
  6
CONTINUOUS
370
50
 62
4
100
AcDbLine
 10
59.835228
 20
0.051603
 30
0.0
 11
59.83688
 21
0.056516
 31
0.0
  0
LINE
  5
AA2
330
1F
100
AcDbEntity
  8
1
  6
CONTINUOUS
370
50
 62
4
100
AcDbLine
 10
59.97042099999999
 20
-0.159098
 30
0.0
 11
60.0
 21
-0.068068
 31
0.0
  0
LINE
  5
AA3
330
1F
100
AcDbEntity
  8
1
  6
CONTINUOUS
370
50
 62
4
100
AcDbLine
 10
57.172356
 20
0.044603
 30
0.0
 11
57.17503
 21
0.053172
 31
0.0
  0
LINE
  5
AA4
330
1F
100
AcDbEntity
  8
1
  6
CONTINUOUS
370
50
 62
4
100
AcDbLine
 10
59.83688
 20
0.056516
 30
0.0
 11
59.838276
 21
0.061345
 31
0.0
  0
LINE
  5
AA5
330
1F
100
AcDbEntity
  8
1
  6
CONTINUOUS
370
50
 62
4
100
AcDbLine
 10
59.838276
 20
0.061345
 30
0.0
 11
59.839432
 21
0.066084
 31
0.0
  0
LINE
  5
AA6
330
1F
100
AcDbEntity
  8
1
  6
CONTINUOUS
370
50
 62
4
100
AcDbLine
 10
59.839432
 20
0.066084
 30
0.0
 11
59.840359
 21
0.070724
 31
0.0
  0
LINE
  5
AA7
330
1F
100
AcDbEntity
  8
1
  6
CONTINUOUS
370
50
 62
4
100
AcDbLine
 10
57.170631
 20
0.035809
 30
0.0
 11
57.172356
 21
0.044603
 31
0.0
  0
LINE
  5
AA8
330
1F
100
AcDbEntity
  8
1
  6
CONTINUOUS
370
50
 62
4
100
AcDbLine
 10
59.840359
 20
0.070724
 30
0.0
 11
59.841064
 21
0.075259
 31
0.0
  0
LINE
  5
AA9
330
1F
100
AcDbEntity
  8
1
  6
CONTINUOUS
370
50
 62
4
100
AcDbLine
 10
59.841064
 20
0.075259
 30
0.0
 11
59.84155999999999
 21
0.07968
 31
0.0
  0
LINE
  5
AAA
330
1F
100
AcDbEntity
  8
1
  6
CONTINUOUS
370
50
 62
4
100
AcDbLine
 10
57.16988
 20
0.026812
 30
0.0
 11
57.170631
 21
0.035809
 31
0.0
  0
LINE
  5
AAB
330
1F
100
AcDbEntity
  8
1
  6
CONTINUOUS
370
50
 62
4
100
AcDbLine
 10
59.84155999999999
 20
0.07968
 30
0.0
 11
59.84185799999999
 21
0.083998
 31
0.0
  0
LINE
  5
AAC
330
1F
100
AcDbEntity
  8
1
  6
CONTINUOUS
370
50
 62
4
100
AcDbLine
 10
59.940586
 20
-0.14536
 30
0.0
 11
59.941906
 21
-0.122161
 31
0.0
  0
LINE
  5
AAD
330
1F
100
AcDbEntity
  8
1
  6
CONTINUOUS
370
50
 62
4
100
AcDbLine
 10
59.841702
 20
0.300062
 30
0.0
 11
59.841946
 21
0.30542
 31
0.0
  0
LINE
  5
AAE
330
1F
100
AcDbEntity
  8
1
  6
CONTINUOUS
370
50
 62
4
100
AcDbLine
 10
59.93976199999999
 20
-0.168697
 30
0.0
 11
59.940586
 21
-0.14536
 31
0.0
  0
LINE
  5
AAF
330
1F
100
AcDbEntity
  8
1
  6
CONTINUOUS
370
50
 62
4
100
AcDbLine
 10
59.941883
 20
-0.122017
 30
0.0
 11
59.94203899999999
 21
-0.117131
 31
0.0
  0
LINE
  5
AB0
330
1F
100
AcDbEntity
  8
1
  6
CONTINUOUS
370
50
 62
4
100
AcDbLine
 10
59.84185799999999
 20
0.083998
 30
0.0
 11
59.841969
 21
0.088253
 31
0.0
  0
LINE
  5
AB1
330
1F
100
AcDbEntity
  8
1
  6
CONTINUOUS
370
50
 62
4
100
AcDbLine
 10
59.94203899999999
 20
-0.117131
 30
0.0
 11
59.942131
 21
-0.112232
 31
0.0
  0
LINE
  5
AB2
330
1F
100
AcDbEntity
  8
1
  6
CONTINUOUS
370
50
 62
4
100
AcDbLine
 10
59.939445
 20
-0.192114
 30
0.0
 11
59.93976199999999
 21
-0.168697
 31
0.0
  0
LINE
  5
AB3
330
1F
100
AcDbEntity
  8
1
  6
CONTINUOUS
370
50
 62
4
100
AcDbLine
 10
59.942131
 20
-0.112232
 30
0.0
 11
59.942162
 21
-0.107325
 31
0.0
  0
LINE
  5
AB4
330
1F
100
AcDbEntity
  8
1
  6
CONTINUOUS
370
50
 62
4
100
AcDbLine
 10
47.299999
 20
-2.99995
 30
0.0
 11
47.299999
 21
2.99995
 31
0.0
  0
LINE
  5
AB5
330
1F
100
AcDbEntity
  8
1
  6
CONTINUOUS
370
50
 62
4
100
AcDbLine
 10
56.599998
 20
-0.49995
 30
0.0
 11
56.599998
 21
0.49995
 31
0.0
  0
LINE
  5
AB6
330
1F
100
AcDbEntity
  8
1
  6
CONTINUOUS
370
50
 62
4
100
AcDbLine
 10
57.5
 20
-0.479414
 30
0.0
 11
57.5
 21
0.479414
 31
0.0
  0
LINE
  5
AB7
330
1F
100
AcDbEntity
  8
1
  6
CONTINUOUS
370
50
 62
4
100
AcDbLine
 10
59.900002
 20
-0.034642
 30
0.0
 11
59.900002
 21
0.072322
 31
0.0
  0
LINE
  5
AB8
330
1F
100
AcDbEntity
  8
1
  6
CONTINUOUS
370
50
 62
4
100
AcDbLine
 10
60.0
 20
0.214457
 30
0.0
 11
60.0
 21
0.499999
 31
0.0
  0
LINE
  5
AB9
330
1F
100
AcDbEntity
  8
1
  6
CONTINUOUS
370
50
 62
4
100
AcDbLine
 10
60.0
 20
-0.068068
 30
0.0
 11
60.0
 21
-0.000993
 31
0.0
  0
LINE
  5
ABA
330
1F
100
AcDbEntity
  8
1
  6
CONTINUOUS
370
50
 62
4
100
AcDbLine
 10
60.0
 20
0.0
 30
0.0
 11
60.0
 21
0.068068
 31
0.0
  0
LINE
  5
ABB
330
1F
100
AcDbEntity
  8
1
  6
CONTINUOUS
370
50
 62
4
100
AcDbLine
 10
60.0
 20
-0.495345
 30
0.0
 11
60.0
 21
-0.214457
 31
0.0
  0
LINE
  5
ABC
330
1F
100
AcDbEntity
  8
1
  6
CONTINUOUS
370
50
 62
4
100
AcDbLine
 10
60.0
 20
-0.5
 30
0.0
 11
60.0
 21
-0.495345
 31
0.0
  0
LINE
  5
ABD
330
1F
100
AcDbEntity
  8
1
  6
CONTINUOUS
370
50
 62
4
100
AcDbLine
 10
60.0
 20
-0.000993
 30
0.0
 11
60.0
 21
0.0
 31
0.0
  0
ELLIPSE
  5
ABE
330
1F
100
AcDbEntity
  8
1
  6
CONTINUOUS
370
50
 62
4
100
AcDbEllipse
 10
60.0
 20
0.0
 30
0.0
 11
-0.2639039986709584
 21
0.001636214374449046
 31
0.0
210
0.0
220
0.0
230
0.9999999999999999
 40
0.8525600268016814
 41
4.717674834278484
 42
4.90718350043741
  0
ELLIPSE
  5
ABF
330
1F
100
AcDbEntity
  8
1
  6
CONTINUOUS
370
50
 62
4
100
AcDbEllipse
 10
60.0
 20
0.0
 30
0.0
 11
0.2452852016354719
 21
0.2052567590425385
 31
0.0
210
0.0
220
0.0
230
1.0
 40
0.3757541534108743
 41
1.636596436301153
 42
1.983379855646171
  0
ELLIPSE
  5
AC0
330
1F
100
AcDbEntity
  8
1
  6
CONTINUOUS
370
50
 62
4
100
AcDbEllipse
 10
60.0
 20
0.0
 30
0.0
 11
0.2639078968024045
 21
0.2250001210429269
 31
0.0
210
0.0
220
0.0
230
1.0
 40
0.0009817476840784
 41
1.573187375573164
 42
1.811702090200726
  0
ELLIPSE
  5
AC1
330
1F
100
AcDbEntity
  8
1
  6
CONTINUOUS
370
50
 62
4
100
AcDbEllipse
 10
60.0
 20
0.0
 30
0.0
 11
0.440986754192764
 21
0.214433505508192
 31
0.0
210
0.0
220
0.0
230
0.9999999999999998
 40
0.1545219880742131
 41
1.639866441801638
 42
1.723899926692437
  0
ELLIPSE
  5
AC2
330
1F
100
AcDbEntity
  8
1
  6
CONTINUOUS
370
50
 62
4
100
AcDbEllipse
 10
60.0
 20
0.0
 30
0.0
 11
-0.440986754192771
 21
0.214433505508178
 31
0.0
210
0.0
220
0.0
230
1.0
 40
0.1545219880742149
 41
1.253645229638324
 42
1.536407183017806
  0
ELLIPSE
  5
AC3
330
1F
100
AcDbEntity
  8
1
  6
CONTINUOUS
370
50
 62
4
100
AcDbEllipse
 10
60.000028
 20
-0.000023
 30
0.0
 11
-0.5864612851285005
 21
0.4999996655663178
 31
0.0
210
0.0
220
0.0
230
0.9999999999999998
 40
0.0009802648700883
 41
1.477763584955564
 42
1.571585172487535
  0
ELLIPSE
  5
AC4
330
1F
100
AcDbEntity
  8
1
  6
CONTINUOUS
370
50
 62
4
100
AcDbEllipse
 10
60.000028
 20
0.0
 30
0.0
 11
0.5864529998147923
 21
0.003636029872374717
 31
0.0
210
0.0
220
0.0
230
1.0
 40
0.8525610757301317
 41
4.613199176731738
 42
4.70506719692994
  0
ELLIPSE
  5
AC5
330
1F
100
AcDbEntity
  8
1
  6
CONTINUOUS
370
50
 62
4
100
AcDbEllipse
 10
60.000028
 20
0.0
 30
0.0
 11
-0.5864529998147923
 21
0.003636029872374779
 31
0.0
210
0.0
220
0.0
230
1.0
 40
0.8525610757301317
 41
4.717721757715199
 42
4.811578784037518
  0
ELLIPSE
  5
AC6
330
1F
100
AcDbEntity
  8
1
  6
CONTINUOUS
370
50
 62
4
100
AcDbEllipse
 10
60.000028
 20
0.000023
 30
0.0
 11
0.5864612851296408
 21
0.4999996655649782
 31
0.0
210
0.0
220
0.0
230
1.0
 40
0.0009802648700894
 41
1.571993000903436
 42
1.66382906865483
  0
ELLIPSE
  5
AC7
330
1F
100
AcDbEntity
  8
1
  6
CONTINUOUS
370
50
 62
4
100
AcDbEllipse
 10
60.02211699999999
 20
0.0
 30
0.0
 11
1.377682148050175E-17
 21
0.225
 31
0.0
210
0.0
220
0.0
230
1.0
 40
0.3249200000000012
 41
0.3073390803991755
 42
0.7853628297432743
  0
ELLIPSE
  5
AC8
330
1F
100
AcDbEntity
  8
1
  6
CONTINUOUS
370
50
 62
4
100
AcDbEllipse
 10
60.02211699999999
 20
0.0
 30
0.0
 11
1.377682148050175E-17
 21
0.225
 31
0.0
210
0.0
220
0.0
230
1.0
 40
0.3249200000000012
 41
1.844092300806413
 42
2.834253573190618
  0
ELLIPSE
  5
AC9
330
1F
100
AcDbEntity
  8
1
  6
CONTINUOUS
370
50
 62
4
100
AcDbEllipse
 10
60.022119
 20
0.0
 30
0.0
 11
3.061522007587713E-17
 21
0.500001
 31
0.0
210
0.0
220
0.0
230
1.0
 40
0.3249193501612985
 41
2.996078410566249
 42
3.005019909388144
  0
ELLIPSE
  5
ACA
330
1F
100
AcDbEntity
  8
1
  6
CONTINUOUS
370
50
 62
4
100
AcDbEllipse
 10
61.857767
 20
-2.314773
 30
0.0
 11
-8.13241789182657
 21
2.169351405518265
 31
0.0
210
0.0
220
0.0
230
1.0
 40
0.0975732092195926
 41
5.303711827352431
 42
5.305701462262888
  0
ELLIPSE
  5
ACB
330
1F
100
AcDbEntity
  8
1
  6
CONTINUOUS
370
50
 62
4
100
AcDbEllipse
 10
61.857767
 20
7.174862999999999
 30
0.0
 11
-2.99244515567535
 21
7.866865940783288
 31
0.0
210
0.0
220
0.0
230
1.0
 40
0.9616036419206896
 41
2.197616614149402
 42
2.19960624936529
  0
ELLIPSE
  5
ACC
330
1F
100
AcDbEntity
  8
1
  6
CONTINUOUS
370
50
 62
4
100
AcDbEllipse
 10
61.951292
 20
-7.210438
 30
0.0
 11
3.009487532232013
 21
7.911668797546449
 31
0.0
210
0.0
220
0.0
230
1.0
 40
0.961603576270737
 41
0.9989734989692179
 42
0.9998576247818013
  0
ELLIPSE
  5
ACD
330
1F
100
AcDbEntity
  8
1
  6
CONTINUOUS
370
50
 62
4
100
AcDbEllipse
 10
61.951292
 20
-1.96417
 30
0.0
 11
-8.178732968771328
 21
2.18170611706938
 31
0.0
210
0.0
220
0.0
230
1.0
 40
0.0975732958453664
 41
5.313688982192503
 42
5.36158343649018
  0
ELLIPSE
  5
ACE
330
1F
100
AcDbEntity
  8
1
  6
CONTINUOUS
370
50
 62
4
100
AcDbEllipse
 10
61.997781
 20
-1.789894
 30
0.0
 11
-8.14074109357794
 21
2.171571649197065
 31
0.0
210
0.0
220
0.0
230
0.9999999999999999
 40
0.097573175820395
 41
5.323550156414716
 42
5.347982246980675
  0
ELLIPSE
  5
ACF
330
1F
100
AcDbEntity
  8
1
  6
CONTINUOUS
370
50
 62
4
100
AcDbEllipse
 10
61.997781
 20
7.228122
 30
0.0
 11
-2.995507707661982
 21
7.874917111201278
 31
0.0
210
0.0
220
0.0
230
1.0
 40
0.9616035287662713
 41
2.155335605825593
 42
2.179767701289087
  0
LINE
  5
AD0
330
1F
100
AcDbEntity
  8
CUT
  6
CONTINUOUS
370
25
 62
1
100
AcDbLine
 10
57.5
 20
0.225
 30
0.0
 11
60.0
 21
0.225
 31
0.0
  0
LINE
  5
AD1
330
1F
100
AcDbEntity
  8
CUT
  6
CONTINUOUS
370
25
 62
1
100
AcDbLine
 10
60.0
 20
0.225
 30
0.0
 11
60.0
 21
0.495
 31
0.0
  0
LINE
  5
AD2
330
1F
100
AcDbEntity
  8
CUT
  6
CONTINUOUS
370
25
 62
1
100
AcDbLine
 10
60.0
 20
0.495
 30
0.0
 11
60.0
 21
0.5
 31
0.0
  0
LINE
  5
AD3
330
1F
100
AcDbEntity
  8
CUT
  6
CONTINUOUS
370
25
 62
1
100
AcDbLine
 10
60.0
 20
0.5
 30
0.0
 11
57.5
 21
0.4999
 31
0.0
  0
LINE
  5
AD4
330
1F
100
AcDbEntity
  8
CUT
  6
CONTINUOUS
370
25
 62
1
100
AcDbLine
 10
57.5
 20
0.4999
 30
0.0
 11
57.5
 21
0.225
 31
0.0
  0
LINE
  5
AD5
330
1F
100
AcDbEntity
  8
NOCUT
  6
CONTINUOUS
370
25
 62
7
100
AcDbLine
 10
47.3
 20
0.0
 30
0.0
 11
59.9
 21
0.0
 31
0.0
  0
LINE
  5
AD6
330
1F
100
AcDbEntity
  8
NOCUT
  6
CONTINUOUS
370
25
 62
7
100
AcDbLine
 10
59.9
 20
0.0
 30
0.0
 11
59.9
 21
0.225
 31
0.0
  0
LINE
  5
AD7
330
1F
100
AcDbEntity
  8
NOCUT
  6
CONTINUOUS
370
25
 62
7
100
AcDbLine
 10
59.9
 20
0.225
 30
0.0
 11
57.5
 21
0.225
 31
0.0
  0
LINE
  5
AD8
330
1F
100
AcDbEntity
  8
NOCUT
  6
CONTINUOUS
370
25
 62
7
100
AcDbLine
 10
57.5
 20
0.225
 30
0.0
 11
57.5
 21
0.49995
 31
0.0
  0
LINE
  5
AD9
330
1F
100
AcDbEntity
  8
NOCUT
  6
CONTINUOUS
370
25
 62
7
100
AcDbLine
 10
57.5
 20
0.49995
 30
0.0
 11
56.59999999999999
 21
0.49995
 31
0.0
  0
LINE
  5
ADA
330
1F
100
AcDbEntity
  8
NOCUT
  6
CONTINUOUS
370
25
 62
7
100
AcDbLine
 10
56.59999999999999
 20
0.49995
 30
0.0
 11
47.3
 21
2.99995
 31
0.0
  0
LINE
  5
ADB
330
1F
100
AcDbEntity
  8
NOCUT
  6
CONTINUOUS
370
25
 62
7
100
AcDbLine
 10
47.3
 20
2.99995
 30
0.0
 11
47.3
 21
0.0
 31
0.0
  0
LINE
  5
ADC
330
1F
100
AcDbEntity
  8
SK1
  6
CONTINUOUS
370
50
 62
4
100
AcDbLine
 10
47.3
 20
3.0
 30
0.0
 11
0.3999999999999986
 21
3.0
 31
0.0
  0
LINE
  5
ADD
330
1F
100
AcDbEntity
  8
SK1
  6
CONTINUOUS
370
50
 62
4
100
AcDbLine
 10
0.3999999999999986
 20
3.0
 30
0.0
 11
0.0
 21
2.6
 31
0.0
  0
LINE
  5
ADE
330
1F
100
AcDbEntity
  8
SK1
  6
CONTINUOUS
370
50
 62
4
100
AcDbLine
 10
0.0
 20
2.6
 30
0.0
 11
0.0
 21
-2.6
 31
0.0
  0
LINE
  5
ADF
330
1F
100
AcDbEntity
  8
SK1
  6
CONTINUOUS
370
50
 62
4
100
AcDbLine
 10
0.0
 20
-2.6
 30
0.0
 11
0.3999999999999986
 21
-3.0
 31
0.0
  0
LINE
  5
AE0
330
1F
100
AcDbEntity
  8
SK1
  6
CONTINUOUS
370
50
 62
4
100
AcDbLine
 10
0.3999999999999986
 20
-3.0
 30
0.0
 11
47.3
 21
-3.0
 31
0.0
  0
LINE
  5
AE1
330
1F
100
AcDbEntity
  8
SK1
  6
CONTINUOUS
370
50
 62
4
100
AcDbLine
 10
0.3999999999999986
 20
3.0
 30
0.0
 11
0.3999999999999986
 21
-3.0
 31
0.0
  0
LINE
  5
AE2
330
1F
100
AcDbEntity
  8
SK2
  6
CONTINUOUS
370
25
 62
7
100
AcDbLine
 10
-12.0000002
 20
-3.000001
 30
0.0
 11
-13.00000000000008
 21
-3.000001
 31
0.0
  0
LINE
  5
AE3
330
1F
100
AcDbEntity
  8
SK2
  6
CONTINUOUS
370
25
 62
7
100
AcDbLine
 10
0.0
 20
-3.000001
 30
0.0
 11
-11.9999998
 21
-3.000001
 31
0.0
  0
LINE
  5
AE4
330
1F
100
AcDbEntity
  8
SK2
  6
CONTINUOUS
370
25
 62
7
100
AcDbLine
 10
-13.0
 20
3.0
 30
0.0
 11
0.0
 21
3.0
 31
0.0
  0
LINE
  5
AE5
330
1F
100
AcDbEntity
  8
SK2
  6
CONTINUOUS
370
25
 62
7
100
AcDbLine
 10
-12.0
 20
-10.0
 30
0.0
 11
-12.0
 21
16.475
 31
0.0
  0
LINE
  5
AE6
330
1F
100
AcDbEntity
  8
SK2
  6
CONTINUOUS
370
25
 62
7
100
AcDbLine
 10
-12.0
 20
-3.0
 30
0.0
 11
-11.0
 21
-8.0
 31
0.0
  0
LINE
  5
AE7
330
1F
100
AcDbEntity
  8
SK2
  6
CONTINUOUS
370
25
 62
7
100
AcDbLine
 10
-11.0
 20
-8.0
 30
0.0
 11
-13.0
 21
-8.0
 31
0.0
  0
LINE
  5
AE8
330
1F
100
AcDbEntity
  8
SK2
  6
CONTINUOUS
370
25
 62
7
100
AcDbLine
 10
-13.0
 20
-8.0
 30
0.0
 11
-12.0
 21
-3.0
 31
0.0
  0
LINE
  5
AE9
330
1F
100
AcDbEntity
  8
SK2
  6
CONTINUOUS
370
25
 62
7
100
AcDbLine
 10
-11.18742417671946
 20
-8.0
 30
0.0
 11
-11.03123736278658
 21
-7.843813186067116
 31
0.0
  0
LINE
  5
AEA
330
1F
100
AcDbEntity
  8
SK2
  6
CONTINUOUS
370
25
 62
7
100
AcDbLine
 10
-11.6116882454314
 20
-8.0
 30
0.0
 11
-11.10194804090523
 21
-7.49025979547384
 31
0.0
  0
LINE
  5
AEB
330
1F
100
AcDbEntity
  8
SK2
  6
CONTINUOUS
370
25
 62
7
100
AcDbLine
 10
-12.03595231414332
 20
-8.0
 30
0.0
 11
-11.17265871902389
 21
-7.13670640488057
 31
0.0
  0
LINE
  5
AEC
330
1F
100
AcDbEntity
  8
SK2
  6
CONTINUOUS
370
25
 62
7
100
AcDbLine
 10
-12.46021638285526
 20
-8.0
 30
0.0
 11
-11.24336939714255
 21
-6.783153014287294
 31
0.0
  0
LINE
  5
AED
330
1F
100
AcDbEntity
  8
SK2
  6
CONTINUOUS
370
25
 62
7
100
AcDbLine
 10
-12.88448045156719
 20
-8.0
 30
0.0
 11
-11.3140800752612
 21
-6.429599623694017
 31
0.0
  0
LINE
  5
AEE
330
1F
100
AcDbEntity
  8
SK2
  6
CONTINUOUS
370
25
 62
7
100
AcDbLine
 10
-12.92281386993022
 20
-7.614069349651103
 30
0.0
 11
-11.38479075337987
 21
-6.076046233100747
 31
0.0
  0
LINE
  5
AEF
330
1F
100
AcDbEntity
  8
SK2
  6
CONTINUOUS
370
25
 62
7
100
AcDbLine
 10
-12.81674785275224
 20
-7.083739263761196
 30
0.0
 11
-11.45550143149852
 21
-5.722492842507471
 31
0.0
  0
LINE
  5
AF0
330
1F
100
AcDbEntity
  8
SK2
  6
CONTINUOUS
370
25
 62
7
100
AcDbLine
 10
-12.71068183557426
 20
-6.553409177871281
 30
0.0
 11
-11.52621210961716
 21
-5.36893945191418
 31
0.0
  0
LINE
  5
AF1
330
1F
100
AcDbEntity
  8
SK2
  6
CONTINUOUS
370
25
 62
7
100
AcDbLine
 10
-12.60461581839628
 20
-6.023079091981373
 30
0.0
 11
-11.59692278773581
 21
-5.015386061320903
 31
0.0
  0
LINE
  5
AF2
330
1F
100
AcDbEntity
  8
SK2
  6
CONTINUOUS
370
25
 62
7
100
AcDbLine
 10
-12.4985498012183
 20
-5.492749006091451
 30
0.0
 11
-11.66763346585447
 21
-4.661832670727627
 31
0.0
  0
LINE
  5
AF3
330
1F
100
AcDbEntity
  8
SK2
  6
CONTINUOUS
370
25
 62
7
100
AcDbLine
 10
-12.39248378404032
 20
-4.96241892020155
 30
0.0
 11
-11.73834414397314
 21
-4.308279280134364
 31
0.0
  0
LINE
  5
AF4
330
1F
100
AcDbEntity
  8
SK2
  6
CONTINUOUS
370
25
 62
7
100
AcDbLine
 10
-12.28641776686234
 20
-4.432088834311635
 30
0.0
 11
-11.80905482209178
 21
-3.954725889541081
 31
0.0
  0
LINE
  5
AF5
330
1F
100
AcDbEntity
  8
SK2
  6
CONTINUOUS
370
25
 62
7
100
AcDbLine
 10
-12.18035174968434
 20
-3.90175874842172
 30
0.0
 11
-11.87976550021044
 21
-3.601172498947811
 31
0.0
  0
LINE
  5
AF6
330
1F
100
AcDbEntity
  8
SK2
  6
CONTINUOUS
370
25
 62
7
100
AcDbLine
 10
-12.07428573250636
 20
-3.371428662531805
 30
0.0
 11
-11.9504761783291
 21
-3.247619108354542
 31
0.0
  0
LINE
  5
AF7
330
1F
100
AcDbEntity
  8
SK2
  6
CONTINUOUS
370
25
 62
7
100
AcDbLine
 10
-12.94563052053675
 20
-7.728152602683721
 30
0.0
 11
-12.67378312322047
 21
-8.0
 31
0.0
  0
LINE
  5
AF8
330
1F
100
AcDbEntity
  8
SK2
  6
CONTINUOUS
370
25
 62
7
100
AcDbLine
 10
-12.87491984241809
 20
-7.374599212090438
 30
0.0
 11
-12.24951905450853
 21
-8.0
 31
0.0
  0
LINE
  5
AF9
330
1F
100
AcDbEntity
  8
SK2
  6
CONTINUOUS
370
25
 62
7
100
AcDbLine
 10
-12.80420916429944
 20
-7.021045821497175
 30
0.0
 11
-11.82525498579661
 21
-8.0
 31
0.0
  0
LINE
  5
AFA
330
1F
100
AcDbEntity
  8
SK2
  6
CONTINUOUS
370
25
 62
7
100
AcDbLine
 10
-12.73349848618079
 20
-6.667492430903913
 30
0.0
 11
-11.40099091708469
 21
-8.0
 31
0.0
  0
LINE
  5
AFB
330
1F
100
AcDbEntity
  8
SK2
  6
CONTINUOUS
370
25
 62
7
100
AcDbLine
 10
-12.66278780806213
 20
-6.313939040310643
 30
0.0
 11
-11.00581828790682
 21
-7.970908560465936
 31
0.0
  0
LINE
  5
AFC
330
1F
100
AcDbEntity
  8
SK2
  6
CONTINUOUS
370
25
 62
7
100
AcDbLine
 10
-12.59207712994348
 20
-5.96038564971736
 30
0.0
 11
-11.1118843050848
 21
-7.440578474576022
 31
0.0
  0
LINE
  5
AFD
330
1F
100
AcDbEntity
  8
SK2
  6
CONTINUOUS
370
25
 62
7
100
AcDbLine
 10
-12.52136645182481
 20
-5.606832259124097
 30
0.0
 11
-11.21795032226279
 21
-6.910248388686107
 31
0.0
  0
LINE
  5
AFE
330
1F
100
AcDbEntity
  8
SK2
  6
CONTINUOUS
370
25
 62
7
100
AcDbLine
 10
-12.45065577370617
 20
-5.25327886853082
 30
0.0
 11
-11.32401633944076
 21
-6.379918302796213
 31
0.0
  0
LINE
  5
AFF
330
1F
100
AcDbEntity
  8
SK2
  6
CONTINUOUS
370
25
 62
7
100
AcDbLine
 10
-12.37994509558752
 20
-4.899725477937537
 30
0.0
 11
-11.43008235661875
 21
-5.849588216906298
 31
0.0
  0
LINE
  5
B00
330
1F
100
AcDbEntity
  8
SK2
  6
CONTINUOUS
370
25
 62
7
100
AcDbLine
 10
-12.30923441746885
 20
-4.546172087344281
 30
0.0
 11
-11.53614837379673
 21
-5.319258131016397
 31
0.0
  0
LINE
  5
B01
330
1F
100
AcDbEntity
  8
SK2
  6
CONTINUOUS
370
25
 62
7
100
AcDbLine
 10
-12.23852373935021
 20
-4.192618696750991
 30
0.0
 11
-11.64221439097471
 21
-4.788928045126482
 31
0.0
  0
LINE
  5
B02
330
1F
100
AcDbEntity
  8
SK2
  6
CONTINUOUS
370
25
 62
7
100
AcDbLine
 10
-12.16781306123154
 20
-3.839065306157721
 30
0.0
 11
-11.7482804081527
 21
-4.25859795923656
 31
0.0
  0
LINE
  5
B03
330
1F
100
AcDbEntity
  8
SK2
  6
CONTINUOUS
370
25
 62
7
100
AcDbLine
 10
-12.09710238311289
 20
-3.485511915564445
 30
0.0
 11
-11.85434642533068
 21
-3.728267873346653
 31
0.0
  0
LINE
  5
B04
330
1F
100
AcDbEntity
  8
SK2
  6
CONTINUOUS
370
25
 62
7
100
AcDbLine
 10
-12.02639170499424
 20
-3.131958524971168
 30
0.0
 11
-11.96041244250866
 21
-3.197937787456752
 31
0.0
  0
LINE
  5
B05
330
1F
100
AcDbEntity
  8
SK2
  6
CONTINUOUS
370
25
 62
7
100
AcDbLine
 10
-12.0
 20
3.0
 30
0.0
 11
-13.0
 21
8.0
 31
0.0
  0
LINE
  5
B06
330
1F
100
AcDbEntity
  8
SK2
  6
CONTINUOUS
370
25
 62
7
100
AcDbLine
 10
-13.0
 20
8.0
 30
0.0
 11
-11.0
 21
8.0
 31
0.0
  0
LINE
  5
B07
330
1F
100
AcDbEntity
  8
SK2
  6
CONTINUOUS
370
25
 62
7
100
AcDbLine
 10
-11.0
 20
8.0
 30
0.0
 11
-12.0
 21
3.0
 31
0.0
  0
LINE
  5
B08
330
1F
100
AcDbEntity
  8
SK2
  6
CONTINUOUS
370
25
 62
7
100
AcDbLine
 10
-12.01113635010891
 20
3.055681750544551
 30
0.0
 11
-11.98329547483664
 21
3.083522625816812
 31
0.0
  0
LINE
  5
B09
330
1F
100
AcDbEntity
  8
SK2
  6
CONTINUOUS
370
25
 62
7
100
AcDbLine
 10
-12.08184702822756
 20
3.409235141137827
 30
0.0
 11
-11.87722945765866
 21
3.613852711706734
 31
0.0
  0
LINE
  5
B0A
330
1F
100
AcDbEntity
  8
SK2
  6
CONTINUOUS
370
25
 62
7
100
AcDbLine
 10
-12.15255770634622
 20
3.762788531731104
 30
0.0
 11
-11.77116344048068
 21
4.144182797596649
 31
0.0
  0
LINE
  5
B0B
330
1F
100
AcDbEntity
  8
SK2
  6
CONTINUOUS
370
25
 62
7
100
AcDbLine
 10
-12.22326838446487
 20
4.116341922324381
 30
0.0
 11
-11.6650974233027
 21
4.674512883486557
 31
0.0
  0
LINE
  5
B0C
330
1F
100
AcDbEntity
  8
SK2
  6
CONTINUOUS
370
25
 62
7
100
AcDbLine
 10
-12.29397906258354
 20
4.469895312917643
 30
0.0
 11
-11.5590314061247
 21
5.204842969376479
 31
0.0
  0
LINE
  5
B0D
330
1F
100
AcDbEntity
  8
SK2
  6
CONTINUOUS
370
25
 62
7
100
AcDbLine
 10
-12.36468974070219
 20
4.823448703510927
 30
0.0
 11
-11.45296538894672
 21
5.735173055266394
 31
0.0
  0
LINE
  5
B0E
330
1F
100
AcDbEntity
  8
SK2
  6
CONTINUOUS
370
25
 62
7
100
AcDbLine
 10
-12.43540041882085
 20
5.177002094104196
 30
0.0
 11
-11.34689937176874
 21
6.265503141156316
 31
0.0
  0
LINE
  5
B0F
330
1F
100
AcDbEntity
  8
SK2
  6
CONTINUOUS
370
25
 62
7
100
AcDbLine
 10
-12.50611109693951
 20
5.530555484697473
 30
0.0
 11
-11.24083335459076
 21
6.795833227046224
 31
0.0
  0
LINE
  5
B10
330
1F
100
AcDbEntity
  8
SK2
  6
CONTINUOUS
370
25
 62
7
100
AcDbLine
 10
-12.57682177505815
 20
5.88410887529075
 30
0.0
 11
-11.13476733741278
 21
7.326163312936124
 31
0.0
  0
LINE
  5
B11
330
1F
100
AcDbEntity
  8
SK2
  6
CONTINUOUS
370
25
 62
7
100
AcDbLine
 10
-12.64753245317681
 20
6.237662265884019
 30
0.0
 11
-11.0287013202348
 21
7.856493398826025
 31
0.0
  0
LINE
  5
B12
330
1F
100
AcDbEntity
  8
SK2
  6
CONTINUOUS
370
25
 62
7
100
AcDbLine
 10
-12.71824313129547
 20
6.591215656477296
 30
0.0
 11
-11.30945878777277
 21
8.0
 31
0.0
  0
LINE
  5
B13
330
1F
100
AcDbEntity
  8
SK2
  6
CONTINUOUS
370
25
 62
7
100
AcDbLine
 10
-12.78895380941411
 20
6.944769047070579
 30
0.0
 11
-11.73372285648469
 21
8.0
 31
0.0
  0
LINE
  5
B14
330
1F
100
AcDbEntity
  8
SK2
  6
CONTINUOUS
370
25
 62
7
100
AcDbLine
 10
-12.85966448753278
 20
7.298322437663835
 30
0.0
 11
-12.15798692519661
 21
8.0
 31
0.0
  0
LINE
  5
B15
330
1F
100
AcDbEntity
  8
SK2
  6
CONTINUOUS
370
25
 62
7
100
AcDbLine
 10
-12.93037516565142
 20
7.651875828257111
 30
0.0
 11
-12.58225099390854
 21
8.0
 31
0.0
  0
LINE
  5
B16
330
1F
100
AcDbEntity
  8
SK2
  6
CONTINUOUS
370
25
 62
7
100
AcDbLine
 10
-12.03596980692333
 20
3.179849034616602
 30
0.0
 11
-11.97602012871778
 21
3.119899356411061
 31
0.0
  0
LINE
  5
B17
330
1F
100
AcDbEntity
  8
SK2
  6
CONTINUOUS
370
25
 62
7
100
AcDbLine
 10
-12.14203582410131
 20
3.71017912050651
 30
0.0
 11
-11.90530945059913
 21
3.473452747004337
 31
0.0
  0
LINE
  5
B18
330
1F
100
AcDbEntity
  8
SK2
  6
CONTINUOUS
370
25
 62
7
100
AcDbLine
 10
-12.24810184127928
 20
4.240509206396396
 30
0.0
 11
-11.83459877248048
 21
3.827006137597607
 31
0.0
  0
LINE
  5
B19
330
1F
100
AcDbEntity
  8
SK2
  6
CONTINUOUS
370
25
 62
7
100
AcDbLine
 10
-12.35416785845727
 20
4.770839292286318
 30
0.0
 11
-11.76388809436182
 21
4.180559528190877
 31
0.0
  0
LINE
  5
B1A
330
1F
100
AcDbEntity
  8
SK2
  6
CONTINUOUS
370
25
 62
7
100
AcDbLine
 10
-12.46023387563524
 20
5.301169378176212
 30
0.0
 11
-11.69317741624317
 21
4.534112918784153
 31
0.0
  0
LINE
  5
B1B
330
1F
100
AcDbEntity
  8
SK2
  6
CONTINUOUS
370
25
 62
7
100
AcDbLine
 10
-12.56629989281323
 20
5.831499464066134
 30
0.0
 11
-11.62246673812452
 21
4.887666309377437
 31
0.0
  0
LINE
  5
B1C
330
1F
100
AcDbEntity
  8
SK2
  6
CONTINUOUS
370
25
 62
7
100
AcDbLine
 10
-12.67236590999121
 20
6.361829549956035
 30
0.0
 11
-11.55175606000586
 21
5.241219699970706
 31
0.0
  0
LINE
  5
B1D
330
1F
100
AcDbEntity
  8
SK2
  6
CONTINUOUS
370
25
 62
7
100
AcDbLine
 10
-12.77843192716919
 20
6.892159635845935
 30
0.0
 11
-11.48104538188721
 21
5.594773090563969
 31
0.0
  0
LINE
  5
B1E
330
1F
100
AcDbEntity
  8
SK2
  6
CONTINUOUS
370
25
 62
7
100
AcDbLine
 10
-12.88449794434717
 20
7.42248972173585
 30
0.0
 11
-11.41033470376856
 21
5.948326481157252
 31
0.0
  0
LINE
  5
B1F
330
1F
100
AcDbEntity
  8
SK2
  6
CONTINUOUS
370
25
 62
7
100
AcDbLine
 10
-12.99056396152515
 20
7.952819807625772
 30
0.0
 11
-11.3396240256499
 21
6.301879871750536
 31
0.0
  0
LINE
  5
B20
330
1F
100
AcDbEntity
  8
SK2
  6
CONTINUOUS
370
25
 62
7
100
AcDbLine
 10
-12.61348008518745
 20
8.0
 30
0.0
 11
-11.26891334753124
 21
6.655433262343799
 31
0.0
  0
LINE
  5
B21
330
1F
100
AcDbEntity
  8
SK2
  6
CONTINUOUS
370
25
 62
7
100
AcDbLine
 10
-12.18921601647553
 20
8.0
 30
0.0
 11
-11.19820266941259
 21
7.008986652937075
 31
0.0
  0
LINE
  5
B22
330
1F
100
AcDbEntity
  8
SK2
  6
CONTINUOUS
370
25
 62
7
100
AcDbLine
 10
-11.76495194776358
 20
8.0
 30
0.0
 11
-11.12749199129393
 21
7.362540043530352
 31
0.0
  0
LINE
  5
B23
330
1F
100
AcDbEntity
  8
SK2
  6
CONTINUOUS
370
25
 62
7
100
AcDbLine
 10
-11.34068787905164
 20
8.0
 30
0.0
 11
-11.05678131317527
 21
7.716093434123628
 31
0.0
  0
TEXT
  5
B24
330
1F
100
AcDbEntity
  8
SK2
  6
CONTINUOUS
370
25
 62
7
100
AcDbText
 10
-13.5
 20
13.34583333333333
 30
0.0
 40
3.5
  1
6
 50
90.00000000000001
 72
     1
 11
-13.5
 21
14.5125
 31
0.0
100
AcDbText
  0
CIRCLE
  5
B25
330
1F
100
AcDbEntity
  8
SK2
  6
CONTINUOUS
370
25
 62
7
100
AcDbCircle
 10
-15.25
 20
11.1875
 30
0.0
 40
1.4
  0
LINE
  5
B26
330
1F
100
AcDbEntity
  8
SK2
  6
CONTINUOUS
370
25
 62
7
100
AcDbLine
 10
-13.85
 20
9.787500000000001
 30
0.0
 11
-16.65
 21
12.5875
 31
0.0
  0
LINE
  5
B27
330
1F
100
AcDbEntity
  8
SK2
  6
CONTINUOUS
370
25
 62
7
100
AcDbLine
 10
0.0
 20
3.0
 30
0.0
 11
0.0
 21
16.00001
 31
0.0
  0
LINE
  5
B28
330
1F
100
AcDbEntity
  8
SK2
  6
CONTINUOUS
370
25
 62
7
100
AcDbLine
 10
47.3
 20
16.00001
 30
0.0
 11
47.3
 21
3.0
 31
0.0
  0
LINE
  5
B29
330
1F
100
AcDbEntity
  8
SK2
  6
CONTINUOUS
370
25
 62
7
100
AcDbLine
 10
0.0
 20
15.00001
 30
0.0
 11
47.3
 21
15.00001
 31
0.0
  0
LINE
  5
B2A
330
1F
100
AcDbEntity
  8
SK2
  6
CONTINUOUS
370
25
 62
7
100
AcDbLine
 10
0.0
 20
15.00001
 30
0.0
 11
5.0
 21
16.00001
 31
0.0
  0
LINE
  5
B2B
330
1F
100
AcDbEntity
  8
SK2
  6
CONTINUOUS
370
25
 62
7
100
AcDbLine
 10
5.0
 20
16.00001
 30
0.0
 11
5.0
 21
14.00001
 31
0.0
  0
LINE
  5
B2C
330
1F
100
AcDbEntity
  8
SK2
  6
CONTINUOUS
370
25
 62
7
100
AcDbLine
 10
5.0
 20
14.00001
 30
0.0
 11
0.0
 21
15.00001
 31
0.0
  0
LINE
  5
B2D
330
1F
100
AcDbEntity
  8
SK2
  6
CONTINUOUS
370
25
 62
7
100
AcDbLine
 10
4.89407405109462
 20
14.02119518978107
 30
0.0
 11
5.0
 21
14.12712113868646
 31
0.0
  0
LINE
  5
B2E
330
1F
100
AcDbEntity
  8
SK2
  6
CONTINUOUS
370
25
 62
7
100
AcDbLine
 10
4.540520660501343
 20
14.09190586789973
 30
0.0
 11
5.0
 21
14.55138520739839
 31
0.0
  0
LINE
  5
B2F
330
1F
100
AcDbEntity
  8
SK2
  6
CONTINUOUS
370
25
 62
7
100
AcDbLine
 10
4.186967269908074
 20
14.16261654601839
 30
0.0
 11
5.0
 21
14.97564927611032
 31
0.0
  0
LINE
  5
B30
330
1F
100
AcDbEntity
  8
SK2
  6
CONTINUOUS
370
25
 62
7
100
AcDbLine
 10
3.83341387931479
 20
14.23332722413704
 30
0.0
 11
5.0
 21
15.39991334482225
 31
0.0
  0
LINE
  5
B31
330
1F
100
AcDbEntity
  8
SK2
  6
CONTINUOUS
370
25
 62
7
100
AcDbLine
 10
3.479860488721521
 20
14.3040379022557
 30
0.0
 11
5.0
 21
15.82417741353418
 31
0.0
  0
LINE
  5
B32
330
1F
100
AcDbEntity
  8
SK2
  6
CONTINUOUS
370
25
 62
7
100
AcDbLine
 10
3.126307098128237
 20
14.37474858037435
 30
0.0
 11
4.689460647192348
 21
15.93790212943846
 31
0.0
  0
LINE
  5
B33
330
1F
100
AcDbEntity
  8
SK2
  6
CONTINUOUS
370
25
 62
7
100
AcDbLine
 10
2.772753707534967
 20
14.44545925849301
 30
0.0
 11
4.15913056130244
 21
15.83183611226048
 31
0.0
  0
LINE
  5
B34
330
1F
100
AcDbEntity
  8
SK2
  6
CONTINUOUS
370
25
 62
7
100
AcDbLine
 10
2.419200316941684
 20
14.51616993661167
 30
0.0
 11
3.628800475412518
 21
15.7257700950825
 31
0.0
  0
LINE
  5
B35
330
1F
100
AcDbEntity
  8
SK2
  6
CONTINUOUS
370
25
 62
7
100
AcDbLine
 10
2.065646926348414
 20
14.58688061473033
 30
0.0
 11
3.09847038952261
 21
15.61970407790452
 31
0.0
  0
LINE
  5
B36
330
1F
100
AcDbEntity
  8
SK2
  6
CONTINUOUS
370
25
 62
7
100
AcDbLine
 10
1.712093535755137
 20
14.65759129284898
 30
0.0
 11
2.568140303632688
 21
15.51363806072653
 31
0.0
  0
LINE
  5
B37
330
1F
100
AcDbEntity
  8
SK2
  6
CONTINUOUS
370
25
 62
7
100
AcDbLine
 10
1.358540145161861
 20
14.72830197096764
 30
0.0
 11
2.037810217742781
 21
15.40757204354856
 31
0.0
  0
LINE
  5
B38
330
1F
100
AcDbEntity
  8
SK2
  6
CONTINUOUS
370
25
 62
7
100
AcDbLine
 10
1.004986754568584
 20
14.79901264908629
 30
0.0
 11
1.507480131852859
 21
15.30150602637057
 31
0.0
  0
LINE
  5
B39
330
1F
100
AcDbEntity
  8
SK2
  6
CONTINUOUS
370
25
 62
7
100
AcDbLine
 10
0.6514333639753076
 20
14.86972332720494
 30
0.0
 11
0.9771500459629507
 21
15.19544000919259
 31
0.0
  0
LINE
  5
B3A
330
1F
100
AcDbEntity
  8
SK2
  6
CONTINUOUS
370
25
 62
7
100
AcDbLine
 10
0.297879973382031
 20
14.9404340053236
 30
0.0
 11
0.4468199600730287
 21
15.0893739920146
 31
0.0
  0
LINE
  5
B3B
330
1F
100
AcDbEntity
  8
SK2
  6
CONTINUOUS
370
25
 62
7
100
AcDbLine
 10
0.3209178165211171
 20
15.06419356330422
 30
0.0
 11
0.4813767247816685
 21
14.90373465504367
 31
0.0
  0
LINE
  5
B3C
330
1F
100
AcDbEntity
  8
SK2
  6
CONTINUOUS
370
25
 62
7
100
AcDbLine
 10
0.6744712071143937
 20
15.13490424142288
 30
0.0
 11
1.011706810671591
 21
14.79766863786568
 31
0.0
  0
LINE
  5
B3D
330
1F
100
AcDbEntity
  8
SK2
  6
CONTINUOUS
370
25
 62
7
100
AcDbLine
 10
1.02802459770767
 20
15.20561491954153
 30
0.0
 11
1.542036896561498
 21
14.6916026206877
 31
0.0
  0
LINE
  5
B3E
330
1F
100
AcDbEntity
  8
SK2
  6
CONTINUOUS
370
25
 62
7
100
AcDbLine
 10
1.38157798830094
 20
15.27632559766019
 30
0.0
 11
2.07236698245142
 21
14.58553660350971
 31
0.0
  0
LINE
  5
B3F
330
1F
100
AcDbEntity
  8
SK2
  6
CONTINUOUS
370
25
 62
7
100
AcDbLine
 10
1.735131378894216
 20
15.34703627577885
 30
0.0
 11
2.602697068341328
 21
14.47947058633174
 31
0.0
  0
LINE
  5
B40
330
1F
100
AcDbEntity
  8
SK2
  6
CONTINUOUS
370
25
 62
7
100
AcDbLine
 10
2.0886847694875
 20
15.4177469538975
 30
0.0
 11
3.13302715423125
 21
14.37340456915375
 31
0.0
  0
LINE
  5
B41
330
1F
100
AcDbEntity
  8
SK2
  6
CONTINUOUS
370
25
 62
7
100
AcDbLine
 10
2.44223816008077
 20
15.48845763201616
 30
0.0
 11
3.663357240121158
 21
14.26733855197577
 31
0.0
  0
LINE
  5
B42
330
1F
100
AcDbEntity
  8
SK2
  6
CONTINUOUS
370
25
 62
7
100
AcDbLine
 10
2.795791550674046
 20
15.55916831013481
 30
0.0
 11
4.19368732601108
 21
14.16127253479778
 31
0.0
  0
LINE
  5
B43
330
1F
100
AcDbEntity
  8
SK2
  6
CONTINUOUS
370
25
 62
7
100
AcDbLine
 10
3.149344941267323
 20
15.62987898825347
 30
0.0
 11
4.724017411900988
 21
14.0552065176198
 31
0.0
  0
LINE
  5
B44
330
1F
100
AcDbEntity
  8
SK2
  6
CONTINUOUS
370
25
 62
7
100
AcDbLine
 10
3.502898331860607
 20
15.70058966637211
 30
0.0
 11
5.0
 21
14.20348799823272
 31
0.0
  0
LINE
  5
B45
330
1F
100
AcDbEntity
  8
SK2
  6
CONTINUOUS
370
25
 62
7
100
AcDbLine
 10
3.856451722453876
 20
15.77130034449078
 30
0.0
 11
5.0
 21
14.62775206694465
 31
0.0
  0
LINE
  5
B46
330
1F
100
AcDbEntity
  8
SK2
  6
CONTINUOUS
370
25
 62
7
100
AcDbLine
 10
4.210005113047153
 20
15.84201102260943
 30
0.0
 11
5.0
 21
15.05201613565658
 31
0.0
  0
LINE
  5
B47
330
1F
100
AcDbEntity
  8
SK2
  6
CONTINUOUS
370
25
 62
7
100
AcDbLine
 10
4.563558503640422
 20
15.91272170072808
 30
0.0
 11
5.0
 21
15.47628020436851
 31
0.0
  0
LINE
  5
B48
330
1F
100
AcDbEntity
  8
SK2
  6
CONTINUOUS
370
25
 62
7
100
AcDbLine
 10
4.917111894233699
 20
15.98343237884674
 30
0.0
 11
5.0
 21
15.90054427308044
 31
0.0
  0
LINE
  5
B49
330
1F
100
AcDbEntity
  8
SK2
  6
CONTINUOUS
370
25
 62
7
100
AcDbLine
 10
47.3
 20
15.00001
 30
0.0
 11
42.3
 21
14.00001
 31
0.0
  0
LINE
  5
B4A
330
1F
100
AcDbEntity
  8
SK2
  6
CONTINUOUS
370
25
 62
7
100
AcDbLine
 10
42.3
 20
14.00001
 30
0.0
 11
42.3
 21
16.00001
 31
0.0
  0
LINE
  5
B4B
330
1F
100
AcDbEntity
  8
SK2
  6
CONTINUOUS
370
25
 62
7
100
AcDbLine
 10
42.3
 20
16.00001
 30
0.0
 11
47.3
 21
15.00001
 31
0.0
  0
LINE
  5
B4C
330
1F
100
AcDbEntity
  8
SK2
  6
CONTINUOUS
370
25
 62
7
100
AcDbLine
 10
46.95812940796321
 20
14.93163588159264
 30
0.0
 11
47.07208627197548
 21
15.0455927456049
 31
0.0
  0
LINE
  5
B4D
330
1F
100
AcDbEntity
  8
SK2
  6
CONTINUOUS
370
25
 62
7
100
AcDbLine
 10
46.42779932207331
 20
14.82556986441466
 30
0.0
 11
46.7185328813822
 21
15.11630342372356
 31
0.0
  0
LINE
  5
B4E
330
1F
100
AcDbEntity
  8
SK2
  6
CONTINUOUS
370
25
 62
7
100
AcDbLine
 10
45.8974692361834
 20
14.71950384723668
 30
0.0
 11
46.36497949078893
 21
15.18701410184221
 31
0.0
  0
LINE
  5
B4F
330
1F
100
AcDbEntity
  8
SK2
  6
CONTINUOUS
370
25
 62
7
100
AcDbLine
 10
45.36713915029349
 20
14.6134378300587
 30
0.0
 11
46.01142610019566
 21
15.25772477996087
 31
0.0
  0
LINE
  5
B50
330
1F
100
AcDbEntity
  8
SK2
  6
CONTINUOUS
370
25
 62
7
100
AcDbLine
 10
44.83680906440358
 20
14.50737181288072
 30
0.0
 11
45.65787270960239
 21
15.32843545807952
 31
0.0
  0
LINE
  5
B51
330
1F
100
AcDbEntity
  8
SK2
  6
CONTINUOUS
370
25
 62
7
100
AcDbLine
 10
44.30647897851367
 20
14.40130579570273
 30
0.0
 11
45.30431931900911
 21
15.39914613619818
 31
0.0
  0
LINE
  5
B52
330
1F
100
AcDbEntity
  8
SK2
  6
CONTINUOUS
370
25
 62
7
100
AcDbLine
 10
43.77614889262376
 20
14.29523977852475
 30
0.0
 11
44.95076592841584
 21
15.46985681431683
 31
0.0
  0
LINE
  5
B53
330
1F
100
AcDbEntity
  8
SK2
  6
CONTINUOUS
370
25
 62
7
100
AcDbLine
 10
43.24581880673385
 20
14.18917376134677
 30
0.0
 11
44.59721253782256
 21
15.54056749243549
 31
0.0
  0
LINE
  5
B54
330
1F
100
AcDbEntity
  8
SK2
  6
CONTINUOUS
370
25
 62
7
100
AcDbLine
 10
42.71548872084394
 20
14.08310774416879
 30
0.0
 11
44.24365914722929
 21
15.61127817055414
 31
0.0
  0
LINE
  5
B55
330
1F
100
AcDbEntity
  8
SK2
  6
CONTINUOUS
370
25
 62
7
100
AcDbLine
 10
42.3
 20
14.09188309203677
 30
0.0
 11
43.89010575663602
 21
15.68198884867279
 31
0.0
  0
LINE
  5
B56
330
1F
100
AcDbEntity
  8
SK2
  6
CONTINUOUS
370
25
 62
7
100
AcDbLine
 10
42.3
 20
14.5161471607487
 30
0.0
 11
43.53655236604274
 21
15.75269952679145
 31
0.0
  0
LINE
  5
B57
330
1F
100
AcDbEntity
  8
SK2
  6
CONTINUOUS
370
25
 62
7
100
AcDbLine
 10
42.3
 20
14.94041122946063
 30
0.0
 11
43.18299897544947
 21
15.8234102049101
 31
0.0
  0
LINE
  5
B58
330
1F
100
AcDbEntity
  8
SK2
  6
CONTINUOUS
370
25
 62
7
100
AcDbLine
 10
42.3
 20
15.36467529817256
 30
0.0
 11
42.8294455848562
 21
15.89412088302876
 31
0.0
  0
LINE
  5
B59
330
1F
100
AcDbEntity
  8
SK2
  6
CONTINUOUS
370
25
 62
7
100
AcDbLine
 10
42.3
 20
15.78893936688448
 30
0.0
 11
42.47589219426293
 21
15.96483156114741
 31
0.0
  0
LINE
  5
B5A
330
1F
100
AcDbEntity
  8
SK2
  6
CONTINUOUS
370
25
 62
7
100
AcDbLine
 10
42.3
 20
14.3338095116624
 30
0.0
 11
42.57816625971866
 21
14.05564325194373
 31
0.0
  0
LINE
  5
B5B
330
1F
100
AcDbEntity
  8
SK2
  6
CONTINUOUS
370
25
 62
7
100
AcDbLine
 10
42.3
 20
14.75807358037433
 30
0.0
 11
42.93171965031194
 21
14.12635393006239
 31
0.0
  0
LINE
  5
B5C
330
1F
100
AcDbEntity
  8
SK2
  6
CONTINUOUS
370
25
 62
7
100
AcDbLine
 10
42.3
 20
15.18233764908626
 30
0.0
 11
43.28527304090521
 21
14.19706460818104
 31
0.0
  0
LINE
  5
B5D
330
1F
100
AcDbEntity
  8
SK2
  6
CONTINUOUS
370
25
 62
7
100
AcDbLine
 10
42.3
 20
15.60660171779818
 30
0.0
 11
43.63882643149849
 21
14.2677752862997
 31
0.0
  0
LINE
  5
B5E
330
1F
100
AcDbEntity
  8
SK2
  6
CONTINUOUS
370
25
 62
7
100
AcDbLine
 10
42.33856973313764
 20
15.99229605337247
 30
0.0
 11
43.99237982209176
 21
14.33848596441835
 31
0.0
  0
LINE
  5
B5F
330
1F
100
AcDbEntity
  8
SK2
  6
CONTINUOUS
370
25
 62
7
100
AcDbLine
 10
42.86889981902755
 20
15.88623003619449
 30
0.0
 11
44.34593321268503
 21
14.40919664253701
 31
0.0
  0
LINE
  5
B60
330
1F
100
AcDbEntity
  8
SK2
  6
CONTINUOUS
370
25
 62
7
100
AcDbLine
 10
43.39922990491746
 20
15.78016401901651
 30
0.0
 11
44.69948660327831
 21
14.47990732065566
 31
0.0
  0
LINE
  5
B61
330
1F
100
AcDbEntity
  8
SK2
  6
CONTINUOUS
370
25
 62
7
100
AcDbLine
 10
43.92955999080737
 20
15.67409800183852
 30
0.0
 11
45.05303999387158
 21
14.55061799877432
 31
0.0
  0
LINE
  5
B62
330
1F
100
AcDbEntity
  8
SK2
  6
CONTINUOUS
370
25
 62
7
100
AcDbLine
 10
44.45989007669728
 20
15.56803198466054
 30
0.0
 11
45.40659338446486
 21
14.62132867689297
 31
0.0
  0
LINE
  5
B63
330
1F
100
AcDbEntity
  8
SK2
  6
CONTINUOUS
370
25
 62
7
100
AcDbLine
 10
44.99022016258719
 20
15.46196596748256
 30
0.0
 11
45.76014677505813
 21
14.69203935501162
 31
0.0
  0
LINE
  5
B64
330
1F
100
AcDbEntity
  8
SK2
  6
CONTINUOUS
370
25
 62
7
100
AcDbLine
 10
45.5205502484771
 20
15.35589995030458
 30
0.0
 11
46.1137001656514
 21
14.76275003313028
 31
0.0
  0
LINE
  5
B65
330
1F
100
AcDbEntity
  8
SK2
  6
CONTINUOUS
370
25
 62
7
100
AcDbLine
 10
46.05088033436701
 20
15.2498339331266
 30
0.0
 11
46.46725355624467
 21
14.83346071124894
 31
0.0
  0
LINE
  5
B66
330
1F
100
AcDbEntity
  8
SK2
  6
CONTINUOUS
370
25
 62
7
100
AcDbLine
 10
46.58121042025692
 20
15.14376791594862
 30
0.0
 11
46.82080694683795
 21
14.90417138936759
 31
0.0
  0
LINE
  5
B67
330
1F
100
AcDbEntity
  8
SK2
  6
CONTINUOUS
370
25
 62
7
100
AcDbLine
 10
47.11154050614683
 20
15.03770189877063
 30
0.0
 11
47.17436033743122
 21
14.97488206748625
 31
0.0
  0
TEXT
  5
B68
330
1F
100
AcDbEntity
  8
SK2
  6
CONTINUOUS
370
25
 62
7
100
AcDbText
 10
18.4
 20
16.50001
 30
0.0
 40
3.5
  1
47.3
 72
     1
 11
23.65
 21
16.50001
 31
0.0
100
AcDbText
  0
LINE
  5
B69
330
1F
100
AcDbEntity
  8
2
  6
CONTINUOUS
370
25
 62
7
100
AcDbLine
 10
60.0
 20
-0.5
 30
0.0
 11
89.89999999999999
 21
-0.5000000000000037
 31
0.0
  0
LINE
  5
B6A
330
1F
100
AcDbEntity
  8
2
  6
CONTINUOUS
370
25
 62
7
100
AcDbLine
 10
89.89999999999999
 20
0.4999999999999963
 30
0.0
 11
59.99999999999999
 21
0.5
 31
0.0
  0
LINE
  5
B6B
330
1F
100
AcDbEntity
  8
2
  6
CONTINUOUS
370
25
 62
7
100
AcDbLine
 10
88.89999999999999
 20
-7.500000000000004
 30
0.0
 11
88.89999999999999
 21
13.975
 31
0.0
  0
LINE
  5
B6C
330
1F
100
AcDbEntity
  8
2
  6
CONTINUOUS
370
25
 62
7
100
AcDbLine
 10
88.89999999999999
 20
-0.5000000000000036
 30
0.0
 11
89.89999999999999
 21
-5.500000000000004
 31
0.0
  0
LINE
  5
B6D
330
1F
100
AcDbEntity
  8
2
  6
CONTINUOUS
370
25
 62
7
100
AcDbLine
 10
89.89999999999999
 20
-5.500000000000004
 30
0.0
 11
87.89999999999999
 21
-5.500000000000004
 31
0.0
  0
LINE
  5
B6E
330
1F
100
AcDbEntity
  8
2
  6
CONTINUOUS
370
25
 62
7
100
AcDbLine
 10
87.89999999999999
 20
-5.500000000000004
 30
0.0
 11
88.89999999999999
 21
-0.5000000000000036
 31
0.0
  0
LINE
  5
B6F
330
1F
100
AcDbEntity
  8
2
  6
CONTINUOUS
370
25
 62
7
100
AcDbLine
 10
89.73845842139298
 20
-5.5
 30
0.0
 11
89.87307640356549
 21
-5.365382017827493
 31
0.0
  0
LINE
  5
B70
330
1F
100
AcDbEntity
  8
2
  6
CONTINUOUS
370
25
 62
7
100
AcDbLine
 10
89.31419435268106
 20
-5.5
 30
0.0
 11
89.80236572544683
 21
-5.011828627234209
 31
0.0
  0
LINE
  5
B71
330
1F
100
AcDbEntity
  8
2
  6
CONTINUOUS
370
25
 62
7
100
AcDbLine
 10
88.88993028396911
 20
-5.5
 30
0.0
 11
89.73165504732819
 21
-4.658275236640932
 31
0.0
  0
LINE
  5
B72
330
1F
100
AcDbEntity
  8
2
  6
CONTINUOUS
370
25
 62
7
100
AcDbLine
 10
88.46566621525719
 20
-5.5
 30
0.0
 11
89.66094436920952
 21
-4.304721846047656
 31
0.0
  0
LINE
  5
B73
330
1F
100
AcDbEntity
  8
2
  6
CONTINUOUS
370
25
 62
7
100
AcDbLine
 10
88.04140214654524
 20
-5.500000000000007
 30
0.0
 11
89.59023369109087
 21
-3.951168455454379
 31
0.0
  0
LINE
  5
B74
330
1F
100
AcDbEntity
  8
2
  6
CONTINUOUS
370
25
 62
7
100
AcDbLine
 10
87.97071548054166
 20
-5.146422597291675
 30
0.0
 11
89.51952301297221
 21
-3.597615064861117
 31
0.0
  0
LINE
  5
B75
330
1F
100
AcDbEntity
  8
2
  6
CONTINUOUS
370
25
 62
7
100
AcDbLine
 10
88.07678149771965
 20
-4.616092511401753
 30
0.0
 11
89.44881233485356
 21
-3.24406167426784
 31
0.0
  0
LINE
  5
B76
330
1F
100
AcDbEntity
  8
2
  6
CONTINUOUS
370
25
 62
7
100
AcDbLine
 10
88.18284751489762
 20
-4.085762425511838
 30
0.0
 11
89.3781016567349
 21
-2.890508283674563
 31
0.0
  0
LINE
  5
B77
330
1F
100
AcDbEntity
  8
2
  6
CONTINUOUS
370
25
 62
7
100
AcDbLine
 10
88.28891353207561
 20
-3.555432339621923
 30
0.0
 11
89.30739097861624
 21
-2.53695489308128
 31
0.0
  0
LINE
  5
B78
330
1F
100
AcDbEntity
  8
2
  6
CONTINUOUS
370
25
 62
7
100
AcDbLine
 10
88.39497954925359
 20
-3.025102253732001
 30
0.0
 11
89.2366803004976
 21
-2.183401502488003
 31
0.0
  0
LINE
  5
B79
330
1F
100
AcDbEntity
  8
2
  6
CONTINUOUS
370
25
 62
7
100
AcDbLine
 10
88.50104556643157
 20
-2.494772167842093
 30
0.0
 11
89.16596962237894
 21
-1.829848111894727
 31
0.0
  0
LINE
  5
B7A
330
1F
100
AcDbEntity
  8
2
  6
CONTINUOUS
370
25
 62
7
100
AcDbLine
 10
88.60711158360957
 20
-1.964442081952178
 30
0.0
 11
89.09525894426028
 21
-1.476294721301457
 31
0.0
  0
LINE
  5
B7B
330
1F
100
AcDbEntity
  8
2
  6
CONTINUOUS
370
25
 62
7
100
AcDbLine
 10
88.71317760078753
 20
-1.434111996062263
 30
0.0
 11
89.02454826614162
 21
-1.12274133070818
 31
0.0
  0
LINE
  5
B7C
330
1F
100
AcDbEntity
  8
2
  6
CONTINUOUS
370
25
 62
7
100
AcDbLine
 10
88.81924361796553
 20
-0.9037819101723485
 30
0.0
 11
88.95383758802296
 21
-0.7691879401148967
 31
0.0
  0
LINE
  5
B7D
330
1F
100
AcDbEntity
  8
2
  6
CONTINUOUS
370
25
 62
7
100
AcDbLine
 10
87.91898628384834
 20
-5.405068580758289
 30
0.0
 11
88.01391770309004
 21
-5.5
 31
0.0
  0
LINE
  5
B7E
330
1F
100
AcDbEntity
  8
2
  6
CONTINUOUS
370
25
 62
7
100
AcDbLine
 10
87.98969696196698
 20
-5.051515190165013
 30
0.0
 11
88.43818177180198
 21
-5.500000000000007
 31
0.0
  0
LINE
  5
B7F
330
1F
100
AcDbEntity
  8
2
  6
CONTINUOUS
370
25
 62
7
100
AcDbLine
 10
88.06040764008564
 20
-4.697961799571736
 30
0.0
 11
88.86244584051391
 21
-5.5
 31
0.0
  0
LINE
  5
B80
330
1F
100
AcDbEntity
  8
2
  6
CONTINUOUS
370
25
 62
7
100
AcDbLine
 10
88.1311183182043
 20
-4.344408408978467
 30
0.0
 11
89.28670990922583
 21
-5.500000000000007
 31
0.0
  0
LINE
  5
B81
330
1F
100
AcDbEntity
  8
2
  6
CONTINUOUS
370
25
 62
7
100
AcDbLine
 10
88.20182899632296
 20
-3.99085501838519
 30
0.0
 11
89.71097397793778
 21
-5.500000000000007
 31
0.0
  0
LINE
  5
B82
330
1F
100
AcDbEntity
  8
2
  6
CONTINUOUS
370
25
 62
7
100
AcDbLine
 10
88.27253967444162
 20
-3.637301627791906
 30
0.0
 11
89.84119048833756
 21
-5.205952441687856
 31
0.0
  0
LINE
  5
B83
330
1F
100
AcDbEntity
  8
2
  6
CONTINUOUS
370
25
 62
7
100
AcDbLine
 10
88.34325035256026
 20
-3.283748237198637
 30
0.0
 11
89.73512447115957
 21
-4.675622355797941
 31
0.0
  0
LINE
  5
B84
330
1F
100
AcDbEntity
  8
2
  6
CONTINUOUS
370
25
 62
7
100
AcDbLine
 10
88.41396103067892
 20
-2.930194846605353
 30
0.0
 11
89.6290584539816
 21
-4.145292269908026
 31
0.0
  0
LINE
  5
B85
330
1F
100
AcDbEntity
  8
2
  6
CONTINUOUS
370
25
 62
7
100
AcDbLine
 10
88.48467170879758
 20
-2.576641456012084
 30
0.0
 11
89.5229924368036
 21
-3.614962184018118
 31
0.0
  0
LINE
  5
B86
330
1F
100
AcDbEntity
  8
2
  6
CONTINUOUS
370
25
 62
7
100
AcDbLine
 10
88.55538238691624
 20
-2.223088065418807
 30
0.0
 11
89.41692641962563
 21
-3.084632098128196
 31
0.0
  0
LINE
  5
B87
330
1F
100
AcDbEntity
  8
2
  6
CONTINUOUS
370
25
 62
7
100
AcDbLine
 10
88.6260930650349
 20
-1.86953467482553
 30
0.0
 11
89.31086040244764
 21
-2.554302012238288
 31
0.0
  0
LINE
  5
B88
330
1F
100
AcDbEntity
  8
2
  6
CONTINUOUS
370
25
 62
7
100
AcDbLine
 10
88.69680374315354
 20
-1.515981284232254
 30
0.0
 11
89.20479438526965
 21
-2.023971926348366
 31
0.0
  0
LINE
  5
B89
330
1F
100
AcDbEntity
  8
2
  6
CONTINUOUS
370
25
 62
7
100
AcDbLine
 10
88.7675144212722
 20
-1.16242789363897
 30
0.0
 11
89.09872836809168
 21
-1.493641840458451
 31
0.0
  0
LINE
  5
B8A
330
1F
100
AcDbEntity
  8
2
  6
CONTINUOUS
370
25
 62
7
100
AcDbLine
 10
88.83822509939085
 20
-0.8088745030457076
 30
0.0
 11
88.99266235091369
 21
-0.9633117545685508
 31
0.0
  0
LINE
  5
B8B
330
1F
100
AcDbEntity
  8
2
  6
CONTINUOUS
370
25
 62
7
100
AcDbLine
 10
88.89999999999999
 20
0.4999999999999965
 30
0.0
 11
87.89999999999999
 21
5.499999999999996
 31
0.0
  0
LINE
  5
B8C
330
1F
100
AcDbEntity
  8
2
  6
CONTINUOUS
370
25
 62
7
100
AcDbLine
 10
87.89999999999999
 20
5.499999999999996
 30
0.0
 11
89.89999999999999
 21
5.499999999999996
 31
0.0
  0
LINE
  5
B8D
330
1F
100
AcDbEntity
  8
2
  6
CONTINUOUS
370
25
 62
7
100
AcDbLine
 10
89.89999999999999
 20
5.499999999999996
 30
0.0
 11
88.89999999999999
 21
0.4999999999999965
 31
0.0
  0
LINE
  5
B8E
330
1F
100
AcDbEntity
  8
2
  6
CONTINUOUS
370
25
 62
7
100
AcDbLine
 10
88.888271207656
 20
0.5586439617198806
 30
0.0
 11
88.91759318851595
 21
0.587965942579828
 31
0.0
  0
LINE
  5
B8F
330
1F
100
AcDbEntity
  8
2
  6
CONTINUOUS
370
25
 62
7
100
AcDbLine
 10
88.81756052953736
 20
0.9121973523131572
 30
0.0
 11
89.02365920569395
 21
1.118296028469736
 31
0.0
  0
LINE
  5
B90
330
1F
100
AcDbEntity
  8
2
  6
CONTINUOUS
370
25
 62
7
100
AcDbLine
 10
88.7468498514187
 20
1.265750742906434
 30
0.0
 11
89.12972522287193
 21
1.648626114359658
 31
0.0
  0
LINE
  5
B91
330
1F
100
AcDbEntity
  8
2
  6
CONTINUOUS
370
25
 62
7
100
AcDbLine
 10
88.67613917330004
 20
1.61930413349971
 30
0.0
 11
89.2357912400499
 21
2.178956200249566
 31
0.0
  0
LINE
  5
B92
330
1F
100
AcDbEntity
  8
2
  6
CONTINUOUS
370
25
 62
7
100
AcDbLine
 10
88.6054284951814
 20
1.972857524092987
 30
0.0
 11
89.3418572572279
 21
2.709286286139488
 31
0.0
  0
LINE
  5
B93
330
1F
100
AcDbEntity
  8
2
  6
CONTINUOUS
370
25
 62
7
100
AcDbLine
 10
88.53471781706273
 20
2.326410914686264
 30
0.0
 11
89.44792327440587
 21
3.239616372029403
 31
0.0
  0
LINE
  5
B94
330
1F
100
AcDbEntity
  8
2
  6
CONTINUOUS
370
25
 62
7
100
AcDbLine
 10
88.46400713894408
 20
2.679964305279533
 30
0.0
 11
89.55398929158386
 21
3.769946457919318
 31
0.0
  0
LINE
  5
B95
330
1F
100
AcDbEntity
  8
2
  6
CONTINUOUS
370
25
 62
7
100
AcDbLine
 10
88.39329646082544
 20
3.033517695872824
 30
0.0
 11
89.66005530876183
 21
4.300276543809225
 31
0.0
  0
LINE
  5
B96
330
1F
100
AcDbEntity
  8
2
  6
CONTINUOUS
370
25
 62
7
100
AcDbLine
 10
88.32258578270678
 20
3.387071086466101
 30
0.0
 11
89.76612132593982
 21
4.830606629699133
 31
0.0
  0
LINE
  5
B97
330
1F
100
AcDbEntity
  8
2
  6
CONTINUOUS
370
25
 62
7
100
AcDbLine
 10
88.25187510458812
 20
3.740624477059377
 30
0.0
 11
89.8721873431178
 21
5.360936715589055
 31
0.0
  0
LINE
  5
B98
330
1F
100
AcDbEntity
  8
2
  6
CONTINUOUS
370
25
 62
7
100
AcDbLine
 10
88.18116442646946
 20
4.094177867652647
 30
0.0
 11
89.58698655881682
 21
5.5
 31
0.0
  0
LINE
  5
B99
330
1F
100
AcDbEntity
  8
2
  6
CONTINUOUS
370
25
 62
7
100
AcDbLine
 10
88.1104537483508
 20
4.447731258245923
 30
0.0
 11
89.1627224901049
 21
5.5
 31
0.0
  0
LINE
  5
B9A
330
1F
100
AcDbEntity
  8
2
  6
CONTINUOUS
370
25
 62
7
100
AcDbLine
 10
88.03974307023216
 20
4.801284648839207
 30
0.0
 11
88.73845842139295
 21
5.5
 31
0.0
  0
LINE
  5
B9B
330
1F
100
AcDbEntity
  8
2
  6
CONTINUOUS
370
25
 62
7
100
AcDbLine
 10
87.96903239211349
 20
5.154838039432477
 30
0.0
 11
88.31419435268101
 21
5.499999999999993
 31
0.0
  0
LINE
  5
B9C
330
1F
100
AcDbEntity
  8
2
  6
CONTINUOUS
370
25
 62
7
100
AcDbLine
 10
88.81839828220177
 20
0.9080085889910663
 30
0.0
 11
88.9544011451988
 21
0.7720057259940418
 31
0.0
  0
LINE
  5
B9D
330
1F
100
AcDbEntity
  8
2
  6
CONTINUOUS
370
25
 62
7
100
AcDbLine
 10
88.71233226502379
 20
1.438338674880988
 30
0.0
 11
89.02511182331746
 21
1.125559116587318
 31
0.0
  0
LINE
  5
B9E
330
1F
100
AcDbEntity
  8
2
  6
CONTINUOUS
370
25
 62
7
100
AcDbLine
 10
88.60626624784581
 20
1.968668760770896
 30
0.0
 11
89.09582250143612
 21
1.479112507180595
 31
0.0
  0
LINE
  5
B9F
330
1F
100
AcDbEntity
  8
2
  6
CONTINUOUS
370
25
 62
7
100
AcDbLine
 10
88.50020023066782
 20
2.498998846660818
 30
0.0
 11
89.16653317955476
 21
1.832665897773872
 31
0.0
  0
LINE
  5
BA0
330
1F
100
AcDbEntity
  8
2
  6
CONTINUOUS
370
25
 62
7
100
AcDbLine
 10
88.39413421348985
 20
3.029328932550726
 30
0.0
 11
89.23724385767342
 21
2.186219288367148
 31
0.0
  0
LINE
  5
BA1
330
1F
100
AcDbEntity
  8
2
  6
CONTINUOUS
370
25
 62
7
100
AcDbLine
 10
88.28806819631185
 20
3.559659018440648
 30
0.0
 11
89.30795453579208
 21
2.539772678960425
 31
0.0
  0
LINE
  5
BA2
330
1F
100
AcDbEntity
  8
2
  6
CONTINUOUS
370
25
 62
7
100
AcDbLine
 10
88.18200217913387
 20
4.089989104330563
 30
0.0
 11
89.37866521391074
 21
2.893326069553702
 31
0.0
  0
LINE
  5
BA3
330
1F
100
AcDbEntity
  8
2
  6
CONTINUOUS
370
25
 62
7
100
AcDbLine
 10
88.0759361619559
 20
4.620319190220478
 30
0.0
 11
89.4493758920294
 21
3.246879460146971
 31
0.0
  0
LINE
  5
BA4
330
1F
100
AcDbEntity
  8
2
  6
CONTINUOUS
370
25
 62
7
100
AcDbLine
 10
87.9698701447779
 20
5.150649276110393
 30
0.0
 11
89.52008657014804
 21
3.600432850740255
 31
0.0
  0
LINE
  5
BA5
330
1F
100
AcDbEntity
  8
2
  6
CONTINUOUS
370
25
 62
7
100
AcDbLine
 10
88.04478348960023
 20
5.5
 30
0.0
 11
89.5907972482667
 21
3.953986241333531
 31
0.0
  0
LINE
  5
BA6
330
1F
100
AcDbEntity
  8
2
  6
CONTINUOUS
370
25
 62
7
100
AcDbLine
 10
88.46904755831216
 20
5.5
 30
0.0
 11
89.66150792638535
 21
4.307539631926808
 31
0.0
  0
LINE
  5
BA7
330
1F
100
AcDbEntity
  8
2
  6
CONTINUOUS
370
25
 62
7
100
AcDbLine
 10
88.8933116270241
 20
5.499999999999993
 30
0.0
 11
89.73221860450401
 21
4.661093022520078
 31
0.0
  0
LINE
  5
BA8
330
1F
100
AcDbEntity
  8
2
  6
CONTINUOUS
370
25
 62
7
100
AcDbLine
 10
89.31757569573602
 20
5.499999999999993
 30
0.0
 11
89.80292928262267
 21
5.014646413113361
 31
0.0
  0
LINE
  5
BA9
330
1F
100
AcDbEntity
  8
2
  6
CONTINUOUS
370
25
 62
7
100
AcDbLine
 10
89.74183976444795
 20
5.5
 30
0.0
 11
89.87363996074131
 21
5.368199803706638
 31
0.0
  0
TEXT
  5
BAA
330
1F
100
AcDbEntity
  8
2
  6
CONTINUOUS
370
25
 62
7
100
AcDbText
 10
87.39999999999999
 20
11.42916666666666
 30
0.0
 40
3.5
  1
1
 50
90.00000000000001
 72
     1
 11
87.39999999999999
 21
12.0125
 31
0.0
100
AcDbText
  0
CIRCLE
  5
BAB
330
1F
100
AcDbEntity
  8
2
  6
CONTINUOUS
370
25
 62
7
100
AcDbCircle
 10
85.64999999999999
 20
8.687499999999996
 30
0.0
 40
1.4
  0
LINE
  5
BAC
330
1F
100
AcDbEntity
  8
2
  6
CONTINUOUS
370
25
 62
7
100
AcDbLine
 10
87.04999999999998
 20
7.287499999999998
 30
0.0
 11
84.25
 21
10.0875
 31
0.0
  0
LINE
  5
BAD
330
1F
100
AcDbEntity
  8
2
  6
CONTINUOUS
370
25
 62
7
100
AcDbLine
 10
57.5
 20
-0.5
 30
0.0
 11
57.5
 21
-13.5
 31
0.0
  0
LINE
  5
BAE
330
1F
100
AcDbEntity
  8
2
  6
CONTINUOUS
370
25
 62
7
100
AcDbLine
 10
60.0
 20
-13.5
 30
0.0
 11
60.0
 21
-0.5
 31
0.0
  0
LINE
  5
BAF
330
1F
100
AcDbEntity
  8
2
  6
CONTINUOUS
370
25
 62
7
100
AcDbLine
 10
50.5
 20
-12.5
 30
0.0
 11
75.925
 21
-12.5
 31
0.0
  0
LINE
  5
BB0
330
1F
100
AcDbEntity
  8
2
  6
CONTINUOUS
370
25
 62
7
100
AcDbLine
 10
57.5
 20
-12.5
 30
0.0
 11
52.5
 21
-13.5
 31
0.0
  0
LINE
  5
BB1
330
1F
100
AcDbEntity
  8
2
  6
CONTINUOUS
370
25
 62
7
100
AcDbLine
 10
52.5
 20
-13.5
 30
0.0
 11
52.5
 21
-11.5
 31
0.0
  0
LINE
  5
BB2
330
1F
100
AcDbEntity
  8
2
  6
CONTINUOUS
370
25
 62
7
100
AcDbLine
 10
52.5
 20
-11.5
 30
0.0
 11
57.5
 21
-12.5
 31
0.0
  0
LINE
  5
BB3
330
1F
100
AcDbEntity
  8
2
  6
CONTINUOUS
370
25
 62
7
100
AcDbLine
 10
57.2162277506863
 20
-12.55675444986274
 30
0.0
 11
57.31081850045753
 21
-12.46216370009151
 31
0.0
  0
LINE
  5
BB4
330
1F
100
AcDbEntity
  8
2
  6
CONTINUOUS
370
25
 62
7
100
AcDbLine
 10
56.68589766479639
 20
-12.66282046704072
 30
0.0
 11
56.95726510986426
 21
-12.39145302197285
 31
0.0
  0
LINE
  5
BB5
330
1F
100
AcDbEntity
  8
2
  6
CONTINUOUS
370
25
 62
7
100
AcDbLine
 10
56.15556757890648
 20
-12.7688864842187
 30
0.0
 11
56.60371171927099
 21
-12.3207423438542
 31
0.0
  0
LINE
  5
BB6
330
1F
100
AcDbEntity
  8
2
  6
CONTINUOUS
370
25
 62
7
100
AcDbLine
 10
55.62523749301657
 20
-12.87495250139668
 30
0.0
 11
56.25015832867771
 21
-12.25003166573554
 31
0.0
  0
LINE
  5
BB7
330
1F
100
AcDbEntity
  8
2
  6
CONTINUOUS
370
25
 62
7
100
AcDbLine
 10
55.09490740712666
 20
-12.98101851857466
 30
0.0
 11
55.89660493808444
 21
-12.17932098761689
 31
0.0
  0
LINE
  5
BB8
330
1F
100
AcDbEntity
  8
2
  6
CONTINUOUS
370
25
 62
7
100
AcDbLine
 10
54.56457732123675
 20
-13.08708453575265
 30
0.0
 11
55.54305154749117
 21
-12.10861030949824
 31
0.0
  0
LINE
  5
BB9
330
1F
100
AcDbEntity
  8
2
  6
CONTINUOUS
370
25
 62
7
100
AcDbLine
 10
54.03424723534685
 20
-13.19315055293063
 30
0.0
 11
55.18949815689789
 21
-12.03789963137958
 31
0.0
  0
LINE
  5
BBA
330
1F
100
AcDbEntity
  8
2
  6
CONTINUOUS
370
25
 62
7
100
AcDbLine
 10
53.50391714945693
 20
-13.29921657010861
 30
0.0
 11
54.83594476630462
 21
-11.96718895326093
 31
0.0
  0
LINE
  5
BBB
330
1F
100
AcDbEntity
  8
2
  6
CONTINUOUS
370
25
 62
7
100
AcDbLine
 10
52.97358706356702
 20
-13.40528258728659
 30
0.0
 11
54.48239137571134
 21
-11.89647827514227
 31
0.0
  0
LINE
  5
BBC
330
1F
100
AcDbEntity
  8
2
  6
CONTINUOUS
370
25
 62
7
100
AcDbLine
 10
52.5
 20
-13.45460558214169
 30
0.0
 11
54.12883798511807
 21
-11.82576759702362
 31
0.0
  0
LINE
  5
BBD
330
1F
100
AcDbEntity
  8
2
  6
CONTINUOUS
370
25
 62
7
100
AcDbLine
 10
52.5
 20
-13.03034151342976
 30
0.0
 11
53.7752845945248
 21
-11.75505691890496
 31
0.0
  0
LINE
  5
BBE
330
1F
100
AcDbEntity
  8
2
  6
CONTINUOUS
370
25
 62
7
100
AcDbLine
 10
52.5
 20
-12.60607744471784
 30
0.0
 11
53.42173120393153
 21
-11.68434624078631
 31
0.0
  0
LINE
  5
BBF
330
1F
100
AcDbEntity
  8
2
  6
CONTINUOUS
370
25
 62
7
100
AcDbLine
 10
52.5
 20
-12.18181337600591
 30
0.0
 11
53.06817781333825
 21
-11.61363556266765
 31
0.0
  0
LINE
  5
BC0
330
1F
100
AcDbEntity
  8
2
  6
CONTINUOUS
370
25
 62
7
100
AcDbLine
 10
52.5
 20
-11.75754930729398
 30
0.0
 11
52.71462442274498
 21
-11.542924884549
 31
0.0
  0
LINE
  5
BC1
330
1F
100
AcDbEntity
  8
2
  6
CONTINUOUS
370
25
 62
7
100
AcDbLine
 10
52.5
 20
-13.41928088031426
 30
0.0
 11
52.56726593307145
 21
-13.48654681338571
 31
0.0
  0
LINE
  5
BC2
330
1F
100
AcDbEntity
  8
2
  6
CONTINUOUS
370
25
 62
7
100
AcDbLine
 10
52.5
 20
-12.99501681160233
 30
0.0
 11
52.92081932366472
 21
-13.41583613526705
 31
0.0
  0
LINE
  5
BC3
330
1F
100
AcDbEntity
  8
2
  6
CONTINUOUS
370
25
 62
7
100
AcDbLine
 10
52.5
 20
-12.5707527428904
 30
0.0
 11
53.27437271425799
 21
-13.3451254571484
 31
0.0
  0
LINE
  5
BC4
330
1F
100
AcDbEntity
  8
2
  6
CONTINUOUS
370
25
 62
7
100
AcDbLine
 10
52.5
 20
-12.14648867417847
 30
0.0
 11
53.62792610485127
 21
-13.27441477902975
 31
0.0
  0
LINE
  5
BC5
330
1F
100
AcDbEntity
  8
2
  6
CONTINUOUS
370
25
 62
7
100
AcDbLine
 10
52.5
 20
-11.72222460546655
 30
0.0
 11
53.98147949544454
 21
-13.20370410091109
 31
0.0
  0
LINE
  5
BC6
330
1F
100
AcDbEntity
  8
2
  6
CONTINUOUS
370
25
 62
7
100
AcDbLine
 10
52.75254932905672
 20
-11.55050986581135
 30
0.0
 11
54.33503288603782
 21
-13.13299342279243
 31
0.0
  0
LINE
  5
BC7
330
1F
100
AcDbEntity
  8
2
  6
CONTINUOUS
370
25
 62
7
100
AcDbLine
 10
53.28287941494663
 20
-11.65657588298933
 30
0.0
 11
54.68858627663109
 21
-13.06228274467378
 31
0.0
  0
LINE
  5
BC8
330
1F
100
AcDbEntity
  8
2
  6
CONTINUOUS
370
25
 62
7
100
AcDbLine
 10
53.81320950083654
 20
-11.76264190016731
 30
0.0
 11
55.04213966722436
 21
-12.99157206655513
 31
0.0
  0
LINE
  5
BC9
330
1F
100
AcDbEntity
  8
2
  6
CONTINUOUS
370
25
 62
7
100
AcDbLine
 10
54.34353958672646
 20
-11.86870791734529
 30
0.0
 11
55.39569305781764
 21
-12.92086138843647
 31
0.0
  0
LINE
  5
BCA
330
1F
100
AcDbEntity
  8
2
  6
CONTINUOUS
370
25
 62
7
100
AcDbLine
 10
54.87386967261637
 20
-11.97477393452327
 30
0.0
 11
55.74924644841091
 21
-12.85015071031782
 31
0.0
  0
LINE
  5
BCB
330
1F
100
AcDbEntity
  8
2
  6
CONTINUOUS
370
25
 62
7
100
AcDbLine
 10
55.40419975850628
 20
-12.08083995170126
 30
0.0
 11
56.10279983900418
 21
-12.77944003219916
 31
0.0
  0
LINE
  5
BCC
330
1F
100
AcDbEntity
  8
2
  6
CONTINUOUS
370
25
 62
7
100
AcDbLine
 10
55.93452984439619
 20
-12.18690596887924
 30
0.0
 11
56.45635322959745
 21
-12.70872935408051
 31
0.0
  0
LINE
  5
BCD
330
1F
100
AcDbEntity
  8
2
  6
CONTINUOUS
370
25
 62
7
100
AcDbLine
 10
56.4648599302861
 20
-12.29297198605722
 30
0.0
 11
56.80990662019073
 21
-12.63801867596185
 31
0.0
  0
LINE
  5
BCE
330
1F
100
AcDbEntity
  8
2
  6
CONTINUOUS
370
25
 62
7
100
AcDbLine
 10
56.99519001617601
 20
-12.3990380032352
 30
0.0
 11
57.16346001078401
 21
-12.5673079978432
 31
0.0
  0
LINE
  5
BCF
330
1F
100
AcDbEntity
  8
2
  6
CONTINUOUS
370
25
 62
7
100
AcDbLine
 10
60.0
 20
-12.5
 30
0.0
 11
65.0
 21
-11.5
 31
0.0
  0
LINE
  5
BD0
330
1F
100
AcDbEntity
  8
2
  6
CONTINUOUS
370
25
 62
7
100
AcDbLine
 10
65.0
 20
-11.5
 30
0.0
 11
65.0
 21
-13.5
 31
0.0
  0
LINE
  5
BD1
330
1F
100
AcDbEntity
  8
2
  6
CONTINUOUS
370
25
 62
7
100
AcDbLine
 10
65.0
 20
-13.5
 30
0.0
 11
60.0
 21
-12.5
 31
0.0
  0
LINE
  5
BD2
330
1F
100
AcDbEntity
  8
2
  6
CONTINUOUS
370
25
 62
7
100
AcDbLine
 10
64.9241843082251
 20
-13.48483686164503
 30
0.0
 11
65.0
 21
-13.40902116987013
 31
0.0
  0
LINE
  5
BD3
330
1F
100
AcDbEntity
  8
2
  6
CONTINUOUS
370
25
 62
7
100
AcDbLine
 10
64.57063091763183
 20
-13.41412618352637
 30
0.0
 11
65.0
 21
-12.9847571011582
 31
0.0
  0
LINE
  5
BD4
330
1F
100
AcDbEntity
  8
2
  6
CONTINUOUS
370
25
 62
7
100
AcDbLine
 10
64.21707752703855
 20
-13.34341550540772
 30
0.0
 11
65.0
 21
-12.56049303244627
 31
0.0
  0
LINE
  5
BD5
330
1F
100
AcDbEntity
  8
2
  6
CONTINUOUS
370
25
 62
7
100
AcDbLine
 10
63.86352413644528
 20
-13.27270482728906
 30
0.0
 11
65.0
 21
-12.13622896373434
 31
0.0
  0
LINE
  5
BD6
330
1F
100
AcDbEntity
  8
2
  6
CONTINUOUS
370
25
 62
7
100
AcDbLine
 10
63.509970745852
 20
-13.20199414917041
 30
0.0
 11
65.0
 21
-11.71196489502242
 31
0.0
  0
LINE
  5
BD7
330
1F
100
AcDbEntity
  8
2
  6
CONTINUOUS
370
25
 62
7
100
AcDbLine
 10
63.15641735525873
 20
-13.13128347105175
 30
0.0
 11
64.7346260328881
 21
-11.55307479342238
 31
0.0
  0
LINE
  5
BD8
330
1F
100
AcDbEntity
  8
2
  6
CONTINUOUS
370
25
 62
7
100
AcDbLine
 10
62.80286396466546
 20
-13.06057279293309
 30
0.0
 11
64.2042959469982
 21
-11.65914081060036
 31
0.0
  0
LINE
  5
BD9
330
1F
100
AcDbEntity
  8
2
  6
CONTINUOUS
370
25
 62
7
100
AcDbLine
 10
62.44931057407219
 20
-12.98986211481444
 30
0.0
 11
63.67396586110829
 21
-11.76520682777834
 31
0.0
  0
LINE
  5
BDA
330
1F
100
AcDbEntity
  8
2
  6
CONTINUOUS
370
25
 62
7
100
AcDbLine
 10
62.09575718347892
 20
-12.91915143669578
 30
0.0
 11
63.14363577521838
 21
-11.87127284495632
 31
0.0
  0
LINE
  5
BDB
330
1F
100
AcDbEntity
  8
2
  6
CONTINUOUS
370
25
 62
7
100
AcDbLine
 10
61.74220379288564
 20
-12.84844075857713
 30
0.0
 11
62.61330568932847
 21
-11.9773388621343
 31
0.0
  0
LINE
  5
BDC
330
1F
100
AcDbEntity
  8
2
  6
CONTINUOUS
370
25
 62
7
100
AcDbLine
 10
61.38865040229237
 20
-12.77773008045848
 30
0.0
 11
62.08297560343856
 21
-12.08340487931229
 31
0.0
  0
LINE
  5
BDD
330
1F
100
AcDbEntity
  8
2
  6
CONTINUOUS
370
25
 62
7
100
AcDbLine
 10
61.03509701169909
 20
-12.70701940233982
 30
0.0
 11
61.55264551754865
 21
-12.18947089649027
 31
0.0
  0
LINE
  5
BDE
330
1F
100
AcDbEntity
  8
2
  6
CONTINUOUS
370
25
 62
7
100
AcDbLine
 10
60.68154362110582
 20
-12.63630872422117
 30
0.0
 11
61.02231543165874
 21
-12.29553691366825
 31
0.0
  0
LINE
  5
BDF
330
1F
100
AcDbEntity
  8
2
  6
CONTINUOUS
370
25
 62
7
100
AcDbLine
 10
60.32799023051255
 20
-12.56559804610251
 30
0.0
 11
60.49198534576882
 21
-12.40160293084623
 31
0.0
  0
LINE
  5
BE0
330
1F
100
AcDbEntity
  8
2
  6
CONTINUOUS
370
25
 62
7
100
AcDbLine
 10
60.180631740839
 20
-12.4638736518322
 30
0.0
 11
60.27094761125851
 21
-12.5541895222517
 31
0.0
  0
LINE
  5
BE1
330
1F
100
AcDbEntity
  8
2
  6
CONTINUOUS
370
25
 62
7
100
AcDbLine
 10
60.53418513143228
 20
-12.39316297371354
 30
0.0
 11
60.80127769714842
 21
-12.66025553942969
 31
0.0
  0
LINE
  5
BE2
330
1F
100
AcDbEntity
  8
2
  6
CONTINUOUS
370
25
 62
7
100
AcDbLine
 10
60.88773852202555
 20
-12.32245229559489
 30
0.0
 11
61.33160778303833
 21
-12.76632155660767
 31
0.0
  0
LINE
  5
BE3
330
1F
100
AcDbEntity
  8
2
  6
CONTINUOUS
370
25
 62
7
100
AcDbLine
 10
61.24129191261883
 20
-12.25174161747623
 30
0.0
 11
61.86193786892824
 21
-12.87238757378565
 31
0.0
  0
LINE
  5
BE4
330
1F
100
AcDbEntity
  8
2
  6
CONTINUOUS
370
25
 62
7
100
AcDbLine
 10
61.5948453032121
 20
-12.18103093935758
 30
0.0
 11
62.39226795481815
 21
-12.97845359096363
 31
0.0
  0
LINE
  5
BE5
330
1F
100
AcDbEntity
  8
2
  6
CONTINUOUS
370
25
 62
7
100
AcDbLine
 10
61.94839869380537
 20
-12.11032026123893
 30
0.0
 11
62.92259804070806
 21
-13.08451960814161
 31
0.0
  0
LINE
  5
BE6
330
1F
100
AcDbEntity
  8
2
  6
CONTINUOUS
370
25
 62
7
100
AcDbLine
 10
62.30195208439864
 20
-12.03960958312027
 30
0.0
 11
63.45292812659797
 21
-13.19058562531959
 31
0.0
  0
LINE
  5
BE7
330
1F
100
AcDbEntity
  8
2
  6
CONTINUOUS
370
25
 62
7
100
AcDbLine
 10
62.65550547499191
 20
-11.96889890500161
 30
0.0
 11
63.98325821248788
 21
-13.29665164249758
 31
0.0
  0
LINE
  5
BE8
330
1F
100
AcDbEntity
  8
2
  6
CONTINUOUS
370
25
 62
7
100
AcDbLine
 10
63.00905886558519
 20
-11.89818822688296
 30
0.0
 11
64.5135882983778
 21
-13.40271765967556
 31
0.0
  0
LINE
  5
BE9
330
1F
100
AcDbEntity
  8
2
  6
CONTINUOUS
370
25
 62
7
100
AcDbLine
 10
63.36261225617847
 20
-11.8274775487643
 30
0.0
 11
65.0
 21
-13.46486529258583
 31
0.0
  0
LINE
  5
BEA
330
1F
100
AcDbEntity
  8
2
  6
CONTINUOUS
370
25
 62
7
100
AcDbLine
 10
63.71616564677174
 20
-11.75676687064565
 30
0.0
 11
65.0
 21
-13.04060122387391
 31
0.0
  0
LINE
  5
BEB
330
1F
100
AcDbEntity
  8
2
  6
CONTINUOUS
370
25
 62
7
100
AcDbLine
 10
64.06971903736502
 20
-11.68605619252699
 30
0.0
 11
65.0
 21
-12.61633715516198
 31
0.0
  0
LINE
  5
BEC
330
1F
100
AcDbEntity
  8
2
  6
CONTINUOUS
370
25
 62
7
100
AcDbLine
 10
64.42327242795828
 20
-11.61534551440834
 30
0.0
 11
65.0
 21
-12.19207308645005
 31
0.0
  0
LINE
  5
BED
330
1F
100
AcDbEntity
  8
2
  6
CONTINUOUS
370
25
 62
7
100
AcDbLine
 10
64.77682581855156
 20
-11.54463483628968
 30
0.0
 11
65.0
 21
-11.76780901773812
 31
0.0
  0
TEXT
  5
BEE
330
1F
100
AcDbEntity
  8
2
  6
CONTINUOUS
370
25
 62
7
100
AcDbText
 10
66.96249999999999
 20
-11.0
 30
0.0
 40
3.5
  1
2.5
 72
     1
 11
70.46249999999999
 21
-11.0
 31
0.0
100
AcDbText
  0
LINE
  5
BEF
330
1F
100
AcDbEntity
  8
2
  6
CONTINUOUS
370
25
 62
7
100
AcDbLine
 10
47.3
 20
0.0
 30
0.0
 11
47.3
 21
25.99995
 31
0.0
  0
LINE
  5
BF0
330
1F
100
AcDbEntity
  8
2
  6
CONTINUOUS
370
25
 62
7
100
AcDbLine
 10
60.0
 20
25.99995
 30
0.0
 11
60.0
 21
0.5
 31
0.0
  0
LINE
  5
BF1
330
1F
100
AcDbEntity
  8
2
  6
CONTINUOUS
370
25
 62
7
100
AcDbLine
 10
40.3
 20
24.99995
 30
0.0
 11
78.9
 21
24.99995
 31
0.0
  0
LINE
  5
BF2
330
1F
100
AcDbEntity
  8
2
  6
CONTINUOUS
370
25
 62
7
100
AcDbLine
 10
47.3
 20
24.99995
 30
0.0
 11
42.3
 21
23.99995
 31
0.0
  0
LINE
  5
BF3
330
1F
100
AcDbEntity
  8
2
  6
CONTINUOUS
370
25
 62
7
100
AcDbLine
 10
42.3
 20
23.99995
 30
0.0
 11
42.3
 21
25.99995
 31
0.0
  0
LINE
  5
BF4
330
1F
100
AcDbEntity
  8
2
  6
CONTINUOUS
370
25
 62
7
100
AcDbLine
 10
42.3
 20
25.99995
 30
0.0
 11
47.3
 21
24.99995
 31
0.0
  0
LINE
  5
BF5
330
1F
100
AcDbEntity
  8
2
  6
CONTINUOUS
370
25
 62
7
100
AcDbLine
 10
47.26046243249531
 20
24.99204248649906
 30
0.0
 11
47.27364162166354
 21
25.00522167566729
 31
0.0
  0
LINE
  5
BF6
330
1F
100
AcDbEntity
  8
2
  6
CONTINUOUS
370
25
 62
7
100
AcDbLine
 10
46.73013234660539
 20
24.88597646932108
 30
0.0
 11
46.92008823107027
 21
25.07593235378594
 31
0.0
  0
LINE
  5
BF7
330
1F
100
AcDbEntity
  8
2
  6
CONTINUOUS
370
25
 62
7
100
AcDbLine
 10
46.19980226071549
 20
24.7799104521431
 30
0.0
 11
46.56653484047699
 21
25.1466430319046
 31
0.0
  0
LINE
  5
BF8
330
1F
100
AcDbEntity
  8
2
  6
CONTINUOUS
370
25
 62
7
100
AcDbLine
 10
45.66947217482558
 20
24.67384443496512
 30
0.0
 11
46.21298144988372
 21
25.21735371002325
 31
0.0
  0
LINE
  5
BF9
330
1F
100
AcDbEntity
  8
2
  6
CONTINUOUS
370
25
 62
7
100
AcDbLine
 10
45.13914208893566
 20
24.56777841778713
 30
0.0
 11
45.85942805929044
 21
25.28806438814191
 31
0.0
  0
LINE
  5
BFA
330
1F
100
AcDbEntity
  8
2
  6
CONTINUOUS
370
25
 62
7
100
AcDbLine
 10
44.60881200304576
 20
24.46171240060915
 30
0.0
 11
45.50587466869717
 21
25.35877506626056
 31
0.0
  0
LINE
  5
BFB
330
1F
100
AcDbEntity
  8
2
  6
CONTINUOUS
370
25
 62
7
100
AcDbLine
 10
44.07848191715585
 20
24.35564638343117
 30
0.0
 11
45.1523212781039
 21
25.42948574437922
 31
0.0
  0
LINE
  5
BFC
330
1F
100
AcDbEntity
  8
2
  6
CONTINUOUS
370
25
 62
7
100
AcDbLine
 10
43.54815183126594
 20
24.24958036625319
 30
0.0
 11
44.79876788751062
 21
25.50019642249787
 31
0.0
  0
LINE
  5
BFD
330
1F
100
AcDbEntity
  8
2
  6
CONTINUOUS
370
25
 62
7
100
AcDbLine
 10
43.01782174537603
 20
24.1435143490752
 30
0.0
 11
44.44521449691735
 21
25.57090710061653
 31
0.0
  0
LINE
  5
BFE
330
1F
100
AcDbEntity
  8
2
  6
CONTINUOUS
370
25
 62
7
100
AcDbLine
 10
42.48749165948612
 20
24.03744833189722
 30
0.0
 11
44.09166110632408
 21
25.64161777873518
 31
0.0
  0
LINE
  5
BFF
330
1F
100
AcDbEntity
  8
2
  6
CONTINUOUS
370
25
 62
7
100
AcDbLine
 10
42.3
 20
24.27422074112303
 30
0.0
 11
43.73810771573081
 21
25.71232845685384
 31
0.0
  0
LINE
  5
C00
330
1F
100
AcDbEntity
  8
2
  6
CONTINUOUS
370
25
 62
7
100
AcDbLine
 10
42.3
 20
24.69848480983496
 30
0.0
 11
43.38455432513753
 21
25.78303913497249
 31
0.0
  0
LINE
  5
C01
330
1F
100
AcDbEntity
  8
2
  6
CONTINUOUS
370
25
 62
7
100
AcDbLine
 10
42.3
 20
25.12274887854688
 30
0.0
 11
43.03100093454426
 21
25.85374981309115
 31
0.0
  0
LINE
  5
C02
330
1F
100
AcDbEntity
  8
2
  6
CONTINUOUS
370
25
 62
7
100
AcDbLine
 10
42.3
 20
25.54701294725881
 30
0.0
 11
42.67744754395099
 21
25.9244604912098
 31
0.0
  0
LINE
  5
C03
330
1F
100
AcDbEntity
  8
2
  6
CONTINUOUS
370
25
 62
7
100
AcDbLine
 10
42.3
 20
25.97127701597074
 30
0.0
 11
42.32389415335771
 21
25.99517116932845
 31
0.0
  0
LINE
  5
C04
330
1F
100
AcDbEntity
  8
2
  6
CONTINUOUS
370
25
 62
7
100
AcDbLine
 10
42.3
 20
24.09188309203675
 30
0.0
 11
42.37661091003062
 21
24.01527218200612
 31
0.0
  0
LINE
  5
C05
330
1F
100
AcDbEntity
  8
2
  6
CONTINUOUS
370
25
 62
7
100
AcDbLine
 10
42.3
 20
24.51614716074868
 30
0.0
 11
42.7301643006239
 21
24.08598286012478
 31
0.0
  0
LINE
  5
C06
330
1F
100
AcDbEntity
  8
2
  6
CONTINUOUS
370
25
 62
7
100
AcDbLine
 10
42.3
 20
24.9404112294606
 30
0.0
 11
43.08371769121717
 21
24.15669353824343
 31
0.0
  0
LINE
  5
C07
330
1F
100
AcDbEntity
  8
2
  6
CONTINUOUS
370
25
 62
7
100
AcDbLine
 10
42.3
 20
25.36467529817253
 30
0.0
 11
43.43727108181044
 21
24.22740421636209
 31
0.0
  0
LINE
  5
C08
330
1F
100
AcDbEntity
  8
2
  6
CONTINUOUS
370
25
 62
7
100
AcDbLine
 10
42.3
 20
25.78893936688446
 30
0.0
 11
43.79082447240371
 21
24.29811489448074
 31
0.0
  0
LINE
  5
C09
330
1F
100
AcDbEntity
  8
2
  6
CONTINUOUS
370
25
 62
7
100
AcDbLine
 10
42.56656679449548
 20
25.9466366411009
 30
0.0
 11
44.14437786299699
 21
24.3688255725994
 31
0.0
  0
LINE
  5
C0A
330
1F
100
AcDbEntity
  8
2
  6
CONTINUOUS
370
25
 62
7
100
AcDbLine
 10
43.09689688038539
 20
25.84057062392292
 30
0.0
 11
44.49793125359027
 21
24.43953625071805
 31
0.0
  0
LINE
  5
C0B
330
1F
100
AcDbEntity
  8
2
  6
CONTINUOUS
370
25
 62
7
100
AcDbLine
 10
43.6272269662753
 20
25.73450460674494
 30
0.0
 11
44.85148464418354
 21
24.51024692883671
 31
0.0
  0
LINE
  5
C0C
330
1F
100
AcDbEntity
  8
2
  6
CONTINUOUS
370
25
 62
7
100
AcDbLine
 10
44.15755705216521
 20
25.62843858956695
 30
0.0
 11
45.20503803477681
 21
24.58095760695536
 31
0.0
  0
LINE
  5
C0D
330
1F
100
AcDbEntity
  8
2
  6
CONTINUOUS
370
25
 62
7
100
AcDbLine
 10
44.68788713805512
 20
25.52237257238897
 30
0.0
 11
45.55859142537008
 21
24.65166828507402
 31
0.0
  0
LINE
  5
C0E
330
1F
100
AcDbEntity
  8
2
  6
CONTINUOUS
370
25
 62
7
100
AcDbLine
 10
45.21821722394503
 20
25.41630655521099
 30
0.0
 11
45.91214481596335
 21
24.72237896319267
 31
0.0
  0
LINE
  5
C0F
330
1F
100
AcDbEntity
  8
2
  6
CONTINUOUS
370
25
 62
7
100
AcDbLine
 10
45.74854730983494
 20
25.31024053803301
 30
0.0
 11
46.26569820655663
 21
24.79308964131133
 31
0.0
  0
LINE
  5
C10
330
1F
100
AcDbEntity
  8
2
  6
CONTINUOUS
370
25
 62
7
100
AcDbLine
 10
46.27887739572486
 20
25.20417452085503
 30
0.0
 11
46.6192515971499
 21
24.86380031942998
 31
0.0
  0
LINE
  5
C11
330
1F
100
AcDbEntity
  8
2
  6
CONTINUOUS
370
25
 62
7
100
AcDbLine
 10
46.80920748161476
 20
25.09810850367705
 30
0.0
 11
46.97280498774317
 21
24.93451099754864
 31
0.0
  0
LINE
  5
C12
330
1F
100
AcDbEntity
  8
2
  6
CONTINUOUS
370
25
 62
7
100
AcDbLine
 10
60.0
 20
24.99995
 30
0.0
 11
65.0
 21
25.99995
 31
0.0
  0
LINE
  5
C13
330
1F
100
AcDbEntity
  8
2
  6
CONTINUOUS
370
25
 62
7
100
AcDbLine
 10
65.0
 20
25.99995
 30
0.0
 11
65.0
 21
23.99995
 31
0.0
  0
LINE
  5
C14
330
1F
100
AcDbEntity
  8
2
  6
CONTINUOUS
370
25
 62
7
100
AcDbLine
 10
65.0
 20
23.99995
 30
0.0
 11
60.0
 21
24.99995
 31
0.0
  0
LINE
  5
C15
330
1F
100
AcDbEntity
  8
2
  6
CONTINUOUS
370
25
 62
7
100
AcDbLine
 10
64.94665747443423
 20
24.01061850511315
 30
0.0
 11
65.0
 21
24.06396103067893
 31
0.0
  0
LINE
  5
C16
330
1F
100
AcDbEntity
  8
2
  6
CONTINUOUS
370
25
 62
7
100
AcDbLine
 10
64.59310408384096
 20
24.08132918323181
 30
0.0
 11
65.0
 21
24.48822509939085
 31
0.0
  0
LINE
  5
C17
330
1F
100
AcDbEntity
  8
2
  6
CONTINUOUS
370
25
 62
7
100
AcDbLine
 10
64.23955069324768
 20
24.15203986135046
 30
0.0
 11
65.0
 21
24.91248916810278
 31
0.0
  0
LINE
  5
C18
330
1F
100
AcDbEntity
  8
2
  6
CONTINUOUS
370
25
 62
7
100
AcDbLine
 10
63.8859973026544
 20
24.22275053946912
 30
0.0
 11
65.0
 21
25.33675323681471
 31
0.0
  0
LINE
  5
C19
330
1F
100
AcDbEntity
  8
2
  6
CONTINUOUS
370
25
 62
7
100
AcDbLine
 10
63.53244391206113
 20
24.29346121758777
 30
0.0
 11
65.0
 21
25.76101730552664
 31
0.0
  0
LINE
  5
C1A
330
1F
100
AcDbEntity
  8
2
  6
CONTINUOUS
370
25
 62
7
100
AcDbLine
 10
63.17889052146786
 20
24.36417189570643
 30
0.0
 11
64.76833578220179
 21
25.95361715644036
 31
0.0
  0
LINE
  5
C1B
330
1F
100
AcDbEntity
  8
2
  6
CONTINUOUS
370
25
 62
7
100
AcDbLine
 10
62.82533713087459
 20
24.43488257382508
 30
0.0
 11
64.23800569631189
 21
25.84755113926238
 31
0.0
  0
LINE
  5
C1C
330
1F
100
AcDbEntity
  8
2
  6
CONTINUOUS
370
25
 62
7
100
AcDbLine
 10
62.47178374028132
 20
24.50559325194374
 30
0.0
 11
63.70767561042197
 21
25.74148512208439
 31
0.0
  0
LINE
  5
C1D
330
1F
100
AcDbEntity
  8
2
  6
CONTINUOUS
370
25
 62
7
100
AcDbLine
 10
62.11823034968804
 20
24.57630393006239
 30
0.0
 11
63.17734552453206
 21
25.63541910490641
 31
0.0
  0
LINE
  5
C1E
330
1F
100
AcDbEntity
  8
2
  6
CONTINUOUS
370
25
 62
7
100
AcDbLine
 10
61.76467695909477
 20
24.64701460818105
 30
0.0
 11
62.64701543864216
 21
25.52935308772843
 31
0.0
  0
LINE
  5
C1F
330
1F
100
AcDbEntity
  8
2
  6
CONTINUOUS
370
25
 62
7
100
AcDbLine
 10
61.41112356850149
 20
24.7177252862997
 30
0.0
 11
62.11668535275224
 21
25.42328707055045
 31
0.0
  0
LINE
  5
C20
330
1F
100
AcDbEntity
  8
2
  6
CONTINUOUS
370
25
 62
7
100
AcDbLine
 10
61.05757017790822
 20
24.78843596441835
 30
0.0
 11
61.58635526686233
 21
25.31722105337247
 31
0.0
  0
LINE
  5
C21
330
1F
100
AcDbEntity
  8
2
  6
CONTINUOUS
370
25
 62
7
100
AcDbLine
 10
60.70401678731495
 20
24.85914664253701
 30
0.0
 11
61.05602518097243
 21
25.21115503619448
 31
0.0
  0
LINE
  5
C22
330
1F
100
AcDbEntity
  8
2
  6
CONTINUOUS
370
25
 62
7
100
AcDbLine
 10
60.35046339672168
 20
24.92985732065566
 30
0.0
 11
60.52569509508251
 21
25.1050890190165
 31
0.0
  0
LINE
  5
C23
330
1F
100
AcDbEntity
  8
2
  6
CONTINUOUS
370
25
 62
7
100
AcDbLine
 10
60.04962676280135
 20
25.00987535256027
 30
0.0
 11
60.07444014420203
 21
24.98506197115959
 31
0.0
  0
LINE
  5
C24
330
1F
100
AcDbEntity
  8
2
  6
CONTINUOUS
370
25
 62
7
100
AcDbLine
 10
60.40318015339462
 20
25.08058603067892
 30
0.0
 11
60.60477023009193
 21
24.87899595398161
 31
0.0
  0
LINE
  5
C25
330
1F
100
AcDbEntity
  8
2
  6
CONTINUOUS
370
25
 62
7
100
AcDbLine
 10
60.75673354398789
 20
25.15129670879758
 30
0.0
 11
61.13510031598184
 21
24.77292993680363
 31
0.0
  0
LINE
  5
C26
330
1F
100
AcDbEntity
  8
2
  6
CONTINUOUS
370
25
 62
7
100
AcDbLine
 10
61.11028693458117
 20
25.22200738691623
 30
0.0
 11
61.66543040187175
 21
24.66686391962565
 31
0.0
  0
LINE
  5
C27
330
1F
100
AcDbEntity
  8
2
  6
CONTINUOUS
370
25
 62
7
100
AcDbLine
 10
61.46384032517444
 20
25.29271806503489
 30
0.0
 11
62.19576048776166
 21
24.56079790244766
 31
0.0
  0
LINE
  5
C28
330
1F
100
AcDbEntity
  8
2
  6
CONTINUOUS
370
25
 62
7
100
AcDbLine
 10
61.81739371576771
 20
25.36342874315354
 30
0.0
 11
62.72609057365158
 21
24.45473188526968
 31
0.0
  0
LINE
  5
C29
330
1F
100
AcDbEntity
  8
2
  6
CONTINUOUS
370
25
 62
7
100
AcDbLine
 10
62.17094710636099
 20
25.43413942127219
 30
0.0
 11
63.25642065954148
 21
24.3486658680917
 31
0.0
  0
LINE
  5
C2A
330
1F
100
AcDbEntity
  8
2
  6
CONTINUOUS
370
25
 62
7
100
AcDbLine
 10
62.52450049695426
 20
25.50485009939085
 30
0.0
 11
63.78675074543139
 21
24.24259985091372
 31
0.0
  0
LINE
  5
C2B
330
1F
100
AcDbEntity
  8
2
  6
CONTINUOUS
370
25
 62
7
100
AcDbLine
 10
62.87805388754754
 20
25.57556077750951
 30
0.0
 11
64.3170808313213
 21
24.13653383373574
 31
0.0
  0
LINE
  5
C2C
330
1F
100
AcDbEntity
  8
2
  6
CONTINUOUS
370
25
 62
7
100
AcDbLine
 10
63.23160727814081
 20
25.64627145562816
 30
0.0
 11
64.84741091721122
 21
24.03046781655776
 31
0.0
  0
LINE
  5
C2D
330
1F
100
AcDbEntity
  8
2
  6
CONTINUOUS
370
25
 62
7
100
AcDbLine
 10
63.58516066873408
 20
25.71698213374681
 30
0.0
 11
65.0
 21
24.3021428024809
 31
0.0
  0
LINE
  5
C2E
330
1F
100
AcDbEntity
  8
2
  6
CONTINUOUS
370
25
 62
7
100
AcDbLine
 10
63.93871405932735
 20
25.78769281186547
 30
0.0
 11
65.0
 21
24.72640687119283
 31
0.0
  0
LINE
  5
C2F
330
1F
100
AcDbEntity
  8
2
  6
CONTINUOUS
370
25
 62
7
100
AcDbLine
 10
64.29226744992063
 20
25.85840348998412
 30
0.0
 11
65.0
 21
25.15067093990475
 31
0.0
  0
LINE
  5
C30
330
1F
100
AcDbEntity
  8
2
  6
CONTINUOUS
370
25
 62
7
100
AcDbLine
 10
64.6458208405139
 20
25.92911416810278
 30
0.0
 11
65.0
 21
25.57493500861668
 31
0.0
  0
LINE
  5
C31
330
1F
100
AcDbEntity
  8
2
  6
CONTINUOUS
370
25
 62
7
100
AcDbLine
 10
64.99937423110717
 20
25.99982484622143
 30
0.0
 11
65.0
 21
25.99919907732861
 31
0.0
  0
TEXT
  5
C32
330
1F
100
AcDbEntity
  8
2
  6
CONTINUOUS
370
25
 62
7
100
AcDbText
 10
67.28333333333332
 20
26.49995
 30
0.0
 40
3.5
  1
12.7
 72
     1
 11
71.94999999999999
 21
26.49995
 31
0.0
100
AcDbText
  0
LINE
  5
C33
330
1F
100
AcDbEntity
  8
SK2
  6
CONTINUOUS
370
25
 62
7
100
AcDbLine
 10
0.0
 20
0.9999500000000001
 30
0.0
 11
0.0
 21
35.99995
 31
0.0
  0
LINE
  5
C34
330
1F
100
AcDbEntity
  8
SK2
  6
CONTINUOUS
370
25
 62
7
100
AcDbLine
 10
60.0
 20
35.99995
 30
0.0
 11
60.0
 21
0.5
 31
0.0
  0
LINE
  5
C35
330
1F
100
AcDbEntity
  8
SK2
  6
CONTINUOUS
370
25
 62
7
100
AcDbLine
 10
0.0
 20
34.99995
 30
0.0
 11
60.0
 21
34.99995
 31
0.0
  0
LINE
  5
C36
330
1F
100
AcDbEntity
  8
SK2
  6
CONTINUOUS
370
25
 62
7
100
AcDbLine
 10
0.0
 20
34.99995
 30
0.0
 11
5.0
 21
35.99995
 31
0.0
  0
LINE
  5
C37
330
1F
100
AcDbEntity
  8
SK2
  6
CONTINUOUS
370
25
 62
7
100
AcDbLine
 10
5.0
 20
35.99995
 30
0.0
 11
5.0
 21
33.99995
 31
0.0
  0
LINE
  5
C38
330
1F
100
AcDbEntity
  8
SK2
  6
CONTINUOUS
370
25
 62
7
100
AcDbLine
 10
5.0
 20
33.99995
 30
0.0
 11
0.0
 21
34.99995
 31
0.0
  0
LINE
  5
C39
330
1F
100
AcDbEntity
  8
SK2
  6
CONTINUOUS
370
25
 62
7
100
AcDbLine
 10
4.943681359877367
 20
34.01121372802452
 30
0.0
 11
5.0
 21
34.06753236814716
 31
0.0
  0
LINE
  5
C3A
330
1F
100
AcDbEntity
  8
SK2
  6
CONTINUOUS
370
25
 62
7
100
AcDbLine
 10
4.59012796928409
 20
34.08192440614317
 30
0.0
 11
5.0
 21
34.49179643685908
 31
0.0
  0
LINE
  5
C3B
330
1F
100
AcDbEntity
  8
SK2
  6
CONTINUOUS
370
25
 62
7
100
AcDbLine
 10
4.236574578690814
 20
34.15263508426183
 30
0.0
 11
5.0
 21
34.91606050557102
 31
0.0
  0
LINE
  5
C3C
330
1F
100
AcDbEntity
  8
SK2
  6
CONTINUOUS
370
25
 62
7
100
AcDbLine
 10
3.88302118809753
 20
34.22334576238049
 30
0.0
 11
5.0
 21
35.34032457428296
 31
0.0
  0
LINE
  5
C3D
330
1F
100
AcDbEntity
  8
SK2
  6
CONTINUOUS
370
25
 62
7
100
AcDbLine
 10
3.52946779750426
 20
34.29405644049914
 30
0.0
 11
5.0
 21
35.76458864299489
 31
0.0
  0
LINE
  5
C3E
330
1F
100
AcDbEntity
  8
SK2
  6
CONTINUOUS
370
25
 62
7
100
AcDbLine
 10
3.175914406910984
 20
34.36476711861779
 30
0.0
 11
4.763871610366486
 21
35.9527243220733
 31
0.0
  0
LINE
  5
C3F
330
1F
100
AcDbEntity
  8
SK2
  6
CONTINUOUS
370
25
 62
7
100
AcDbLine
 10
2.822361016317714
 20
34.43547779673646
 30
0.0
 11
4.233541524476571
 21
35.84665830489531
 31
0.0
  0
LINE
  5
C40
330
1F
100
AcDbEntity
  8
SK2
  6
CONTINUOUS
370
25
 62
7
100
AcDbLine
 10
2.46880762572443
 20
34.50618847485512
 30
0.0
 11
3.703211438586642
 21
35.74059228771733
 31
0.0
  0
LINE
  5
C41
330
1F
100
AcDbEntity
  8
SK2
  6
CONTINUOUS
370
25
 62
7
100
AcDbLine
 10
2.115254235131161
 20
34.57689915297377
 30
0.0
 11
3.172881352696741
 21
35.63452627053935
 31
0.0
  0
LINE
  5
C42
330
1F
100
AcDbEntity
  8
SK2
  6
CONTINUOUS
370
25
 62
7
100
AcDbLine
 10
1.76170084453787
 20
34.64760983109242
 30
0.0
 11
2.642551266806812
 21
35.52846025336136
 31
0.0
  0
LINE
  5
C43
330
1F
100
AcDbEntity
  8
SK2
  6
CONTINUOUS
370
25
 62
7
100
AcDbLine
 10
1.408147453944586
 20
34.71832050921108
 30
0.0
 11
2.11222118091689
 21
35.42239423618338
 31
0.0
  0
LINE
  5
C44
330
1F
100
AcDbEntity
  8
SK2
  6
CONTINUOUS
370
25
 62
7
100
AcDbLine
 10
1.054594063351317
 20
34.78903118732973
 30
0.0
 11
1.581891095026982
 21
35.3163282190054
 31
0.0
  0
LINE
  5
C45
330
1F
100
AcDbEntity
  8
SK2
  6
CONTINUOUS
370
25
 62
7
100
AcDbLine
 10
0.7010406727580332
 20
34.85974186544838
 30
0.0
 11
1.05156100913706
 21
35.21026220182741
 31
0.0
  0
LINE
  5
C46
330
1F
100
AcDbEntity
  8
SK2
  6
CONTINUOUS
370
25
 62
7
100
AcDbLine
 10
0.3474872821647637
 20
34.93045254356704
 30
0.0
 11
0.5212309232471526
 21
35.10419618464943
 31
0.0
  0
LINE
  5
C47
330
1F
100
AcDbEntity
  8
SK2
  6
CONTINUOUS
370
25
 62
7
100
AcDbLine
 10
0.0169717347106371
 20
35.00334434694213
 30
0.0
 11
0.0254576020659698
 21
34.9948584795868
 31
0.0
  0
LINE
  5
C48
330
1F
100
AcDbEntity
  8
SK2
  6
CONTINUOUS
370
25
 62
7
100
AcDbLine
 10
0.3705251253039208
 20
35.07405502506078
 30
0.0
 11
0.5557876879558847
 21
34.88879246240882
 31
0.0
  0
LINE
  5
C49
330
1F
100
AcDbEntity
  8
SK2
  6
CONTINUOUS
370
25
 62
7
100
AcDbLine
 10
0.7240785158971974
 20
35.14476570317944
 30
0.0
 11
1.0861177738458
 21
34.78272644523084
 31
0.0
  0
LINE
  5
C4A
330
1F
100
AcDbEntity
  8
SK2
  6
CONTINUOUS
370
25
 62
7
100
AcDbLine
 10
1.077631906490474
 20
35.2154763812981
 30
0.0
 11
1.616447859735715
 21
34.67666042805286
 31
0.0
  0
LINE
  5
C4B
330
1F
100
AcDbEntity
  8
SK2
  6
CONTINUOUS
370
25
 62
7
100
AcDbLine
 10
1.431185297083751
 20
35.28618705941675
 30
0.0
 11
2.14677794562563
 21
34.57059441087487
 31
0.0
  0
LINE
  5
C4C
330
1F
100
AcDbEntity
  8
SK2
  6
CONTINUOUS
370
25
 62
7
100
AcDbLine
 10
1.784738687677027
 20
35.35689773753541
 30
0.0
 11
2.677108031515544
 21
34.46452839369689
 31
0.0
  0
LINE
  5
C4D
330
1F
100
AcDbEntity
  8
SK2
  6
CONTINUOUS
370
25
 62
7
100
AcDbLine
 10
2.138292078270304
 20
35.42760841565406
 30
0.0
 11
3.207438117405459
 21
34.3584623765189
 31
0.0
  0
LINE
  5
C4E
330
1F
100
AcDbEntity
  8
SK2
  6
CONTINUOUS
370
25
 62
7
100
AcDbLine
 10
2.49184546886358
 20
35.49831909377271
 30
0.0
 11
3.737768203295374
 21
34.25239635934092
 31
0.0
  0
LINE
  5
C4F
330
1F
100
AcDbEntity
  8
SK2
  6
CONTINUOUS
370
25
 62
7
100
AcDbLine
 10
2.845398859456857
 20
35.56902977189138
 30
0.0
 11
4.268098289185289
 21
34.14633034216294
 31
0.0
  0
LINE
  5
C50
330
1F
100
AcDbEntity
  8
SK2
  6
CONTINUOUS
370
25
 62
7
100
AcDbLine
 10
3.198952250050134
 20
35.63974045001003
 30
0.0
 11
4.798428375075204
 21
34.04026432498495
 31
0.0
  0
LINE
  5
C51
330
1F
100
AcDbEntity
  8
SK2
  6
CONTINUOUS
370
25
 62
7
100
AcDbLine
 10
3.55250564064341
 20
35.71045112812869
 30
0.0
 11
5.0
 21
34.26295676877209
 31
0.0
  0
LINE
  5
C52
330
1F
100
AcDbEntity
  8
SK2
  6
CONTINUOUS
370
25
 62
7
100
AcDbLine
 10
3.906059031236687
 20
35.78116180624734
 30
0.0
 11
5.0
 21
34.68722083748402
 31
0.0
  0
LINE
  5
C53
330
1F
100
AcDbEntity
  8
SK2
  6
CONTINUOUS
370
25
 62
7
100
AcDbLine
 10
4.259612421829971
 20
35.85187248436599
 30
0.0
 11
5.0
 21
35.11148490619596
 31
0.0
  0
LINE
  5
C54
330
1F
100
AcDbEntity
  8
SK2
  6
CONTINUOUS
370
25
 62
7
100
AcDbLine
 10
4.613165812423247
 20
35.92258316248465
 30
0.0
 11
5.0
 21
35.53574897490789
 31
0.0
  0
LINE
  5
C55
330
1F
100
AcDbEntity
  8
SK2
  6
CONTINUOUS
370
25
 62
7
100
AcDbLine
 10
4.966719203016517
 20
35.99329384060331
 30
0.0
 11
5.0
 21
35.96001304361982
 31
0.0
  0
LINE
  5
C56
330
1F
100
AcDbEntity
  8
SK2
  6
CONTINUOUS
370
25
 62
7
100
AcDbLine
 10
60.0
 20
34.99995
 30
0.0
 11
55.0
 21
33.99995
 31
0.0
  0
LINE
  5
C57
330
1F
100
AcDbEntity
  8
SK2
  6
CONTINUOUS
370
25
 62
7
100
AcDbLine
 10
55.0
 20
33.99995
 30
0.0
 11
55.0
 21
35.99995
 31
0.0
  0
LINE
  5
C58
330
1F
100
AcDbEntity
  8
SK2
  6
CONTINUOUS
370
25
 62
7
100
AcDbLine
 10
55.0
 20
35.99995
 30
0.0
 11
60.0
 21
34.99995
 31
0.0
  0
LINE
  5
C59
330
1F
100
AcDbEntity
  8
SK2
  6
CONTINUOUS
370
25
 62
7
100
AcDbLine
 10
59.76744294783479
 20
34.95343858956696
 30
0.0
 11
59.8449619652232
 21
35.03095760695536
 31
0.0
  0
LINE
  5
C5A
330
1F
100
AcDbEntity
  8
SK2
  6
CONTINUOUS
370
25
 62
7
100
AcDbLine
 10
59.23711286194489
 20
34.84737257238898
 30
0.0
 11
59.49140857462992
 21
35.10166828507401
 31
0.0
  0
LINE
  5
C5B
330
1F
100
AcDbEntity
  8
SK2
  6
CONTINUOUS
370
25
 62
7
100
AcDbLine
 10
58.70678277605498
 20
34.741306555211
 30
0.0
 11
59.13785518403665
 21
35.17237896319267
 31
0.0
  0
LINE
  5
C5C
330
1F
100
AcDbEntity
  8
SK2
  6
CONTINUOUS
370
25
 62
7
100
AcDbLine
 10
58.17645269016506
 20
34.63524053803301
 30
0.0
 11
58.78430179344338
 21
35.24308964131132
 31
0.0
  0
LINE
  5
C5D
330
1F
100
AcDbEntity
  8
SK2
  6
CONTINUOUS
370
25
 62
7
100
AcDbLine
 10
57.64612260427515
 20
34.52917452085503
 30
0.0
 11
58.4307484028501
 21
35.31380031942998
 31
0.0
  0
LINE
  5
C5E
330
1F
100
AcDbEntity
  8
SK2
  6
CONTINUOUS
370
25
 62
7
100
AcDbLine
 10
57.11579251838525
 20
34.42310850367705
 30
0.0
 11
58.07719501225682
 21
35.38451099754863
 31
0.0
  0
LINE
  5
C5F
330
1F
100
AcDbEntity
  8
SK2
  6
CONTINUOUS
370
25
 62
7
100
AcDbLine
 10
56.58546243249533
 20
34.31704248649906
 30
0.0
 11
57.72364162166355
 21
35.45522167566729
 31
0.0
  0
LINE
  5
C60
330
1F
100
AcDbEntity
  8
SK2
  6
CONTINUOUS
370
25
 62
7
100
AcDbLine
 10
56.05513234660543
 20
34.21097646932108
 30
0.0
 11
57.37008823107028
 21
35.52593235378594
 31
0.0
  0
LINE
  5
C61
330
1F
100
AcDbEntity
  8
SK2
  6
CONTINUOUS
370
25
 62
7
100
AcDbLine
 10
55.52480226071552
 20
34.1049104521431
 30
0.0
 11
57.01653484047701
 21
35.5966430319046
 31
0.0
  0
LINE
  5
C62
330
1F
100
AcDbEntity
  8
SK2
  6
CONTINUOUS
370
25
 62
7
100
AcDbLine
 10
55.0
 20
34.00437226013951
 30
0.0
 11
56.66298144988373
 21
35.66735371002325
 31
0.0
  0
LINE
  5
C63
330
1F
100
AcDbEntity
  8
SK2
  6
CONTINUOUS
370
25
 62
7
100
AcDbLine
 10
55.0
 20
34.42863632885145
 30
0.0
 11
56.30942805929045
 21
35.73806438814191
 31
0.0
  0
LINE
  5
C64
330
1F
100
AcDbEntity
  8
SK2
  6
CONTINUOUS
370
25
 62
7
100
AcDbLine
 10
55.0
 20
34.85290039756337
 30
0.0
 11
55.95587466869718
 21
35.80877506626056
 31
0.0
  0
LINE
  5
C65
330
1F
100
AcDbEntity
  8
SK2
  6
CONTINUOUS
370
25
 62
7
100
AcDbLine
 10
55.0
 20
35.27716446627531
 30
0.0
 11
55.60232127810391
 21
35.87948574437922
 31
0.0
  0
LINE
  5
C66
330
1F
100
AcDbEntity
  8
SK2
  6
CONTINUOUS
370
25
 62
7
100
AcDbLine
 10
55.0
 20
35.70142853498724
 30
0.0
 11
55.24876788751063
 21
35.95019642249787
 31
0.0
  0
LINE
  5
C67
330
1F
100
AcDbEntity
  8
SK2
  6
CONTINUOUS
370
25
 62
7
100
AcDbLine
 10
55.0
 20
34.30214280248088
 30
0.0
 11
55.25182733540073
 21
34.05031546708015
 31
0.0
  0
LINE
  5
C68
330
1F
100
AcDbEntity
  8
SK2
  6
CONTINUOUS
370
25
 62
7
100
AcDbLine
 10
55.0
 20
34.72640687119281
 30
0.0
 11
55.60538072599401
 21
34.1210261451988
 31
0.0
  0
LINE
  5
C69
330
1F
100
AcDbEntity
  8
SK2
  6
CONTINUOUS
370
25
 62
7
100
AcDbLine
 10
55.0
 20
35.15067093990474
 30
0.0
 11
55.95893411658729
 21
34.19173682331746
 31
0.0
  0
LINE
  5
C6A
330
1F
100
AcDbEntity
  8
SK2
  6
CONTINUOUS
370
25
 62
7
100
AcDbLine
 10
55.0
 20
35.57493500861668
 30
0.0
 11
56.31248750718056
 21
34.26244750143611
 31
0.0
  0
LINE
  5
C6B
330
1F
100
AcDbEntity
  8
SK2
  6
CONTINUOUS
370
25
 62
7
100
AcDbLine
 10
55.0
 20
35.9991990773286
 30
0.0
 11
56.66604089777383
 21
34.33315817955476
 31
0.0
  0
LINE
  5
C6C
330
1F
100
AcDbEntity
  8
SK2
  6
CONTINUOUS
370
25
 62
7
100
AcDbLine
 10
55.52939143255067
 20
35.89407171348986
 30
0.0
 11
57.01959428836711
 21
34.40386885767342
 31
0.0
  0
LINE
  5
C6D
330
1F
100
AcDbEntity
  8
SK2
  6
CONTINUOUS
370
25
 62
7
100
AcDbLine
 10
56.05972151844058
 20
35.78800569631188
 30
0.0
 11
57.37314767896038
 21
34.47457953579207
 31
0.0
  0
LINE
  5
C6E
330
1F
100
AcDbEntity
  8
SK2
  6
CONTINUOUS
370
25
 62
7
100
AcDbLine
 10
56.59005160433049
 20
35.6819396791339
 30
0.0
 11
57.72670106955366
 21
34.54529021391073
 31
0.0
  0
LINE
  5
C6F
330
1F
100
AcDbEntity
  8
SK2
  6
CONTINUOUS
370
25
 62
7
100
AcDbLine
 10
57.12038169022041
 20
35.57587366195592
 30
0.0
 11
58.08025446014693
 21
34.61600089202938
 31
0.0
  0
LINE
  5
C70
330
1F
100
AcDbEntity
  8
SK2
  6
CONTINUOUS
370
25
 62
7
100
AcDbLine
 10
57.65071177611031
 20
35.46980764477793
 30
0.0
 11
58.43380785074021
 21
34.68671157014804
 31
0.0
  0
LINE
  5
C71
330
1F
100
AcDbEntity
  8
SK2
  6
CONTINUOUS
370
25
 62
7
100
AcDbLine
 10
58.18104186200023
 20
35.36374162759995
 30
0.0
 11
58.78736124133348
 21
34.75742224826669
 31
0.0
  0
LINE
  5
C72
330
1F
100
AcDbEntity
  8
SK2
  6
CONTINUOUS
370
25
 62
7
100
AcDbLine
 10
58.71137194789014
 20
35.25767561042197
 30
0.0
 11
59.14091463192675
 21
34.82813292638535
 31
0.0
  0
LINE
  5
C73
330
1F
100
AcDbEntity
  8
SK2
  6
CONTINUOUS
370
25
 62
7
100
AcDbLine
 10
59.24170203378004
 20
35.15160959324399
 30
0.0
 11
59.49446802252002
 21
34.898843604504
 31
0.0
  0
LINE
  5
C74
330
1F
100
AcDbEntity
  8
SK2
  6
CONTINUOUS
370
25
 62
7
100
AcDbLine
 10
59.77203211966995
 20
35.04554357606601
 30
0.0
 11
59.8480214131133
 21
34.96955428262266
 31
0.0
  0
TEXT
  5
C75
330
1F
100
AcDbEntity
  8
SK2
  6
CONTINUOUS
370
25
 62
7
100
AcDbText
 10
27.375
 20
36.49995
 30
0.0
 40
3.5
  1
60
 72
     1
 11
30.0
 21
36.49995
 31
0.0
100
AcDbText
  0
LINE
  5
C76
330
1F
100
AcDbEntity
  8
2
  6
CONTINUOUS
370
25
 62
7
100
AcDbLine
 10
56.59999999999999
 20
-0.49995
 30
0.0
 11
56.59999999999999
 21
-23.5
 31
0.0
  0
LINE
  5
C77
330
1F
100
AcDbEntity
  8
2
  6
CONTINUOUS
370
25
 62
7
100
AcDbLine
 10
60.0
 20
-23.5
 30
0.0
 11
60.0
 21
-0.5
 31
0.0
  0
LINE
  5
C78
330
1F
100
AcDbEntity
  8
2
  6
CONTINUOUS
370
25
 62
7
100
AcDbLine
 10
49.59999999999999
 20
-22.5
 30
0.0
 11
75.92499999999998
 21
-22.5
 31
0.0
  0
LINE
  5
C79
330
1F
100
AcDbEntity
  8
2
  6
CONTINUOUS
370
25
 62
7
100
AcDbLine
 10
56.59999999999999
 20
-22.5
 30
0.0
 11
51.59999999999999
 21
-23.5
 31
0.0
  0
LINE
  5
C7A
330
1F
100
AcDbEntity
  8
2
  6
CONTINUOUS
370
25
 62
7
100
AcDbLine
 10
51.59999999999999
 20
-23.5
 30
0.0
 11
51.59999999999999
 21
-21.5
 31
0.0
  0
LINE
  5
C7B
330
1F
100
AcDbEntity
  8
2
  6
CONTINUOUS
370
25
 62
7
100
AcDbLine
 10
51.59999999999999
 20
-21.5
 30
0.0
 11
56.59999999999999
 21
-22.5
 31
0.0
  0
LINE
  5
C7C
330
1F
100
AcDbEntity
  8
2
  6
CONTINUOUS
370
25
 62
7
100
AcDbLine
 10
56.5542959469982
 20
-22.50914081060036
 30
0.0
 11
56.56953063133214
 21
-22.49390612626643
 31
0.0
  0
LINE
  5
C7D
330
1F
100
AcDbEntity
  8
2
  6
CONTINUOUS
370
25
 62
7
100
AcDbLine
 10
56.02396586110829
 20
-22.61520682777834
 30
0.0
 11
56.21597724073886
 21
-22.42319544814777
 31
0.0
  0
LINE
  5
C7E
330
1F
100
AcDbEntity
  8
2
  6
CONTINUOUS
370
25
 62
7
100
AcDbLine
 10
55.49363577521838
 20
-22.72127284495632
 30
0.0
 11
55.86242385014559
 21
-22.35248477002912
 31
0.0
  0
LINE
  5
C7F
330
1F
100
AcDbEntity
  8
2
  6
CONTINUOUS
370
25
 62
7
100
AcDbLine
 10
54.96330568932848
 20
-22.8273388621343
 30
0.0
 11
55.50887045955231
 21
-22.28177409191046
 31
0.0
  0
LINE
  5
C80
330
1F
100
AcDbEntity
  8
2
  6
CONTINUOUS
370
25
 62
7
100
AcDbLine
 10
54.43297560343856
 20
-22.93340487931228
 30
0.0
 11
55.15531706895904
 21
-22.21106341379181
 31
0.0
  0
LINE
  5
C81
330
1F
100
AcDbEntity
  8
2
  6
CONTINUOUS
370
25
 62
7
100
AcDbLine
 10
53.90264551754866
 20
-23.03947089649026
 30
0.0
 11
54.80176367836577
 21
-22.14035273567315
 31
0.0
  0
LINE
  5
C82
330
1F
100
AcDbEntity
  8
2
  6
CONTINUOUS
370
25
 62
7
100
AcDbLine
 10
53.37231543165875
 20
-23.14553691366825
 30
0.0
 11
54.4482102877725
 21
-22.0696420575545
 31
0.0
  0
LINE
  5
C83
330
1F
100
AcDbEntity
  8
2
  6
CONTINUOUS
370
25
 62
7
100
AcDbLine
 10
52.84198534576883
 20
-23.25160293084623
 30
0.0
 11
54.09465689717922
 21
-21.99893137943585
 31
0.0
  0
LINE
  5
C84
330
1F
100
AcDbEntity
  8
2
  6
CONTINUOUS
370
25
 62
7
100
AcDbLine
 10
52.31165525987893
 20
-23.35766894802421
 30
0.0
 11
53.74110350658594
 21
-21.92822070131719
 31
0.0
  0
LINE
  5
C85
330
1F
100
AcDbEntity
  8
2
  6
CONTINUOUS
370
25
 62
7
100
AcDbLine
 10
51.78132517398901
 20
-23.4637349652022
 30
0.0
 11
53.38755011599267
 21
-21.85751002319854
 31
0.0
  0
LINE
  5
C86
330
1F
100
AcDbEntity
  8
2
  6
CONTINUOUS
370
25
 62
7
100
AcDbLine
 10
51.59999999999999
 20
-23.22079607047928
 30
0.0
 11
53.0339967253994
 21
-21.78679934507988
 31
0.0
  0
LINE
  5
C87
330
1F
100
AcDbEntity
  8
2
  6
CONTINUOUS
370
25
 62
7
100
AcDbLine
 10
51.59999999999999
 20
-22.79653200176736
 30
0.0
 11
52.68044333480613
 21
-21.71608866696123
 31
0.0
  0
LINE
  5
C88
330
1F
100
AcDbEntity
  8
2
  6
CONTINUOUS
370
25
 62
7
100
AcDbLine
 10
51.59999999999999
 20
-22.37226793305543
 30
0.0
 11
52.32688994421285
 21
-21.64537798884257
 31
0.0
  0
LINE
  5
C89
330
1F
100
AcDbEntity
  8
2
  6
CONTINUOUS
370
25
 62
7
100
AcDbLine
 10
51.59999999999999
 20
-21.94800386434351
 30
0.0
 11
51.97333655361958
 21
-21.57466731072392
 31
0.0
  0
LINE
  5
C8A
330
1F
100
AcDbEntity
  8
2
  6
CONTINUOUS
370
25
 62
7
100
AcDbLine
 10
51.59999999999999
 20
-21.52373979563158
 30
0.0
 11
51.61978316302631
 21
-21.50395663260526
 31
0.0
  0
LINE
  5
C8B
330
1F
100
AcDbEntity
  8
2
  6
CONTINUOUS
370
25
 62
7
100
AcDbLine
 10
51.59999999999999
 20
-23.28841509380416
 30
0.0
 11
51.7763207551632
 21
-23.46473584896736
 31
0.0
  0
LINE
  5
C8C
330
1F
100
AcDbEntity
  8
2
  6
CONTINUOUS
370
25
 62
7
100
AcDbLine
 10
51.59999999999999
 20
-22.86415102509223
 30
0.0
 11
52.12987414575647
 21
-23.39402517084871
 31
0.0
  0
LINE
  5
C8D
330
1F
100
AcDbEntity
  8
2
  6
CONTINUOUS
370
25
 62
7
100
AcDbLine
 10
51.59999999999999
 20
-22.4398869563803
 30
0.0
 11
52.48342753634974
 21
-23.32331449273005
 31
0.0
  0
LINE
  5
C8E
330
1F
100
AcDbEntity
  8
2
  6
CONTINUOUS
370
25
 62
7
100
AcDbLine
 10
51.59999999999999
 20
-22.01562288766837
 30
0.0
 11
52.83698092694302
 21
-23.2526038146114
 31
0.0
  0
LINE
  5
C8F
330
1F
100
AcDbEntity
  8
2
  6
CONTINUOUS
370
25
 62
7
100
AcDbLine
 10
51.59999999999999
 20
-21.59135881895645
 30
0.0
 11
53.19053431753629
 21
-23.18189313649274
 31
0.0
  0
LINE
  5
C90
330
1F
100
AcDbEntity
  8
2
  6
CONTINUOUS
370
25
 62
7
100
AcDbLine
 10
52.01613156219435
 20
-21.58322631243887
 30
0.0
 11
53.54408770812957
 21
-23.11118245837408
 31
0.0
  0
LINE
  5
C91
330
1F
100
AcDbEntity
  8
2
  6
CONTINUOUS
370
25
 62
7
100
AcDbLine
 10
52.54646164808426
 20
-21.68929232961685
 30
0.0
 11
53.89764109872284
 21
-23.04047178025543
 31
0.0
  0
LINE
  5
C92
330
1F
100
AcDbEntity
  8
2
  6
CONTINUOUS
370
25
 62
7
100
AcDbLine
 10
53.07679173397417
 20
-21.79535834679483
 30
0.0
 11
54.25119448931611
 21
-22.96976110213678
 31
0.0
  0
LINE
  5
C93
330
1F
100
AcDbEntity
  8
2
  6
CONTINUOUS
370
25
 62
7
100
AcDbLine
 10
53.60712181986408
 20
-21.90142436397282
 30
0.0
 11
54.60474787990938
 21
-22.89905042401812
 31
0.0
  0
LINE
  5
C94
330
1F
100
AcDbEntity
  8
2
  6
CONTINUOUS
370
25
 62
7
100
AcDbLine
 10
54.13745190575398
 20
-22.0074903811508
 30
0.0
 11
54.95830127050266
 21
-22.82833974589947
 31
0.0
  0
LINE
  5
C95
330
1F
100
AcDbEntity
  8
2
  6
CONTINUOUS
370
25
 62
7
100
AcDbLine
 10
54.6677819916439
 20
-22.11355639832878
 30
0.0
 11
55.31185466109593
 21
-22.75762906778081
 31
0.0
  0
LINE
  5
C96
330
1F
100
AcDbEntity
  8
2
  6
CONTINUOUS
370
25
 62
7
100
AcDbLine
 10
55.19811207753381
 20
-22.21962241550676
 30
0.0
 11
55.66540805168921
 21
-22.68691838966216
 31
0.0
  0
LINE
  5
C97
330
1F
100
AcDbEntity
  8
2
  6
CONTINUOUS
370
25
 62
7
100
AcDbLine
 10
55.72844216342372
 20
-22.32568843268474
 30
0.0
 11
56.01896144228247
 21
-22.6162077115435
 31
0.0
  0
LINE
  5
C98
330
1F
100
AcDbEntity
  8
2
  6
CONTINUOUS
370
25
 62
7
100
AcDbLine
 10
56.25877224931363
 20
-22.43175444986273
 30
0.0
 11
56.37251483287575
 21
-22.54549703342485
 31
0.0
  0
LINE
  5
C99
330
1F
100
AcDbEntity
  8
2
  6
CONTINUOUS
370
25
 62
7
100
AcDbLine
 10
60.0
 20
-22.5
 30
0.0
 11
65.0
 21
-21.5
 31
0.0
  0
LINE
  5
C9A
330
1F
100
AcDbEntity
  8
2
  6
CONTINUOUS
370
25
 62
7
100
AcDbLine
 10
65.0
 20
-21.5
 30
0.0
 11
65.0
 21
-23.5
 31
0.0
  0
LINE
  5
C9B
330
1F
100
AcDbEntity
  8
2
  6
CONTINUOUS
370
25
 62
7
100
AcDbLine
 10
65.0
 20
-23.5
 30
0.0
 11
60.0
 21
-22.5
 31
0.0
  0
LINE
  5
C9C
330
1F
100
AcDbEntity
  8
2
  6
CONTINUOUS
370
25
 62
7
100
AcDbLine
 10
64.77223626731987
 20
-23.45444725346397
 30
0.0
 11
65.0
 21
-23.22668352078384
 31
0.0
  0
LINE
  5
C9D
330
1F
100
AcDbEntity
  8
2
  6
CONTINUOUS
370
25
 62
7
100
AcDbLine
 10
64.41868287672659
 20
-23.38373657534532
 30
0.0
 11
65.0
 21
-22.80241945207191
 31
0.0
  0
LINE
  5
C9E
330
1F
100
AcDbEntity
  8
2
  6
CONTINUOUS
370
25
 62
7
100
AcDbLine
 10
64.06512948613332
 20
-23.31302589722666
 30
0.0
 11
65.0
 21
-22.37815538335999
 31
0.0
  0
LINE
  5
C9F
330
1F
100
AcDbEntity
  8
2
  6
CONTINUOUS
370
25
 62
7
100
AcDbLine
 10
63.71157609554005
 20
-23.24231521910801
 30
0.0
 11
65.0
 21
-21.95389131464806
 31
0.0
  0
LINE
  5
CA0
330
1F
100
AcDbEntity
  8
2
  6
CONTINUOUS
370
25
 62
7
100
AcDbLine
 10
63.35802270494678
 20
-23.17160454098935
 30
0.0
 11
65.0
 21
-21.52962724593613
 31
0.0
  0
LINE
  5
CA1
330
1F
100
AcDbEntity
  8
2
  6
CONTINUOUS
370
25
 62
7
100
AcDbLine
 10
63.0044693143535
 20
-23.1008938628707
 30
0.0
 11
64.50670397153024
 21
-21.59865920569395
 31
0.0
  0
LINE
  5
CA2
330
1F
100
AcDbEntity
  8
2
  6
CONTINUOUS
370
25
 62
7
100
AcDbLine
 10
62.65091592376022
 20
-23.03018318475205
 30
0.0
 11
63.97637388564034
 21
-21.70472522287193
 31
0.0
  0
LINE
  5
CA3
330
1F
100
AcDbEntity
  8
2
  6
CONTINUOUS
370
25
 62
7
100
AcDbLine
 10
62.29736253316695
 20
-22.95947250663339
 30
0.0
 11
63.44604379975043
 21
-21.81079124004991
 31
0.0
  0
LINE
  5
CA4
330
1F
100
AcDbEntity
  8
2
  6
CONTINUOUS
370
25
 62
7
100
AcDbLine
 10
61.94380914257368
 20
-22.88876182851474
 30
0.0
 11
62.91571371386052
 21
-21.9168572572279
 31
0.0
  0
LINE
  5
CA5
330
1F
100
AcDbEntity
  8
2
  6
CONTINUOUS
370
25
 62
7
100
AcDbLine
 10
61.59025575198041
 20
-22.81805115039608
 30
0.0
 11
62.38538362797061
 21
-22.02292327440588
 31
0.0
  0
LINE
  5
CA6
330
1F
100
AcDbEntity
  8
2
  6
CONTINUOUS
370
25
 62
7
100
AcDbLine
 10
61.23670236138713
 20
-22.74734047227743
 30
0.0
 11
61.8550535420807
 21
-22.12898929158386
 31
0.0
  0
LINE
  5
CA7
330
1F
100
AcDbEntity
  8
2
  6
CONTINUOUS
370
25
 62
7
100
AcDbLine
 10
60.88314897079386
 20
-22.67662979415877
 30
0.0
 11
61.3247234561908
 21
-22.23505530876184
 31
0.0
  0
LINE
  5
CA8
330
1F
100
AcDbEntity
  8
2
  6
CONTINUOUS
370
25
 62
7
100
AcDbLine
 10
60.52959558020058
 20
-22.60591911604012
 30
0.0
 11
60.79439337030088
 21
-22.34112132593982
 31
0.0
  0
LINE
  5
CA9
330
1F
100
AcDbEntity
  8
2
  6
CONTINUOUS
370
25
 62
7
100
AcDbLine
 10
60.17604218960732
 20
-22.53520843792146
 30
0.0
 11
60.26406328441097
 21
-22.4471873431178
 31
0.0
  0
LINE
  5
CAA
330
1F
100
AcDbEntity
  8
2
  6
CONTINUOUS
370
25
 62
7
100
AcDbLine
 10
60.3325797817442
 20
-22.43348404365116
 30
0.0
 11
60.4988696726163
 21
-22.59977393452326
 31
0.0
  0
LINE
  5
CAB
330
1F
100
AcDbEntity
  8
2
  6
CONTINUOUS
370
25
 62
7
100
AcDbLine
 10
60.68613317233747
 20
-22.3627733655325
 30
0.0
 11
61.02919975850621
 21
-22.70583995170124
 31
0.0
  0
LINE
  5
CAC
330
1F
100
AcDbEntity
  8
2
  6
CONTINUOUS
370
25
 62
7
100
AcDbLine
 10
61.03968656293075
 20
-22.29206268741385
 30
0.0
 11
61.55952984439612
 21
-22.81190596887922
 31
0.0
  0
LINE
  5
CAD
330
1F
100
AcDbEntity
  8
2
  6
CONTINUOUS
370
25
 62
7
100
AcDbLine
 10
61.39323995352402
 20
-22.2213520092952
 30
0.0
 11
62.08985993028603
 21
-22.91797198605721
 31
0.0
  0
LINE
  5
CAE
330
1F
100
AcDbEntity
  8
2
  6
CONTINUOUS
370
25
 62
7
100
AcDbLine
 10
61.74679334411729
 20
-22.15064133117654
 30
0.0
 11
62.62019001617594
 21
-23.02403800323519
 31
0.0
  0
LINE
  5
CAF
330
1F
100
AcDbEntity
  8
2
  6
CONTINUOUS
370
25
 62
7
100
AcDbLine
 10
62.10034673471056
 20
-22.07993065305789
 30
0.0
 11
63.15052010206585
 21
-23.13010402041317
 31
0.0
  0
LINE
  5
CB0
330
1F
100
AcDbEntity
  8
2
  6
CONTINUOUS
370
25
 62
7
100
AcDbLine
 10
62.45390012530384
 20
-22.00921997493923
 30
0.0
 11
63.68085018795576
 21
-23.23617003759115
 31
0.0
  0
LINE
  5
CB1
330
1F
100
AcDbEntity
  8
2
  6
CONTINUOUS
370
25
 62
7
100
AcDbLine
 10
62.80745351589711
 20
-21.93850929682058
 30
0.0
 11
64.21118027384567
 21
-23.34223605476914
 31
0.0
  0
LINE
  5
CB2
330
1F
100
AcDbEntity
  8
2
  6
CONTINUOUS
370
25
 62
7
100
AcDbLine
 10
63.16100690649039
 20
-21.86779861870193
 30
0.0
 11
64.74151035973557
 21
-23.44830207194712
 31
0.0
  0
LINE
  5
CB3
330
1F
100
AcDbEntity
  8
2
  6
CONTINUOUS
370
25
 62
7
100
AcDbLine
 10
63.51456029708366
 20
-21.79708794058327
 30
0.0
 11
65.0
 21
-23.28252764349961
 31
0.0
  0
LINE
  5
CB4
330
1F
100
AcDbEntity
  8
2
  6
CONTINUOUS
370
25
 62
7
100
AcDbLine
 10
63.86811368767693
 20
-21.72637726246462
 30
0.0
 11
65.0
 21
-22.85826357478768
 31
0.0
  0
LINE
  5
CB5
330
1F
100
AcDbEntity
  8
2
  6
CONTINUOUS
370
25
 62
7
100
AcDbLine
 10
64.2216670782702
 20
-21.65566658434596
 30
0.0
 11
65.0
 21
-22.43399950607575
 31
0.0
  0
LINE
  5
CB6
330
1F
100
AcDbEntity
  8
2
  6
CONTINUOUS
370
25
 62
7
100
AcDbLine
 10
64.57522046886348
 20
-21.58495590622731
 30
0.0
 11
65.0
 21
-22.00973543736382
 31
0.0
  0
LINE
  5
CB7
330
1F
100
AcDbEntity
  8
2
  6
CONTINUOUS
370
25
 62
7
100
AcDbLine
 10
64.92877385945675
 20
-21.51424522810865
 30
0.0
 11
65.0
 21
-21.58547136865189
 31
0.0
  0
TEXT
  5
CB8
330
1F
100
AcDbEntity
  8
2
  6
CONTINUOUS
370
25
 62
7
100
AcDbText
 10
66.96249999999999
 20
-21.0
 30
0.0
 40
3.5
  1
3.4
 72
     1
 11
70.46249999999999
 21
-21.0
 31
0.0
100
AcDbText
  0
LINE
  5
CB9
330
1F
100
AcDbEntity
  8
SK1
  6
CONTINUOUS
370
50
 62
4
100
AcDbLine
 10
47.3
 20
0.0
 30
0.0
 11
49.05
 21
0.0
 31
0.0
  0
LINE
  5
CBA
330
1F
100
AcDbEntity
  8
SK1
  6
CONTINUOUS
370
50
 62
4
100
AcDbLine
 10
47.3
 20
0.0
 30
0.0
 11
47.3
 21
1.75
 31
0.0
  0
ARC
  5
CBB
330
1F
100
AcDbEntity
  8
SK1
  6
CONTINUOUS
370
50
 62
4
100
AcDbCircle
 10
47.3
 20
0.0
 30
0.0
 40
1.75
100
AcDbArc
 50
0.0
 51
90.0
  0
LINE
  5
CBC
330
1F
100
AcDbEntity
  8
SK1
  6
CONTINUOUS
370
50
 62
4
100
AcDbLine
 10
47.3
 20
0.0
 30
0.0
 11
45.55
 21
0.0
 31
0.0
  0
ARC
  5
CBD
330
1F
100
AcDbEntity
  8
SK1
  6
CONTINUOUS
370
50
 62
4
100
AcDbCircle
 10
47.3
 20
0.0
 30
0.0
 40
1.75
100
AcDbArc
 50
180.0
 51
270.0
  0
LINE
  5
CBE
330
1F
100
AcDbEntity
  8
SK1
  6
CONTINUOUS
370
50
 62
4
100
AcDbLine
 10
47.3
 20
-1.75
 30
0.0
 11
47.3
 21
0.0
 31
0.0
  0
ARC
  5
CBF
330
1F
100
AcDbEntity
  8
SK1
  6
CONTINUOUS
370
50
 62
4
100
AcDbCircle
 10
47.3
 20
0.0
 30
0.0
 40
1.75
100
AcDbArc
 50
270.0
 51
0.0
  0
ARC
  5
CC0
330
1F
100
AcDbEntity
  8
SK1
  6
CONTINUOUS
370
50
 62
4
100
AcDbCircle
 10
47.3
 20
0.0
 30
0.0
 40
1.75
100
AcDbArc
 50
90.0
 51
180.0
  0
LINE
  5
CC1
330
1F
100
AcDbEntity
  8
SK1
  6
CONTINUOUS
370
50
 62
4
100
AcDbLine
 10
47.07717274741573
 20
-1.73564731720198
 30
0.0
 11
47.3
 21
-1.512820064617713
 31
0.0
  0
LINE
  5
CC2
330
1F
100
AcDbEntity
  8
SK1
  6
CONTINUOUS
370
50
 62
4
100
AcDbLine
 10
48.81282006461771
 20
0.0
 30
0.0
 11
49.03564731720198
 21
0.2228272525842674
 31
0.0
  0
LINE
  5
CC3
330
1F
100
AcDbEntity
  8
SK1
  6
CONTINUOUS
370
50
 62
4
100
AcDbLine
 10
46.86930380681873
 20
-1.69602888438369
 30
0.0
 11
47.3
 21
-1.265332691202421
 31
0.0
  0
LINE
  5
CC4
330
1F
100
AcDbEntity
  8
SK1
  6
CONTINUOUS
370
50
 62
4
100
AcDbLine
 10
48.56533269120241
 20
0.0
 30
0.0
 11
48.99602888438368
 21
0.4306961931812696
 31
0.0
  0
LINE
  5
CC5
330
1F
100
AcDbEntity
  8
SK1
  6
CONTINUOUS
370
50
 62
4
100
AcDbLine
 10
46.68148340435764
 20
-1.636361913429485
 30
0.0
 11
47.3
 21
-1.01784531778713
 31
0.0
  0
LINE
  5
CC6
330
1F
100
AcDbEntity
  8
SK1
  6
CONTINUOUS
370
50
 62
4
100
AcDbLine
 10
48.31784531778712
 20
0.0
 30
0.0
 11
48.93636191342948
 21
0.6185165956423557
 31
0.0
  0
LINE
  5
CC7
330
1F
100
AcDbEntity
  8
SK1
  6
CONTINUOUS
370
50
 62
4
100
AcDbLine
 10
46.5098551094628
 20
-1.560502834909039
 30
0.0
 11
47.3
 21
-0.7703579443718382
 31
0.0
  0
LINE
  5
CC8
330
1F
100
AcDbEntity
  8
SK1
  6
CONTINUOUS
370
50
 62
4
100
AcDbLine
 10
48.07035794437184
 20
0.0
 30
0.0
 11
48.86050283490903
 21
0.7901448905372013
 31
0.0
  0
LINE
  5
CC9
330
1F
100
AcDbEntity
  8
SK1
  6
CONTINUOUS
370
50
 62
4
100
AcDbLine
 10
46.35217783219446
 20
-1.470692738762079
 30
0.0
 11
47.3
 21
-0.5228705709565462
 31
0.0
  0
LINE
  5
CCA
330
1F
100
AcDbEntity
  8
SK1
  6
CONTINUOUS
370
50
 62
4
100
AcDbLine
 10
47.82287057095655
 20
0.0
 30
0.0
 11
48.77069273876207
 21
0.947822167805533
 31
0.0
  0
LINE
  5
CCB
330
1F
100
AcDbEntity
  8
SK1
  6
CONTINUOUS
370
50
 62
4
100
AcDbLine
 10
46.20842956711547
 20
-1.366953630425777
 30
0.0
 11
47.3
 21
-0.2753831975412551
 31
0.0
  0
LINE
  5
CCC
330
1F
100
AcDbEntity
  8
SK1
  6
CONTINUOUS
370
50
 62
4
100
AcDbLine
 10
47.57538319754125
 20
0.0
 30
0.0
 11
48.66695363042577
 21
1.091570432884522
 31
0.0
  0
LINE
  5
CCD
330
1F
100
AcDbEntity
  8
SK1
  6
CONTINUOUS
370
50
 62
4
100
AcDbLine
 10
46.07712164538165
 20
-1.25077417874432
 30
0.0
 11
47.3
 21
-0.0278958241259639
 31
0.0
  0
LINE
  5
CCE
330
1F
100
AcDbEntity
  8
SK1
  6
CONTINUOUS
370
50
 62
4
100
AcDbLine
 10
47.32789582412596
 20
0.0
 30
0.0
 11
48.55077417874432
 21
1.222878354618356
 31
0.0
  0
LINE
  5
CCF
330
1F
100
AcDbEntity
  8
SK1
  6
CONTINUOUS
370
50
 62
4
100
AcDbLine
 10
45.95784030371346
 20
-1.122568146997212
 30
0.0
 11
47.08040845071067
 21
0.0
 31
0.0
  0
LINE
  5
CD0
330
1F
100
AcDbEntity
  8
SK1
  6
CONTINUOUS
370
50
 62
4
100
AcDbLine
 10
47.3
 20
0.2195915492893277
 30
0.0
 11
48.42256814699721
 21
1.34215969628654
 31
0.0
  0
LINE
  5
CD1
330
1F
100
AcDbEntity
  8
SK1
  6
CONTINUOUS
370
50
 62
4
100
AcDbLine
 10
45.85188167231256
 20
-0.9810394049828186
 30
0.0
 11
46.83292107729538
 21
0.0
 31
0.0
  0
LINE
  5
CD2
330
1F
100
AcDbEntity
  8
SK1
  6
CONTINUOUS
370
50
 62
4
100
AcDbLine
 10
47.3
 20
0.4670789227046193
 30
0.0
 11
48.28103940498281
 21
1.448118327687438
 31
0.0
  0
LINE
  5
CD3
330
1F
100
AcDbEntity
  8
SK1
  6
CONTINUOUS
370
50
 62
4
100
AcDbLine
 10
45.75832908651575
 20
-0.8271046173643402
 30
0.0
 11
46.58543370388008
 21
0.0
 31
0.0
  0
LINE
  5
CD4
330
1F
100
AcDbEntity
  8
SK1
  6
CONTINUOUS
370
50
 62
4
100
AcDbLine
 10
47.3
 20
0.71456629611991
 30
0.0
 11
48.12710461736434
 21
1.54167091348425
 31
0.0
  0
LINE
  5
CD5
330
1F
100
AcDbEntity
  8
SK1
  6
CONTINUOUS
370
50
 62
4
100
AcDbLine
 10
45.67918473824204
 20
-0.6587615922227528
 30
0.0
 11
46.3379463304648
 21
0.0
 31
0.0
  0
LINE
  5
CD6
330
1F
100
AcDbEntity
  8
SK1
  6
CONTINUOUS
370
50
 62
4
100
AcDbLine
 10
47.3
 20
0.9620536695352015
 30
0.0
 11
47.95876159222275
 21
1.620815261757954
 31
0.0
  0
LINE
  5
CD7
330
1F
100
AcDbEntity
  8
SK1
  6
CONTINUOUS
370
50
 62
4
100
AcDbLine
 10
45.61629687706963
 20
-0.474162079979876
 30
0.0
 11
46.09045895704951
 21
0.0
 31
0.0
  0
LINE
  5
CD8
330
1F
100
AcDbEntity
  8
SK1
  6
CONTINUOUS
370
50
 62
4
100
AcDbLine
 10
47.3
 20
1.209541042950494
 30
0.0
 11
47.77416207997987
 21
1.683703122930369
 31
0.0
  0
LINE
  5
CD9
330
1F
100
AcDbEntity
  8
SK1
  6
CONTINUOUS
370
50
 62
4
100
AcDbLine
 10
45.57198100434271
 20
-0.2709905792915031
 30
0.0
 11
45.84297158363422
 21
0.0
 31
0.0
  0
LINE
  5
CDA
330
1F
100
AcDbEntity
  8
SK1
  6
CONTINUOUS
370
50
 62
4
100
AcDbLine
 10
47.3
 20
1.457028416365784
 30
0.0
 11
47.5709905792915
 21
1.728018995657286
 31
0.0
  0
LINE
  5
CDB
330
1F
100
AcDbEntity
  8
SK1
  6
CONTINUOUS
370
50
 62
4
100
AcDbLine
 10
45.5513858468978
 20
-0.0440983633211194
 30
0.0
 11
45.59548421021892
 21
0.0
 31
0.0
  0
LINE
  5
CDC
330
1F
100
AcDbEntity
  8
SK1
  6
CONTINUOUS
370
50
 62
4
100
AcDbLine
 10
47.3
 20
1.704515789781075
 30
0.0
 11
47.34409836332112
 21
1.748614153102194
 31
0.0
  0
LINE
  5
CDD
330
1F
100
AcDbEntity
  8
SK1
  6
CONTINUOUS
370
50
 62
4
100
AcDbLine
 10
45.66386517603681
 20
-0.6191473609004006
 30
0.0
 11
46.6808526390996
 21
-1.636134823963186
 31
0.0
  0
LINE
  5
CDE
330
1F
100
AcDbEntity
  8
SK1
  6
CONTINUOUS
370
50
 62
4
100
AcDbLine
 10
45.57363430643545
 20
-0.2814291178837463
 30
0.0
 11
47.01857088211625
 21
-1.726365693564548
 31
0.0
  0
LINE
  5
CDF
330
1F
100
AcDbEntity
  8
SK1
  6
CONTINUOUS
370
50
 62
4
100
AcDbLine
 10
45.55033443431149
 20
-0.0106418723445003
 30
0.0
 11
47.2893581276555
 21
-1.749665565688503
 31
0.0
  0
LINE
  5
CE0
330
1F
100
AcDbEntity
  8
SK1
  6
CONTINUOUS
370
50
 62
4
100
AcDbLine
 10
45.78717993538228
 20
0.0
 30
0.0
 11
47.3
 21
-1.51282006461771
 31
0.0
  0
LINE
  5
CE1
330
1F
100
AcDbEntity
  8
SK1
  6
CONTINUOUS
370
50
 62
4
100
AcDbLine
 10
46.03466730879758
 20
0.0
 30
0.0
 11
47.3
 21
-1.265332691202418
 31
0.0
  0
LINE
  5
CE2
330
1F
100
AcDbEntity
  8
SK1
  6
CONTINUOUS
370
50
 62
4
100
AcDbLine
 10
46.28215468221287
 20
0.0
 30
0.0
 11
47.3
 21
-1.017845317787128
 31
0.0
  0
LINE
  5
CE3
330
1F
100
AcDbEntity
  8
SK1
  6
CONTINUOUS
370
50
 62
4
100
AcDbLine
 10
46.52964205562816
 20
0.0
 30
0.0
 11
47.3
 21
-0.7703579443718369
 31
0.0
  0
LINE
  5
CE4
330
1F
100
AcDbEntity
  8
SK1
  6
CONTINUOUS
370
50
 62
4
100
AcDbLine
 10
46.77712942904345
 20
0.0
 30
0.0
 11
47.3
 21
-0.5228705709565453
 31
0.0
  0
LINE
  5
CE5
330
1F
100
AcDbEntity
  8
SK1
  6
CONTINUOUS
370
50
 62
4
100
AcDbLine
 10
47.02461680245874
 20
0.0
 30
0.0
 11
47.3
 21
-0.2753831975412537
 31
0.0
  0
LINE
  5
CE6
330
1F
100
AcDbEntity
  8
SK1
  6
CONTINUOUS
370
50
 62
4
100
AcDbLine
 10
47.27210417587403
 20
0.0
 30
0.0
 11
47.3
 21
-0.027895824125963
 31
0.0
  0
LINE
  5
CE7
330
1F
100
AcDbEntity
  8
SK1
  6
CONTINUOUS
370
50
 62
4
100
AcDbLine
 10
47.3
 20
0.219591549289329
 30
0.0
 11
47.51959154928932
 21
0.0
 31
0.0
  0
LINE
  5
CE8
330
1F
100
AcDbEntity
  8
SK1
  6
CONTINUOUS
370
50
 62
4
100
AcDbLine
 10
47.3
 20
0.4670789227046202
 30
0.0
 11
47.76707892270462
 21
0.0
 31
0.0
  0
LINE
  5
CE9
330
1F
100
AcDbEntity
  8
SK1
  6
CONTINUOUS
370
50
 62
4
100
AcDbLine
 10
47.3
 20
0.7145662961199113
 30
0.0
 11
48.01456629611991
 21
0.0
 31
0.0
  0
LINE
  5
CEA
330
1F
100
AcDbEntity
  8
SK1
  6
CONTINUOUS
370
50
 62
4
100
AcDbLine
 10
47.3
 20
0.9620536695352029
 30
0.0
 11
48.2620536695352
 21
0.0
 31
0.0
  0
LINE
  5
CEB
330
1F
100
AcDbEntity
  8
SK1
  6
CONTINUOUS
370
50
 62
4
100
AcDbLine
 10
47.3
 20
1.209541042950494
 30
0.0
 11
48.5095410429505
 21
0.0
 31
0.0
  0
LINE
  5
CEC
330
1F
100
AcDbEntity
  8
SK1
  6
CONTINUOUS
370
50
 62
4
100
AcDbLine
 10
47.3
 20
1.457028416365785
 30
0.0
 11
48.75702841636578
 21
0.0
 31
0.0
  0
LINE
  5
CED
330
1F
100
AcDbEntity
  8
SK1
  6
CONTINUOUS
370
50
 62
4
100
AcDbLine
 10
47.3
 20
1.704515789781076
 30
0.0
 11
49.00451578978107
 21
0.0
 31
0.0
  0
LINE
  5
CEE
330
1F
100
AcDbEntity
  8
SK1
  6
CONTINUOUS
370
50
 62
4
100
AcDbLine
 10
47.51543384193567
 20
1.736569321260697
 30
0.0
 11
49.03656932126069
 21
0.2154338419356714
 31
0.0
  0
LINE
  5
CEF
330
1F
100
AcDbEntity
  8
SK1
  6
CONTINUOUS
370
50
 62
4
100
AcDbLine
 10
47.83283284728993
 20
1.666657689321729
 30
0.0
 11
48.96665768932173
 21
0.5328328472899322
 31
0.0
  0
LINE
  5
CF0
330
1F
100
AcDbEntity
  8
SK1
  6
CONTINUOUS
370
50
 62
4
100
AcDbLine
 10
48.34009874905674
 20
1.406879160970207
 30
0.0
 11
48.7068791609702
 21
1.040098749056747
 31
0.0
  0
LINE
  5
CF1
330
1F
100
AcDbEntity
  8
4
  6
LONGDASH_DASH
370
25
 62
2
100
AcDbLine
 10
47.3
 20
0.0
 30
0.0
 11
60.0
 21
0.0
 31
0.0
  0
LINE
  5
CF2
330
1F
100
AcDbEntity
  8
SK4
  6
LONGDASH_DASH
370
25
 62
2
100
AcDbLine
 10
-6.0
 20
0.0
 30
0.0
 11
66.0
 21
0.0
 31
0.0
  0
ARC
  5
CF3
330
1F
100
AcDbEntity
  8
SK6
  6
CONTINUOUS
370
25
 62
5
100
AcDbCircle
 10
85.4613820083765
 20
-27.84524575338786
 30
0.0
 40
2.76048912849221
100
AcDbArc
 50
338.9379403434233
 51
90.44457437511365
  0
LINE
  5
CF4
330
1F
100
AcDbEntity
  8
SK6
  6
CONTINUOUS
370
25
 62
5
100
AcDbLine
 10
85.43996279695983
 20
-25.08483972421281
 30
0.0
 11
85.43996279695983
 21
-26.18789835613464
 31
0.0
  0
ARC
  5
CF5
330
1F
100
AcDbEntity
  8
SK6
  6
CONTINUOUS
370
25
 62
5
100
AcDbCircle
 10
85.45050902936916
 20
-27.86523924566821
 30
0.0
 40
1.677374043771779
100
AcDbArc
 50
243.4214706017868
 51
90.36024081226083
  0
ARC
  5
CF6
330
1F
100
AcDbEntity
  8
SK6
  6
CONTINUOUS
370
25
 62
5
100
AcDbCircle
 10
87.97275989684958
 20
-27.43383199215561
 30
0.0
 40
3.80021703002276
100
AcDbArc
 50
210.5483731288539
 51
236.97801693668
  0
LINE
  5
CF7
330
1F
100
AcDbEntity
  8
SK6
  6
CONTINUOUS
370
25
 62
5
100
AcDbLine
 10
85.90179068512487
 20
-30.62016781867535
 30
0.0
 11
90.04373096742671
 21
-30.62016781867535
 31
0.0
  0
ARC
  5
CF8
330
1F
100
AcDbEntity
  8
SK6
  6
CONTINUOUS
370
25
 62
5
100
AcDbCircle
 10
87.97276183877257
 20
-27.4338320937346
 30
0.0
 40
3.800216899582472
100
AcDbArc
 50
303.0219828477959
 51
326.3732153033476
  0
LINE
  5
CF9
330
1F
100
AcDbEntity
  8
SK6
  6
CONTINUOUS
370
25
 62
5
100
AcDbLine
 10
91.13705975135723
 20
-29.5383194907709
 30
0.0
 11
87.77976170575462
 21
-29.5383194907709
 31
0.0
  0
LINE
  5
CFA
330
1F
100
AcDbEntity
  8
SK6
  6
CONTINUOUS
370
25
 62
5
100
AcDbLine
 10
87.77976170575462
 20
-29.5383194907709
 30
0.0
 11
91.69962109771987
 21
-28.17691829641694
 31
0.0
  0
ARC
  5
CFB
330
1F
100
AcDbEntity
  8
SK6
  6
CONTINUOUS
370
25
 62
5
100
AcDbCircle
 10
87.97276256157211
 20
-27.4338326048594
 30
0.0
 40
3.800217216614723
100
AcDbArc
 50
348.7238644184696
 51
53.4691051260885
  0
LINE
  5
CFC
330
1F
100
AcDbEntity
  8
SK6
  6
CONTINUOUS
370
25
 62
5
100
AcDbLine
 10
90.23486524538545
 20
-24.38022124429967
 30
0.0
 11
88.03745047882737
 21
-28.83730973507058
 31
0.0
  0
ENDSEC
  0
SECTION
  2
OBJECTS
  0
DICTIONARY
  5
C
330
0
100
AcDbDictionary
281
     1
  3
ACAD_GROUP
350
D
  3
ACAD_LAYOUT
350
1A
  3
ACAD_MATERIAL
350
3B
  3
ACAD_MLEADERSTYLE
350
CFF
  3
ACAD_MLINESTYLE
350
17
  3
ACAD_PLOTSETTINGS
350
19
  3
ACAD_PLOTSTYLENAME
350
E
  3
ACAD_SCALELIST
350
4B8
  3
ACAD_VISUALSTYLE
350
2A
  3
AcDbVariableDictionary
350
CFD
  0
DICTIONARY
  5
D
102
{ACAD_REACTORS
330
C
102
}
330
C
100
AcDbDictionary
281
     1
  0
DICTIONARY
  5
1A
102
{ACAD_REACTORS
330
C
102
}
330
C
100
AcDbDictionary
281
     1
  3
Layout1
350
1E
  3
Layout2
350
26
  3
Model
350
22
  0
DICTIONARY
  5
3B
102
{ACAD_REACTORS
330
C
102
}
330
C
100
AcDbDictionary
281
     1
  3
ByBlock
350
3D
  3
ByLayer
350
3C
  3
Global
350
3E
  0
DICTIONARY
  5
CFF
102
{ACAD_REACTORS
330
C
102
}
330
C
100
AcDbDictionary
281
     1
  0
DICTIONARY
  5
17
102
{ACAD_REACTORS
330
C
102
}
330
C
100
AcDbDictionary
281
     1
  3
Standard
350
18
  0
DICTIONARY
  5
19
102
{ACAD_REACTORS
330
C
102
}
330
C
100
AcDbDictionary
281
     1
  0
ACDBDICTIONARYWDFLT
  5
E
102
{ACAD_REACTORS
330
C
102
}
330
C
100
AcDbDictionary
281
     1
  3
Normal
350
F
100
AcDbDictionaryWithDefault
340
F
  0
DICTIONARY
  5
4B8
102
{ACAD_REACTORS
330
C
102
}
330
C
100
AcDbDictionary
281
     1
  3
A0
350
4B9
  3
A1
350
4BA
  3
A2
350
4BB
  3
A3
350
4BC
  3
A4
350
4BD
  3
A5
350
4BE
  3
A6
350
4BF
  3
A7
350
4C0
  3
A8
350
4C1
  3
A9
350
4C2
  3
B0
350
4C3
  3
B1
350
4C4
  3
B2
350
4C5
  3
B3
350
4C6
  3
B4
350
4C7
  3
B5
350
4C8
  3
B6
350
4C9
  3
B7
350
4CA
  3
B8
350
4CB
  3
B9
350
4CC
  3
C0
350
4CD
  3
C1
350
4CE
  3
C2
350
4CF
  3
C3
350
4D0
  3
C4
350
4D1
  3
C5
350
4D2
  3
C6
350
4D3
  3
C7
350
4D4
  3
C8
350
4D5
  3
C9
350
4D6
  3
D0
350
4D7
  3
D1
350
4D8
  3
D2
350
4D9
  0
DICTIONARY
  5
2A
102
{ACAD_REACTORS
330
C
102
}
330
C
100
AcDbDictionary
281
     1
  3
2dWireframe
350
2F
  3
3D Hidden
350
31
  3
3dWireframe
350
30
  3
Basic
350
32
  3
Brighten
350
36
  3
ColorChange
350
3A
  3
Conceptual
350
34
  3
Dim
350
35
  3
Facepattern
350
39
  3
Flat
350
2B
  3
FlatWithEdges
350
2C
  3
Gouraud
350
2D
  3
GouraudWithEdges
350
2E
  3
Linepattern
350
38
  3
Realistic
350
33
  3
Thicken
350
37
  0
DICTIONARY
  5
CFD
102
{ACAD_REACTORS
330
C
102
}
330
C
100
AcDbDictionary
281
     1
  3
CANNOSCALE
350
D02
  3
DIMASSOC
350
D03
  3
HIDETEXT
350
D04
  3
PSOLHEIGHT
350
D01
  3
PSOLWIDTH
350
D00
  0
LAYOUT
  5
1E
102
{ACAD_REACTORS
330
1A
102
}
330
1A
100
AcDbPlotSettings
  1

  2
none_device
  4

  6

 40
0.0
 41
0.0
 42
0.0
 43
0.0
 44
0.0
 45
0.0
 46
0.0
 47
0.0
 48
0.0
 49
0.0
140
0.0
141
0.0
142
1.0
143
1.0
 70
   688
 72
     0
 73
     0
 74
     5
  7

 75
    16
147
1.0
148
0.0
149
0.0
100
AcDbLayout
  1
Layout1
 70
     1
 71
     1
 10
0.0
 20
0.0
 11
420.0
 21
297.0
 12
0.0
 22
0.0
 32
0.0
 14
1.000000000000000E+20
 24
1.000000000000000E+20
 34
1.000000000000000E+20
 15
-1.000000000000000E+20
 25
-1.000000000000000E+20
 35
-1.000000000000000E+20
146
0.0
 13
0.0
 23
0.0
 33
0.0
 16
1.0
 26
0.0
 36
0.0
 17
0.0
 27
1.0
 37
0.0
 76
     0
330
1B
  0
LAYOUT
  5
26
102
{ACAD_REACTORS
330
1A
102
}
330
1A
100
AcDbPlotSettings
  1

  2
none_device
  4

  6

 40
0.0
 41
0.0
 42
0.0
 43
0.0
 44
0.0
 45
0.0
 46
0.0
 47
0.0
 48
0.0
 49
0.0
140
0.0
141
0.0
142
1.0
143
1.0
 70
   688
 72
     0
 73
     0
 74
     5
  7

 75
    16
147
1.0
148
0.0
149
0.0
100
AcDbLayout
  1
Layout2
 70
     1
 71
     2
 10
0.0
 20
0.0
 11
0.0
 21
0.0
 12
0.0
 22
0.0
 32
0.0
 14
0.0
 24
0.0
 34
0.0
 15
0.0
 25
0.0
 35
0.0
146
0.0
 13
0.0
 23
0.0
 33
0.0
 16
1.0
 26
0.0
 36
0.0
 17
0.0
 27
1.0
 37
0.0
 76
     0
330
23
  0
LAYOUT
  5
22
102
{ACAD_REACTORS
330
1A
102
}
330
1A
100
AcDbPlotSettings
  1

  2
none_device
  4

  6

 40
0.0
 41
0.0
 42
0.0
 43
0.0
 44
0.0
 45
0.0
 46
0.0
 47
0.0
 48
0.0
 49
0.0
140
0.0
141
0.0
142
1.0
143
1.0
 70
  1712
 72
     0
 73
     0
 74
     0
  7

 75
     0
147
1.0
148
0.0
149
0.0
100
AcDbLayout
  1
Model
 70
     1
 71
     0
 10
0.0
 20
0.0
 11
420.0
 21
297.0
 12
0.0
 22
0.0
 32
0.0
 14
0.0
 24
0.0
 34
0.0
 15
25.0
 25
35.0
 35
0.0
146
0.0
 13
0.0
 23
0.0
 33
0.0
 16
1.0
 26
0.0
 36
0.0
 17
0.0
 27
1.0
 37
0.0
 76
     0
330
1F
331
29
  0
MATERIAL
  5
3D
102
{ACAD_REACTORS
330
3B
102
}
102
{ACAD_XDICTIONARY
360
D27
102
}
330
3B
100
AcDbMaterial
  1
ByBlock
  0
MATERIAL
  5
3C
102
{ACAD_REACTORS
330
3B
102
}
102
{ACAD_XDICTIONARY
360
D25
102
}
330
3B
100
AcDbMaterial
  1
ByLayer
  0
MATERIAL
  5
3E
102
{ACAD_REACTORS
330
3B
102
}
102
{ACAD_XDICTIONARY
360
D29
102
}
330
3B
100
AcDbMaterial
  1
Global
  0
MLINESTYLE
  5
18
102
{ACAD_REACTORS
330
17
102
}
330
17
100
AcDbMlineStyle
  2
Standard
 70
     0
  3

 62
   256
 51
90.0
 52
90.0
 71
     2
 49
0.5
 62
   256
  6
BYLAYER
 49
-0.5
 62
   256
  6
BYLAYER
  0
ACDBPLACEHOLDER
  5
F
102
{ACAD_REACTORS
330
E
102
}
330
E
  0
SCALE
  5
4B9
102
{ACAD_REACTORS
330
4B8
102
}
330
4B8
100
AcDbScale
 70
     0
300
1:1
140
1.0
141
1.0
290
     1
  0
SCALE
  5
4BA
102
{ACAD_REACTORS
330
4B8
102
}
330
4B8
100
AcDbScale
 70
     0
300
1:2
140
1.0
141
2.0
290
     0
  0
SCALE
  5
4BB
102
{ACAD_REACTORS
330
4B8
102
}
330
4B8
100
AcDbScale
 70
     0
300
1:4
140
1.0
141
4.0
290
     0
  0
SCALE
  5
4BC
102
{ACAD_REACTORS
330
4B8
102
}
330
4B8
100
AcDbScale
 70
     0
300
1:5
140
1.0
141
5.0
290
     0
  0
SCALE
  5
4BD
102
{ACAD_REACTORS
330
4B8
102
}
330
4B8
100
AcDbScale
 70
     0
300
1:8
140
1.0
141
8.0
290
     0
  0
SCALE
  5
4BE
102
{ACAD_REACTORS
330
4B8
102
}
330
4B8
100
AcDbScale
 70
     0
300
1:10
140
1.0
141
10.0
290
     0
  0
SCALE
  5
4BF
102
{ACAD_REACTORS
330
4B8
102
}
330
4B8
100
AcDbScale
 70
     0
300
1:16
140
1.0
141
16.0
290
     0
  0
SCALE
  5
4C0
102
{ACAD_REACTORS
330
4B8
102
}
330
4B8
100
AcDbScale
 70
     0
300
1:20
140
1.0
141
20.0
290
     0
  0
SCALE
  5
4C1
102
{ACAD_REACTORS
330
4B8
102
}
330
4B8
100
AcDbScale
 70
     0
300
1:30
140
1.0
141
30.0
290
     0
  0
SCALE
  5
4C2
102
{ACAD_REACTORS
330
4B8
102
}
330
4B8
100
AcDbScale
 70
     0
300
1:40
140
1.0
141
40.0
290
     0
  0
SCALE
  5
4C3
102
{ACAD_REACTORS
330
4B8
102
}
330
4B8
100
AcDbScale
 70
     0
300
1:50
140
1.0
141
50.0
290
     0
  0
SCALE
  5
4C4
102
{ACAD_REACTORS
330
4B8
102
}
330
4B8
100
AcDbScale
 70
     0
300
1:100
140
1.0
141
100.0
290
     0
  0
SCALE
  5
4C5
102
{ACAD_REACTORS
330
4B8
102
}
330
4B8
100
AcDbScale
 70
     0
300
2:1
140
2.0
141
1.0
290
     0
  0
SCALE
  5
4C6
102
{ACAD_REACTORS
330
4B8
102
}
330
4B8
100
AcDbScale
 70
     0
300
4:1
140
4.0
141
1.0
290
     0
  0
SCALE
  5
4C7
102
{ACAD_REACTORS
330
4B8
102
}
330
4B8
100
AcDbScale
 70
     0
300
8:1
140
8.0
141
1.0
290
     0
  0
SCALE
  5
4C8
102
{ACAD_REACTORS
330
4B8
102
}
330
4B8
100
AcDbScale
 70
     0
300
10:1
140
10.0
141
1.0
290
     0
  0
SCALE
  5
4C9
102
{ACAD_REACTORS
330
4B8
102
}
330
4B8
100
AcDbScale
 70
     0
300
100:1
140
100.0
141
1.0
290
     0
  0
SCALE
  5
4CA
102
{ACAD_REACTORS
330
4B8
102
}
330
4B8
100
AcDbScale
 70
     0
300
1/128" = 1'-0"
140
0.0078125
141
12.0
290
     0
  0
SCALE
  5
4CB
102
{ACAD_REACTORS
330
4B8
102
}
330
4B8
100
AcDbScale
 70
     0
300
1/64" = 1'-0"
140
0.015625
141
12.0
290
     0
  0
SCALE
  5
4CC
102
{ACAD_REACTORS
330
4B8
102
}
330
4B8
100
AcDbScale
 70
     0
300
1/32" = 1'-0"
140
0.03125
141
12.0
290
     0
  0
SCALE
  5
4CD
102
{ACAD_REACTORS
330
4B8
102
}
330
4B8
100
AcDbScale
 70
     0
300
1/16" = 1'-0"
140
0.0625
141
12.0
290
     0
  0
SCALE
  5
4CE
102
{ACAD_REACTORS
330
4B8
102
}
330
4B8
100
AcDbScale
 70
     0
300
3/32" = 1'-0"
140
0.09375
141
12.0
290
     0
  0
SCALE
  5
4CF
102
{ACAD_REACTORS
330
4B8
102
}
330
4B8
100
AcDbScale
 70
     0
300
1/8" = 1'-0"
140
0.125
141
12.0
290
     0
  0
SCALE
  5
4D0
102
{ACAD_REACTORS
330
4B8
102
}
330
4B8
100
AcDbScale
 70
     0
300
3/16" = 1'-0"
140
0.1875
141
12.0
290
     0
  0
SCALE
  5
4D1
102
{ACAD_REACTORS
330
4B8
102
}
330
4B8
100
AcDbScale
 70
     0
300
1/4" = 1'-0"
140
0.25
141
12.0
290
     0
  0
SCALE
  5
4D2
102
{ACAD_REACTORS
330
4B8
102
}
330
4B8
100
AcDbScale
 70
     0
300
3/8" = 1'-0"
140
0.375
141
12.0
290
     0
  0
SCALE
  5
4D3
102
{ACAD_REACTORS
330
4B8
102
}
330
4B8
100
AcDbScale
 70
     0
300
1/2" = 1'-0"
140
0.5
141
12.0
290
     0
  0
SCALE
  5
4D4
102
{ACAD_REACTORS
330
4B8
102
}
330
4B8
100
AcDbScale
 70
     0
300
3/4" = 1'-0"
140
0.75
141
12.0
290
     0
  0
SCALE
  5
4D5
102
{ACAD_REACTORS
330
4B8
102
}
330
4B8
100
AcDbScale
 70
     0
300
1" = 1'-0"
140
1.0
141
12.0
290
     0
  0
SCALE
  5
4D6
102
{ACAD_REACTORS
330
4B8
102
}
330
4B8
100
AcDbScale
 70
     0
300
1-1/2" = 1'-0"
140
1.5
141
12.0
290
     0
  0
SCALE
  5
4D7
102
{ACAD_REACTORS
330
4B8
102
}
330
4B8
100
AcDbScale
 70
     0
300
3" = 1'-0"
140
3.0
141
12.0
290
     0
  0
SCALE
  5
4D8
102
{ACAD_REACTORS
330
4B8
102
}
330
4B8
100
AcDbScale
 70
     0
300
6" = 1'-0"
140
6.0
141
12.0
290
     0
  0
SCALE
  5
4D9
102
{ACAD_REACTORS
330
4B8
102
}
330
4B8
100
AcDbScale
 70
     0
300
1'-0" = 1'-0"
140
12.0
141
12.0
290
     0
  0
VISUALSTYLE
  5
2F
102
{ACAD_REACTORS
330
2A
102
}
102
{ACAD_XDICTIONARY
360
D0D
102
}
330
2A
100
AcDbVisualStyle
  2
2dWireframe
 70
     4
 71
     0
 72
     2
 73
     0
 90
        0
 40
-0.6
 41
-30.0
 62
     5
 63
     7
 74
     1
 91
        4
 64
     7
 65
   257
 75
     1
175
     1
 42
1.0
 92
        0
 66
   257
 43
1.0
 76
     1
 77
     6
 78
     2
 67
     7
 79
     5
170
     0
171
     0
290
     0
174
     0
 93
        1
 44
0.0
173
     0
291
     0
 45
0.0
1001
ACAD
1000
AcDbSavedByObjectVersion
1070
     0
  0
VISUALSTYLE
  5
31
102
{ACAD_REACTORS
330
2A
102
}
102
{ACAD_XDICTIONARY
360
D11
102
}
330
2A
100
AcDbVisualStyle
  2
3D Hidden
 70
     6
 71
     1
 72
     2
 73
     2
 90
        0
 40
-0.6
 41
-30.0
 62
     5
 63
     7
 74
     2
 91
        2
 64
     7
 65
   257
 75
     2
175
     1
 42
40.0
 92
        0
 66
   257
 43
1.0
 76
     1
 77
     6
 78
     2
 67
     7
 79
     3
170
     0
171
     0
290
     0
174
     0
 93
        1
 44
0.0
173
     0
291
     0
 45
0.0
1001
ACAD
1000
AcDbSavedByObjectVersion
1070
     0
  0
VISUALSTYLE
  5
30
102
{ACAD_REACTORS
330
2A
102
}
102
{ACAD_XDICTIONARY
360
D0F
102
}
330
2A
100
AcDbVisualStyle
  2
3dWireframe
 70
     5
 71
     0
 72
     2
 73
     0
 90
        0
 40
-0.6
 41
-30.0
 62
     5
 63
     7
 74
     1
 91
        4
 64
     7
 65
   257
 75
     1
175
     1
 42
1.0
 92
        0
 66
   257
 43
1.0
 76
     1
 77
     6
 78
     2
 67
     7
 79
     5
170
     0
171
     0
290
     0
174
     0
 93
        1
 44
0.0
173
     0
291
     0
 45
0.0
1001
ACAD
1000
AcDbSavedByObjectVersion
1070
     0
  0
VISUALSTYLE
  5
32
102
{ACAD_REACTORS
330
2A
102
}
102
{ACAD_XDICTIONARY
360
D13
102
}
330
2A
100
AcDbVisualStyle
  2
Basic
 70
     7
 71
     1
 72
     0
 73
     1
 90
        0
 40
-0.6
 41
-30.0
 62
     5
 63
     7
 74
     0
 91
        4
 64
     7
 65
   257
 75
     1
175
     1
 42
1.0
 92
        8
 66
     7
 43
1.0
 76
     1
 77
     6
 78
     2
 67
     7
 79
     5
170
     0
171
     0
290
     0
174
     0
 93
        1
 44
0.0
173
     0
291
     1
 45
0.0
1001
ACAD
1000
AcDbSavedByObjectVersion
1070
     0
  0
VISUALSTYLE
  5
36
102
{ACAD_REACTORS
330
2A
102
}
102
{ACAD_XDICTIONARY
360
D1B
102
}
330
2A
100
AcDbVisualStyle
  2
Brighten
 70
    12
 71
     2
 72
     2
 73
     0
 90
        0
 40
-0.6
 41
-30.0
 62
     5
 63
     7
 74
     1
 91
        4
 64
     7
 65
   257
 75
     1
175
     1
 42
1.0
 92
        8
 66
     7
 43
1.0
 76
     1
 77
     6
 78
     2
 67
     7
 79
     5
170
     0
171
     0
290
     0
174
     0
 93
        1
 44
50.0
173
     0
291
     1
 45
0.0
1001
ACAD
1000
AcDbSavedByObjectVersion
1070
     0
  0
VISUALSTYLE
  5
3A
102
{ACAD_REACTORS
330
2A
102
}
102
{ACAD_XDICTIONARY
360
D23
102
}
330
2A
100
AcDbVisualStyle
  2
ColorChange
 70
    16
 71
     2
 72
     2
 73
     3
 90
        0
 40
-0.6
 41
-30.0
 62
     5
 63
     8
 74
     1
 91
        4
 64
     7
 65
   257
 75
     1
175
     1
 42
1.0
 92
        8
 66
     8
 43
1.0
 76
     1
 77
     6
 78
     2
 67
     7
 79
     5
170
     0
171
     0
290
     0
174
     0
 93
        1
 44
0.0
173
     0
291
     1
 45
0.0
1001
ACAD
1000
AcDbSavedByObjectVersion
1070
     0
  0
VISUALSTYLE
  5
34
102
{ACAD_REACTORS
330
2A
102
}
102
{ACAD_XDICTIONARY
360
D17
102
}
330
2A
100
AcDbVisualStyle
  2
Conceptual
 70
     9
 71
     3
 72
     2
 73
     0
 90
        0
 40
-0.6
 41
-30.0
 62
     5
 63
     7
 74
     2
 91
        2
 64
     7
 65
   257
 75
     1
175
     1
 42
40.0
 92
        8
 66
     7
 43
1.0
 76
     1
 77
     6
 78
     2
 67
     7
 79
     3
170
     0
171
     0
290
     0
174
     0
 93
        1
 44
0.0
173
     0
291
     0
 45
0.0
1001
ACAD
1000
AcDbSavedByObjectVersion
1070
     0
  0
VISUALSTYLE
  5
35
102
{ACAD_REACTORS
330
2A
102
}
102
{ACAD_XDICTIONARY
360
D19
102
}
330
2A
100
AcDbVisualStyle
  2
Dim
 70
    11
 71
     2
 72
     2
 73
     0
 90
        0
 40
-0.6
 41
-30.0
 62
     5
 63
     7
 74
     1
 91
        4
 64
     7
 65
   257
 75
     1
175
     1
 42
1.0
 92
        8
 66
     7
 43
1.0
 76
     1
 77
     6
 78
     2
 67
     7
 79
     5
170
     0
171
     0
290
     0
174
     0
 93
        1
 44
-50.0
173
     0
291
     1
 45
0.0
1001
ACAD
1000
AcDbSavedByObjectVersion
1070
     0
  0
VISUALSTYLE
  5
39
102
{ACAD_REACTORS
330
2A
102
}
102
{ACAD_XDICTIONARY
360
D21
102
}
330
2A
100
AcDbVisualStyle
  2
Facepattern
 70
    15
 71
     2
 72
     2
 73
     0
 90
        0
 40
-0.6
 41
-30.0
 62
     5
 63
     7
 74
     1
 91
        4
 64
     7
 65
   257
 75
     1
175
     1
 42
1.0
 92
        8
 66
     7
 43
1.0
 76
     1
 77
     6
 78
     2
 67
     7
 79
     5
170
     0
171
     0
290
     0
174
     0
 93
        1
 44
0.0
173
     0
291
     1
 45
0.0
1001
ACAD
1000
AcDbSavedByObjectVersion
1070
     0
  0
VISUALSTYLE
  5
2B
102
{ACAD_REACTORS
330
2A
102
}
102
{ACAD_XDICTIONARY
360
D05
102
}
330
2A
100
AcDbVisualStyle
  2
Flat
 70
     0
 71
     2
 72
     1
 73
     1
 90
        2
 40
-0.6
 41
30.0
 62
     5
 63
     7
 74
     0
 91
        4
 64
     7
 65
   257
 75
     1
175
     1
 42
1.0
 92
        8
 66
     7
 43
1.0
 76
     1
 77
     6
 78
     2
 67
     7
 79
     5
170
     0
171
     0
290
     0
174
     0
 93
       13
 44
0.0
173
     0
291
     1
 45
0.0
1001
ACAD
1000
AcDbSavedByObjectVersion
1070
     0
  0
VISUALSTYLE
  5
2C
102
{ACAD_REACTORS
330
2A
102
}
102
{ACAD_XDICTIONARY
360
D07
102
}
330
2A
100
AcDbVisualStyle
  2
FlatWithEdges
 70
     1
 71
     2
 72
     1
 73
     1
 90
        2
 40
-0.6
 41
30.0
 62
     5
 63
     7
 74
     1
 91
        4
 64
     7
 65
   257
 75
     1
175
     1
 42
1.0
 92
        0
 66
   257
 43
1.0
 76
     1
 77
     6
 78
     2
 67
     7
 79
     5
170
     0
171
     0
290
     0
174
     0
 93
       13
 44
0.0
173
     0
291
     1
 45
0.0
1001
ACAD
1000
AcDbSavedByObjectVersion
1070
     0
  0
VISUALSTYLE
  5
2D
102
{ACAD_REACTORS
330
2A
102
}
102
{ACAD_XDICTIONARY
360
D09
102
}
330
2A
100
AcDbVisualStyle
  2
Gouraud
 70
     2
 71
     2
 72
     2
 73
     1
 90
        2
 40
-0.6
 41
30.0
 62
     5
 63
     7
 74
     0
 91
        4
 64
     7
 65
   257
 75
     1
175
     1
 42
1.0
 92
        0
 66
     7
 43
1.0
 76
     1
 77
     6
 78
     2
 67
     7
 79
     5
170
     0
171
     0
290
     0
174
     0
 93
       13
 44
0.0
173
     0
291
     1
 45
0.0
1001
ACAD
1000
AcDbSavedByObjectVersion
1070
     0
  0
VISUALSTYLE
  5
2E
102
{ACAD_REACTORS
330
2A
102
}
102
{ACAD_XDICTIONARY
360
D0B
102
}
330
2A
100
AcDbVisualStyle
  2
GouraudWithEdges
 70
     3
 71
     2
 72
     2
 73
     1
 90
        2
 40
-0.6
 41
30.0
 62
     5
 63
     7
 74
     1
 91
        4
 64
     7
 65
   257
 75
     1
175
     1
 42
1.0
 92
        0
 66
   257
 43
1.0
 76
     1
 77
     6
 78
     2
 67
     7
 79
     5
170
     0
171
     0
290
     0
174
     0
 93
       13
 44
0.0
173
     0
291
     1
 45
0.0
1001
ACAD
1000
AcDbSavedByObjectVersion
1070
     0
  0
VISUALSTYLE
  5
38
102
{ACAD_REACTORS
330
2A
102
}
102
{ACAD_XDICTIONARY
360
D1F
102
}
330
2A
100
AcDbVisualStyle
  2
Linepattern
 70
    14
 71
     2
 72
     2
 73
     0
 90
        0
 40
-0.6
 41
-30.0
 62
     5
 63
     7
 74
     1
 91
        4
 64
     7
 65
   257
 75
     7
175
     7
 42
1.0
 92
        8
 66
     7
 43
1.0
 76
     1
 77
     6
 78
     2
 67
     7
 79
     5
170
     0
171
     0
290
     0
174
     0
 93
        1
 44
0.0
173
     0
291
     1
 45
0.0
1001
ACAD
1000
AcDbSavedByObjectVersion
1070
     0
  0
VISUALSTYLE
  5
33
102
{ACAD_REACTORS
330
2A
102
}
102
{ACAD_XDICTIONARY
360
D15
102
}
330
2A
100
AcDbVisualStyle
  2
Realistic
 70
     8
 71
     2
 72
     2
 73
     0
 90
        0
 40
-0.6
 41
-30.0
 62
     5
 63
     7
 74
     1
 91
        0
 64
     7
 65
   257
 75
     1
175
     1
 42
1.0
 92
        8
 66
     8
 43
1.0
 76
     1
 77
     6
 78
     2
 67
     7
 79
     5
170
     0
171
     0
290
     0
174
     0
 93
       13
 44
0.0
173
     0
291
     0
 45
0.0
1001
ACAD
1000
AcDbSavedByObjectVersion
1070
     0
  0
VISUALSTYLE
  5
37
102
{ACAD_REACTORS
330
2A
102
}
102
{ACAD_XDICTIONARY
360
D1D
102
}
330
2A
100
AcDbVisualStyle
  2
Thicken
 70
    13
 71
     2
 72
     2
 73
     0
 90
        0
 40
-0.6
 41
-30.0
 62
     5
 63
     7
 74
     1
 91
        4
 64
     7
 65
   257
 75
     1
175
     1
 42
1.0
 92
       12
 66
     7
 43
1.0
 76
     1
 77
     6
 78
     2
 67
     7
 79
     5
170
     0
171
     0
290
     0
174
     0
 93
        1
 44
0.0
173
     0
291
     1
 45
0.0
1001
ACAD
1000
AcDbSavedByObjectVersion
1070
     0
  0
DICTIONARYVAR
  5
D02
102
{ACAD_REACTORS
330
CFD
102
}
330
CFD
100
DictionaryVariables
280
     0
  1
1:1
  0
DICTIONARYVAR
  5
D03
102
{ACAD_REACTORS
330
CFD
102
}
330
CFD
100
DictionaryVariables
280
     0
  1
2
  0
DICTIONARYVAR
  5
D04
102
{ACAD_REACTORS
330
CFD
102
}
330
CFD
100
DictionaryVariables
280
     0
  1
1
  0
DICTIONARYVAR
  5
D01
102
{ACAD_REACTORS
330
CFD
102
}
330
CFD
100
DictionaryVariables
280
     0
  1
80.000000
  0
DICTIONARYVAR
  5
D00
102
{ACAD_REACTORS
330
CFD
102
}
330
CFD
100
DictionaryVariables
280
     0
  1
5.000000
  0
DICTIONARY
  5
D27
330
3D
100
AcDbDictionary
280
     1
281
     1
  3
ACAD_XREC_ROUNDTRIP
360
D28
  0
DICTIONARY
  5
D25
330
3C
100
AcDbDictionary
280
     1
281
     1
  3
ACAD_XREC_ROUNDTRIP
360
D26
  0
DICTIONARY
  5
D29
330
3E
100
AcDbDictionary
280
     1
281
     1
  3
ACAD_XREC_ROUNDTRIP
360
D2A
  0
DICTIONARY
  5
D0D
330
2F
100
AcDbDictionary
280
     1
281
     1
  3
ACAD_XREC_ROUNDTRIP
360
D0E
  0
DICTIONARY
  5
D11
330
31
100
AcDbDictionary
280
     1
281
     1
  3
ACAD_XREC_ROUNDTRIP
360
D12
  0
DICTIONARY
  5
D0F
330
30
100
AcDbDictionary
280
     1
281
     1
  3
ACAD_XREC_ROUNDTRIP
360
D10
  0
DICTIONARY
  5
D13
330
32
100
AcDbDictionary
280
     1
281
     1
  3
ACAD_XREC_ROUNDTRIP
360
D14
  0
DICTIONARY
  5
D1B
330
36
100
AcDbDictionary
280
     1
281
     1
  3
ACAD_XREC_ROUNDTRIP
360
D1C
  0
DICTIONARY
  5
D23
330
3A
100
AcDbDictionary
280
     1
281
     1
  3
ACAD_XREC_ROUNDTRIP
360
D24
  0
DICTIONARY
  5
D17
330
34
100
AcDbDictionary
280
     1
281
     1
  3
ACAD_XREC_ROUNDTRIP
360
D18
  0
DICTIONARY
  5
D19
330
35
100
AcDbDictionary
280
     1
281
     1
  3
ACAD_XREC_ROUNDTRIP
360
D1A
  0
DICTIONARY
  5
D21
330
39
100
AcDbDictionary
280
     1
281
     1
  3
ACAD_XREC_ROUNDTRIP
360
D22
  0
DICTIONARY
  5
D05
330
2B
100
AcDbDictionary
280
     1
281
     1
  3
ACAD_XREC_ROUNDTRIP
360
D06
  0
DICTIONARY
  5
D07
330
2C
100
AcDbDictionary
280
     1
281
     1
  3
ACAD_XREC_ROUNDTRIP
360
D08
  0
DICTIONARY
  5
D09
330
2D
100
AcDbDictionary
280
     1
281
     1
  3
ACAD_XREC_ROUNDTRIP
360
D0A
  0
DICTIONARY
  5
D0B
330
2E
100
AcDbDictionary
280
     1
281
     1
  3
ACAD_XREC_ROUNDTRIP
360
D0C
  0
DICTIONARY
  5
D1F
330
38
100
AcDbDictionary
280
     1
281
     1
  3
ACAD_XREC_ROUNDTRIP
360
D20
  0
DICTIONARY
  5
D15
330
33
100
AcDbDictionary
280
     1
281
     1
  3
ACAD_XREC_ROUNDTRIP
360
D16
  0
DICTIONARY
  5
D1D
330
37
100
AcDbDictionary
280
     1
281
     1
  3
ACAD_XREC_ROUNDTRIP
360
D1E
  0
XRECORD
  5
D28
102
{ACAD_REACTORS
330
D27
102
}
330
D27
100
AcDbXrecord
280
     1
102
MATERIAL
148
0.0
149
0.0
149
0.0
 93
        0
 94
      127
282
     0
 72
     1
 77
     1
171
     1
175
     1
179
     1
273
     0
  0
XRECORD
  5
D26
102
{ACAD_REACTORS
330
D25
102
}
330
D25
100
AcDbXrecord
280
     1
102
MATERIAL
148
0.0
149
0.0
149
0.0
 93
        0
 94
      127
282
     0
 72
     1
 77
     1
171
     1
175
     1
179
     1
273
     0
  0
XRECORD
  5
D2A
102
{ACAD_REACTORS
330
D29
102
}
330
D29
100
AcDbXrecord
280
     1
102
MATERIAL
148
0.0
149
0.0
149
0.0
 93
        0
 94
      127
282
     0
 72
     1
 77
     1
171
     1
175
     1
179
     1
273
     0
  0
XRECORD
  5
D0E
102
{ACAD_REACTORS
330
D0D
102
}
330
D0D
100
AcDbXrecord
280
     1
102
RTVSPropertyOp0
 70
     1
102
RTVSPropertyOp1
 70
     1
102
RTVSPropertyOp2
 70
     1
102
RTVSPropertyOp3
 70
     1
102
RTVSPropertyOp4
 70
     1
102
RTVSPropertyOp5
 70
     1
102
RTVSPropertyOp6
 70
     1
102
RTVSPropertyOp7
 70
     1
102
RTVSPropertyOp8
 70
     1
102
RTVSPropertyOp9
 70
     1
102
RTVSPropertyOp10
 70
     1
102
RTVSPropertyOp11
 70
     1
102
RTVSPropertyOp12
 70
     1
102
RTVSPropertyOp13
 70
     1
102
RTVSPropertyOp14
 70
     1
102
RTVSPropertyOp15
 70
     1
102
RTVSPropertyOp16
 70
     1
102
RTVSPropertyOp17
 70
     1
102
RTVSPropertyOp18
 70
     1
102
RTVSPropertyOp19
 70
     1
102
RTVSPropertyOp20
 70
     1
102
RTVSPropertyOp21
 70
     1
102
RTVSPropertyOp22
 70
     1
102
RTVSPropertyOp23
 70
     1
102
RTVSPropertyOp24
 70
     1
102
RTVSPropertyOp25
 70
     1
102
RTVSPropertyOp26
 70
     1
102
RTVSPropertyOp27
 70
     1
  0
XRECORD
  5
D12
102
{ACAD_REACTORS
330
D11
102
}
330
D11
100
AcDbXrecord
280
     1
102
RTVSPropertyOp0
 70
     1
102
RTVSPropertyOp1
 70
     1
102
RTVSPropertyOp2
 70
     1
102
RTVSPropertyOp3
 70
     1
102
RTVSPropertyOp4
 70
     1
102
RTVSPropertyOp5
 70
     1
102
RTVSPropertyOp6
 70
     1
102
RTVSPropertyOp7
 70
     1
102
RTVSPropertyOp8
 70
     1
102
RTVSPropertyOp9
 70
     1
102
RTVSPropertyOp10
 70
     1
102
RTVSPropertyOp11
 70
     1
102
RTVSPropertyOp12
 70
     1
102
RTVSPropertyOp13
 70
     1
102
RTVSPropertyOp14
 70
     1
102
RTVSPropertyOp15
 70
     1
102
RTVSPropertyOp16
 70
     1
102
RTVSPropertyOp17
 70
     1
102
RTVSPropertyOp18
 70
     1
102
RTVSPropertyOp19
 70
     1
102
RTVSPropertyOp20
 70
     1
102
RTVSPropertyOp21
 70
     1
102
RTVSPropertyOp22
 70
     1
102
RTVSPropertyOp23
 70
     1
102
RTVSPropertyOp24
 70
     1
102
RTVSPropertyOp25
 70
     1
102
RTVSPropertyOp26
 70
     1
102
RTVSPropertyOp27
 70
     1
  0
XRECORD
  5
D10
102
{ACAD_REACTORS
330
D0F
102
}
330
D0F
100
AcDbXrecord
280
     1
102
RTVSPropertyOp0
 70
     1
102
RTVSPropertyOp1
 70
     1
102
RTVSPropertyOp2
 70
     1
102
RTVSPropertyOp3
 70
     1
102
RTVSPropertyOp4
 70
     1
102
RTVSPropertyOp5
 70
     1
102
RTVSPropertyOp6
 70
     1
102
RTVSPropertyOp7
 70
     1
102
RTVSPropertyOp8
 70
     1
102
RTVSPropertyOp9
 70
     1
102
RTVSPropertyOp10
 70
     1
102
RTVSPropertyOp11
 70
     1
102
RTVSPropertyOp12
 70
     1
102
RTVSPropertyOp13
 70
     1
102
RTVSPropertyOp14
 70
     1
102
RTVSPropertyOp15
 70
     1
102
RTVSPropertyOp16
 70
     1
102
RTVSPropertyOp17
 70
     1
102
RTVSPropertyOp18
 70
     1
102
RTVSPropertyOp19
 70
     1
102
RTVSPropertyOp20
 70
     1
102
RTVSPropertyOp21
 70
     1
102
RTVSPropertyOp22
 70
     1
102
RTVSPropertyOp23
 70
     1
102
RTVSPropertyOp24
 70
     1
102
RTVSPropertyOp25
 70
     1
102
RTVSPropertyOp26
 70
     1
102
RTVSPropertyOp27
 70
     1
  0
XRECORD
  5
D14
102
{ACAD_REACTORS
330
D13
102
}
330
D13
100
AcDbXrecord
280
     1
102
RTVSPropertyOp0
 70
     1
102
RTVSPropertyOp1
 70
     1
102
RTVSPropertyOp2
 70
     1
102
RTVSPropertyOp3
 70
     1
102
RTVSPropertyOp4
 70
     1
102
RTVSPropertyOp5
 70
     1
102
RTVSPropertyOp6
 70
     1
102
RTVSPropertyOp7
 70
     1
102
RTVSPropertyOp8
 70
     1
102
RTVSPropertyOp9
 70
     1
102
RTVSPropertyOp10
 70
     1
102
RTVSPropertyOp11
 70
     1
102
RTVSPropertyOp12
 70
     1
102
RTVSPropertyOp13
 70
     1
102
RTVSPropertyOp14
 70
     1
102
RTVSPropertyOp15
 70
     1
102
RTVSPropertyOp16
 70
     1
102
RTVSPropertyOp17
 70
     1
102
RTVSPropertyOp18
 70
     1
102
RTVSPropertyOp19
 70
     1
102
RTVSPropertyOp20
 70
     1
102
RTVSPropertyOp21
 70
     1
102
RTVSPropertyOp22
 70
     1
102
RTVSPropertyOp23
 70
     1
102
RTVSPropertyOp24
 70
     1
102
RTVSPropertyOp25
 70
     1
102
RTVSPropertyOp26
 70
     1
102
RTVSPropertyOp27
 70
     1
  0
XRECORD
  5
D1C
102
{ACAD_REACTORS
330
D1B
102
}
330
D1B
100
AcDbXrecord
280
     1
102
RTVSPropertyOp0
 70
     1
102
RTVSPropertyOp1
 70
     1
102
RTVSPropertyOp2
 70
     1
102
RTVSPropertyOp3
 70
     1
102
RTVSPropertyOp4
 70
     1
102
RTVSPropertyOp5
 70
     1
102
RTVSPropertyOp6
 70
     1
102
RTVSPropertyOp7
 70
     1
102
RTVSPropertyOp8
 70
     1
102
RTVSPropertyOp9
 70
     1
102
RTVSPropertyOp10
 70
     1
102
RTVSPropertyOp11
 70
     1
102
RTVSPropertyOp12
 70
     1
102
RTVSPropertyOp13
 70
     1
102
RTVSPropertyOp14
 70
     1
102
RTVSPropertyOp15
 70
     1
102
RTVSPropertyOp16
 70
     1
102
RTVSPropertyOp17
 70
     1
102
RTVSPropertyOp18
 70
     1
102
RTVSPropertyOp19
 70
     1
102
RTVSPropertyOp20
 70
     1
102
RTVSPropertyOp21
 70
     1
102
RTVSPropertyOp22
 70
     1
102
RTVSPropertyOp23
 70
     1
102
RTVSPropertyOp24
 70
     1
102
RTVSPropertyOp25
 70
     1
102
RTVSPropertyOp26
 70
     1
102
RTVSPropertyOp27
 70
     1
  0
XRECORD
  5
D24
102
{ACAD_REACTORS
330
D23
102
}
330
D23
100
AcDbXrecord
280
     1
102
RTVSPropertyOp0
 70
     1
102
RTVSPropertyOp1
 70
     1
102
RTVSPropertyOp2
 70
     1
102
RTVSPropertyOp3
 70
     1
102
RTVSPropertyOp4
 70
     1
102
RTVSPropertyOp5
 70
     1
102
RTVSPropertyOp6
 70
     1
102
RTVSPropertyOp7
 70
     1
102
RTVSPropertyOp8
 70
     1
102
RTVSPropertyOp9
 70
     1
102
RTVSPropertyOp10
 70
     1
102
RTVSPropertyOp11
 70
     1
102
RTVSPropertyOp12
 70
     1
102
RTVSPropertyOp13
 70
     1
102
RTVSPropertyOp14
 70
     1
102
RTVSPropertyOp15
 70
     1
102
RTVSPropertyOp16
 70
     1
102
RTVSPropertyOp17
 70
     1
102
RTVSPropertyOp18
 70
     1
102
RTVSPropertyOp19
 70
     1
102
RTVSPropertyOp20
 70
     1
102
RTVSPropertyOp21
 70
     1
102
RTVSPropertyOp22
 70
     1
102
RTVSPropertyOp23
 70
     1
102
RTVSPropertyOp24
 70
     1
102
RTVSPropertyOp25
 70
     1
102
RTVSPropertyOp26
 70
     1
102
RTVSPropertyOp27
 70
     1
  0
XRECORD
  5
D18
102
{ACAD_REACTORS
330
D17
102
}
330
D17
100
AcDbXrecord
280
     1
102
RTVSPropertyOp0
 70
     1
102
RTVSPropertyOp1
 70
     1
102
RTVSPropertyOp2
 70
     1
102
RTVSPropertyOp3
 70
     1
102
RTVSPropertyOp4
 70
     1
102
RTVSPropertyOp5
 70
     1
102
RTVSPropertyOp6
 70
     1
102
RTVSPropertyOp7
 70
     1
102
RTVSPropertyOp8
 70
     1
102
RTVSPropertyOp9
 70
     1
102
RTVSPropertyOp10
 70
     1
102
RTVSPropertyOp11
 70
     1
102
RTVSPropertyOp12
 70
     1
102
RTVSPropertyOp13
 70
     1
102
RTVSPropertyOp14
 70
     1
102
RTVSPropertyOp15
 70
     1
102
RTVSPropertyOp16
 70
     1
102
RTVSPropertyOp17
 70
     1
102
RTVSPropertyOp18
 70
     1
102
RTVSPropertyOp19
 70
     1
102
RTVSPropertyOp20
 70
     1
102
RTVSPropertyOp21
 70
     1
102
RTVSPropertyOp22
 70
     1
102
RTVSPropertyOp23
 70
     1
102
RTVSPropertyOp24
 70
     1
102
RTVSPropertyOp25
 70
     1
102
RTVSPropertyOp26
 70
     1
102
RTVSPropertyOp27
 70
     1
  0
XRECORD
  5
D1A
102
{ACAD_REACTORS
330
D19
102
}
330
D19
100
AcDbXrecord
280
     1
102
RTVSPropertyOp0
 70
     1
102
RTVSPropertyOp1
 70
     1
102
RTVSPropertyOp2
 70
     1
102
RTVSPropertyOp3
 70
     1
102
RTVSPropertyOp4
 70
     1
102
RTVSPropertyOp5
 70
     1
102
RTVSPropertyOp6
 70
     1
102
RTVSPropertyOp7
 70
     1
102
RTVSPropertyOp8
 70
     1
102
RTVSPropertyOp9
 70
     1
102
RTVSPropertyOp10
 70
     1
102
RTVSPropertyOp11
 70
     1
102
RTVSPropertyOp12
 70
     1
102
RTVSPropertyOp13
 70
     1
102
RTVSPropertyOp14
 70
     1
102
RTVSPropertyOp15
 70
     1
102
RTVSPropertyOp16
 70
     1
102
RTVSPropertyOp17
 70
     1
102
RTVSPropertyOp18
 70
     1
102
RTVSPropertyOp19
 70
     1
102
RTVSPropertyOp20
 70
     1
102
RTVSPropertyOp21
 70
     1
102
RTVSPropertyOp22
 70
     1
102
RTVSPropertyOp23
 70
     1
102
RTVSPropertyOp24
 70
     1
102
RTVSPropertyOp25
 70
     1
102
RTVSPropertyOp26
 70
     1
102
RTVSPropertyOp27
 70
     1
  0
XRECORD
  5
D22
102
{ACAD_REACTORS
330
D21
102
}
330
D21
100
AcDbXrecord
280
     1
102
RTVSPropertyOp0
 70
     1
102
RTVSPropertyOp1
 70
     1
102
RTVSPropertyOp2
 70
     1
102
RTVSPropertyOp3
 70
     1
102
RTVSPropertyOp4
 70
     1
102
RTVSPropertyOp5
 70
     1
102
RTVSPropertyOp6
 70
     1
102
RTVSPropertyOp7
 70
     1
102
RTVSPropertyOp8
 70
     1
102
RTVSPropertyOp9
 70
     1
102
RTVSPropertyOp10
 70
     1
102
RTVSPropertyOp11
 70
     1
102
RTVSPropertyOp12
 70
     1
102
RTVSPropertyOp13
 70
     1
102
RTVSPropertyOp14
 70
     1
102
RTVSPropertyOp15
 70
     1
102
RTVSPropertyOp16
 70
     1
102
RTVSPropertyOp17
 70
     1
102
RTVSPropertyOp18
 70
     1
102
RTVSPropertyOp19
 70
     1
102
RTVSPropertyOp20
 70
     1
102
RTVSPropertyOp21
 70
     1
102
RTVSPropertyOp22
 70
     1
102
RTVSPropertyOp23
 70
     1
102
RTVSPropertyOp24
 70
     1
102
RTVSPropertyOp25
 70
     1
102
RTVSPropertyOp26
 70
     1
102
RTVSPropertyOp27
 70
     1
  0
XRECORD
  5
D06
102
{ACAD_REACTORS
330
D05
102
}
330
D05
100
AcDbXrecord
280
     1
102
RTVSPropertyOp0
 70
     1
102
RTVSPropertyOp1
 70
     1
102
RTVSPropertyOp2
 70
     1
102
RTVSPropertyOp3
 70
     1
102
RTVSPropertyOp4
 70
     1
102
RTVSPropertyOp5
 70
     1
102
RTVSPropertyOp6
 70
     1
102
RTVSPropertyOp7
 70
     1
102
RTVSPropertyOp8
 70
     1
102
RTVSPropertyOp9
 70
     1
102
RTVSPropertyOp10
 70
     1
102
RTVSPropertyOp11
 70
     1
102
RTVSPropertyOp12
 70
     1
102
RTVSPropertyOp13
 70
     1
102
RTVSPropertyOp14
 70
     1
102
RTVSPropertyOp15
 70
     1
102
RTVSPropertyOp16
 70
     1
102
RTVSPropertyOp17
 70
     1
102
RTVSPropertyOp18
 70
     1
102
RTVSPropertyOp19
 70
     1
102
RTVSPropertyOp20
 70
     1
102
RTVSPropertyOp21
 70
     1
102
RTVSPropertyOp22
 70
     1
102
RTVSPropertyOp23
 70
     1
102
RTVSPropertyOp24
 70
     1
102
RTVSPropertyOp25
 70
     1
102
RTVSPropertyOp26
 70
     1
102
RTVSPropertyOp27
 70
     1
  0
XRECORD
  5
D08
102
{ACAD_REACTORS
330
D07
102
}
330
D07
100
AcDbXrecord
280
     1
102
RTVSPropertyOp0
 70
     1
102
RTVSPropertyOp1
 70
     1
102
RTVSPropertyOp2
 70
     1
102
RTVSPropertyOp3
 70
     1
102
RTVSPropertyOp4
 70
     1
102
RTVSPropertyOp5
 70
     1
102
RTVSPropertyOp6
 70
     1
102
RTVSPropertyOp7
 70
     1
102
RTVSPropertyOp8
 70
     1
102
RTVSPropertyOp9
 70
     1
102
RTVSPropertyOp10
 70
     1
102
RTVSPropertyOp11
 70
     1
102
RTVSPropertyOp12
 70
     1
102
RTVSPropertyOp13
 70
     1
102
RTVSPropertyOp14
 70
     1
102
RTVSPropertyOp15
 70
     1
102
RTVSPropertyOp16
 70
     1
102
RTVSPropertyOp17
 70
     1
102
RTVSPropertyOp18
 70
     1
102
RTVSPropertyOp19
 70
     1
102
RTVSPropertyOp20
 70
     1
102
RTVSPropertyOp21
 70
     1
102
RTVSPropertyOp22
 70
     1
102
RTVSPropertyOp23
 70
     1
102
RTVSPropertyOp24
 70
     1
102
RTVSPropertyOp25
 70
     1
102
RTVSPropertyOp26
 70
     1
102
RTVSPropertyOp27
 70
     1
  0
XRECORD
  5
D0A
102
{ACAD_REACTORS
330
D09
102
}
330
D09
100
AcDbXrecord
280
     1
102
RTVSPropertyOp0
 70
     1
102
RTVSPropertyOp1
 70
     1
102
RTVSPropertyOp2
 70
     1
102
RTVSPropertyOp3
 70
     1
102
RTVSPropertyOp4
 70
     1
102
RTVSPropertyOp5
 70
     1
102
RTVSPropertyOp6
 70
     1
102
RTVSPropertyOp7
 70
     1
102
RTVSPropertyOp8
 70
     1
102
RTVSPropertyOp9
 70
     1
102
RTVSPropertyOp10
 70
     1
102
RTVSPropertyOp11
 70
     1
102
RTVSPropertyOp12
 70
     1
102
RTVSPropertyOp13
 70
     1
102
RTVSPropertyOp14
 70
     1
102
RTVSPropertyOp15
 70
     1
102
RTVSPropertyOp16
 70
     1
102
RTVSPropertyOp17
 70
     1
102
RTVSPropertyOp18
 70
     1
102
RTVSPropertyOp19
 70
     1
102
RTVSPropertyOp20
 70
     1
102
RTVSPropertyOp21
 70
     1
102
RTVSPropertyOp22
 70
     1
102
RTVSPropertyOp23
 70
     1
102
RTVSPropertyOp24
 70
     1
102
RTVSPropertyOp25
 70
     1
102
RTVSPropertyOp26
 70
     1
102
RTVSPropertyOp27
 70
     1
  0
XRECORD
  5
D0C
102
{ACAD_REACTORS
330
D0B
102
}
330
D0B
100
AcDbXrecord
280
     1
102
RTVSPropertyOp0
 70
     1
102
RTVSPropertyOp1
 70
     1
102
RTVSPropertyOp2
 70
     1
102
RTVSPropertyOp3
 70
     1
102
RTVSPropertyOp4
 70
     1
102
RTVSPropertyOp5
 70
     1
102
RTVSPropertyOp6
 70
     1
102
RTVSPropertyOp7
 70
     1
102
RTVSPropertyOp8
 70
     1
102
RTVSPropertyOp9
 70
     1
102
RTVSPropertyOp10
 70
     1
102
RTVSPropertyOp11
 70
     1
102
RTVSPropertyOp12
 70
     1
102
RTVSPropertyOp13
 70
     1
102
RTVSPropertyOp14
 70
     1
102
RTVSPropertyOp15
 70
     1
102
RTVSPropertyOp16
 70
     1
102
RTVSPropertyOp17
 70
     1
102
RTVSPropertyOp18
 70
     1
102
RTVSPropertyOp19
 70
     1
102
RTVSPropertyOp20
 70
     1
102
RTVSPropertyOp21
 70
     1
102
RTVSPropertyOp22
 70
     1
102
RTVSPropertyOp23
 70
     1
102
RTVSPropertyOp24
 70
     1
102
RTVSPropertyOp25
 70
     1
102
RTVSPropertyOp26
 70
     1
102
RTVSPropertyOp27
 70
     1
  0
XRECORD
  5
D20
102
{ACAD_REACTORS
330
D1F
102
}
330
D1F
100
AcDbXrecord
280
     1
102
RTVSPropertyOp0
 70
     1
102
RTVSPropertyOp1
 70
     1
102
RTVSPropertyOp2
 70
     1
102
RTVSPropertyOp3
 70
     1
102
RTVSPropertyOp4
 70
     1
102
RTVSPropertyOp5
 70
     1
102
RTVSPropertyOp6
 70
     1
102
RTVSPropertyOp7
 70
     1
102
RTVSPropertyOp8
 70
     1
102
RTVSPropertyOp9
 70
     1
102
RTVSPropertyOp10
 70
     1
102
RTVSPropertyOp11
 70
     1
102
RTVSPropertyOp12
 70
     1
102
RTVSPropertyOp13
 70
     1
102
RTVSPropertyOp14
 70
     1
102
RTVSPropertyOp15
 70
     1
102
RTVSPropertyOp16
 70
     1
102
RTVSPropertyOp17
 70
     1
102
RTVSPropertyOp18
 70
     1
102
RTVSPropertyOp19
 70
     1
102
RTVSPropertyOp20
 70
     1
102
RTVSPropertyOp21
 70
     1
102
RTVSPropertyOp22
 70
     1
102
RTVSPropertyOp23
 70
     1
102
RTVSPropertyOp24
 70
     1
102
RTVSPropertyOp25
 70
     1
102
RTVSPropertyOp26
 70
     1
102
RTVSPropertyOp27
 70
     1
  0
XRECORD
  5
D16
102
{ACAD_REACTORS
330
D15
102
}
330
D15
100
AcDbXrecord
280
     1
102
RTVSPropertyOp0
 70
     1
102
RTVSPropertyOp1
 70
     1
102
RTVSPropertyOp2
 70
     1
102
RTVSPropertyOp3
 70
     1
102
RTVSPropertyOp4
 70
     1
102
RTVSPropertyOp5
 70
     1
102
RTVSPropertyOp6
 70
     1
102
RTVSPropertyOp7
 70
     1
102
RTVSPropertyOp8
 70
     1
102
RTVSPropertyOp9
 70
     1
102
RTVSPropertyOp10
 70
     1
102
RTVSPropertyOp11
 70
     1
102
RTVSPropertyOp12
 70
     1
102
RTVSPropertyOp13
 70
     1
102
RTVSPropertyOp14
 70
     1
102
RTVSPropertyOp15
 70
     1
102
RTVSPropertyOp16
 70
     1
102
RTVSPropertyOp17
 70
     1
102
RTVSPropertyOp18
 70
     1
102
RTVSPropertyOp19
 70
     1
102
RTVSPropertyOp20
 70
     1
102
RTVSPropertyOp21
 70
     1
102
RTVSPropertyOp22
 70
     1
102
RTVSPropertyOp23
 70
     1
102
RTVSPropertyOp24
 70
     1
102
RTVSPropertyOp25
 70
     1
102
RTVSPropertyOp26
 70
     1
102
RTVSPropertyOp27
 70
     1
  0
XRECORD
  5
D1E
102
{ACAD_REACTORS
330
D1D
102
}
330
D1D
100
AcDbXrecord
280
     1
102
RTVSPropertyOp0
 70
     1
102
RTVSPropertyOp1
 70
     1
102
RTVSPropertyOp2
 70
     1
102
RTVSPropertyOp3
 70
     1
102
RTVSPropertyOp4
 70
     1
102
RTVSPropertyOp5
 70
     1
102
RTVSPropertyOp6
 70
     1
102
RTVSPropertyOp7
 70
     1
102
RTVSPropertyOp8
 70
     1
102
RTVSPropertyOp9
 70
     1
102
RTVSPropertyOp10
 70
     1
102
RTVSPropertyOp11
 70
     1
102
RTVSPropertyOp12
 70
     1
102
RTVSPropertyOp13
 70
     1
102
RTVSPropertyOp14
 70
     1
102
RTVSPropertyOp15
 70
     1
102
RTVSPropertyOp16
 70
     1
102
RTVSPropertyOp17
 70
     1
102
RTVSPropertyOp18
 70
     1
102
RTVSPropertyOp19
 70
     1
102
RTVSPropertyOp20
 70
     1
102
RTVSPropertyOp21
 70
     1
102
RTVSPropertyOp22
 70
     1
102
RTVSPropertyOp23
 70
     1
102
RTVSPropertyOp24
 70
     1
102
RTVSPropertyOp25
 70
     1
102
RTVSPropertyOp26
 70
     1
102
RTVSPropertyOp27
 70
     1
  0
ENDSEC
  0
EOF
