  0
SECTION
  2
HEADER
  9
$ACADVER
  1
AC1015
  9
$ACADMAINTVER
 70
     6
  9
$DWGCODEPAGE
  3
ANSI_1252
  9
$INSBASE
 10
0.0
 20
0.0
 30
0.0
  9
$EXTMIN
 10
0.0
 20
0.0
 30
0.0
  9
$EXTMAX
 10
25.0
 20
35.0
 30
0.0
  9
$LIMMIN
 10
0.0
 20
0.0
  9
$LIMMAX
 10
420.0
 20
297.0
  9
$ORTHOMODE
 70
     0
  9
$REGENMODE
 70
     1
  9
$FILLMODE
 70
     1
  9
$QTEXTMODE
 70
     0
  9
$MIRRTEXT
 70
     1
  9
$LTSCALE
 40
5.85
  9
$ATTMODE
 70
     1
  9
$TEXTSIZE
 40
2.5
  9
$TRACEWID
 40
1.0
  9
$TEXTSTYLE
  7
Standard
  9
$CLAYER
  8
0
  9
$CELTYPE
  6
ByLayer
  9
$CECOLOR
 62
   256
  9
$CELTSCALE
 40
1.0
  9
$DISPSILH
 70
     0
  9
$DIMSCALE
 40
1.0
  9
$DIMASZ
 40
2.5
  9
$DIMEXO
 40
0.625
  9
$DIMDLI
 40
3.75
  9
$DIMRND
 40
0.0
  9
$DIMDLE
 40
0.0
  9
$DIMEXE
 40
1.25
  9
$DIMTP
 40
0.0
  9
$DIMTM
 40
0.0
  9
$DIMTXT
 40
2.5
  9
$DIMCEN
 40
2.5
  9
$DIMTSZ
 40
0.0
  9
$DIMTOL
 70
     0
  9
$DIMLIM
 70
     0
  9
$DIMTIH
 70
     0
  9
$DIMTOH
 70
     0
  9
$DIMSE1
 70
     0
  9
$DIMSE2
 70
     0
  9
$DIMTAD
 70
     1
  9
$DIMZIN
 70
     8
  9
$DIMBLK
  1

  9
$DIMASO
 70
     1
  9
$DIMSHO
 70
     1
  9
$DIMPOST
  1

  9
$DIMAPOST
  1

  9
$DIMALT
 70
     0
  9
$DIMALTD
 70
     3
  9
$DIMALTF
 40
0.03937007874016
  9
$DIMLFAC
 40
1.0
  9
$DIMTOFL
 70
     1
  9
$DIMTVP
 40
0.0
  9
$DIMTIX
 70
     0
  9
$DIMSOXD
 70
     0
  9
$DIMSAH
 70
     0
  9
$DIMBLK1
  1

  9
$DIMBLK2
  1

  9
$DIMSTYLE
  2
ISO-25
  9
$DIMCLRD
 70
     0
  9
$DIMCLRE
 70
     0
  9
$DIMCLRT
 70
     0
  9
$DIMTFAC
 40
1.0
  9
$DIMGAP
 40
0.625
  9
$DIMJUST
 70
     0
  9
$DIMSD1
 70
     0
  9
$DIMSD2
 70
     0
  9
$DIMTOLJ
 70
     0
  9
$DIMTZIN
 70
     8
  9
$DIMALTZ
 70
     0
  9
$DIMALTTZ
 70
     0
  9
$DIMUPT
 70
     0
  9
$DIMDEC
 70
     2
  9
$DIMTDEC
 70
     2
  9
$DIMALTU
 70
     2
  9
$DIMALTTD
 70
     3
  9
$DIMTXSTY
  7
Standard
  9
$DIMAUNIT
 70
     0
  9
$DIMADEC
 70
     0
  9
$DIMALTRND
 40
0.0
  9
$DIMAZIN
 70
     0
  9
$DIMDSEP
 70
    44
  9
$DIMATFIT
 70
     3
  9
$DIMFRAC
 70
     0
  9
$DIMLDRBLK
  1

  9
$DIMLUNIT
 70
     2
  9
$DIMLWD
 70
    -2
  9
$DIMLWE
 70
    -2
  9
$DIMTMOVE
 70
     0
  9
$LUNITS
 70
     2
  9
$LUPREC
 70
     4
  9
$SKETCHINC
 40
1.0
  9
$FILLETRAD
 40
10.0
  9
$AUNITS
 70
     0
  9
$AUPREC
 70
     0
  9
$MENU
  1
.
  9
$ELEVATION
 40
0.0
  9
$PELEVATION
 40
0.0
  9
$THICKNESS
 40
0.0
  9
$LIMCHECK
 70
     0
  9
$CHAMFERA
 40
10.0
  9
$CHAMFERB
 40
10.0
  9
$CHAMFERC
 40
20.0
  9
$CHAMFERD
 40
0.0
  9
$SKPOLY
 70
     0
  9
$TDCREATE
 40
2460185.875
  9
$TDUCREATE
 40
2460185.791666667
  9
$TDUPDATE
 40
2460185.878472222
  9
$TDUUPDATE
 40
2460185.795138889
  9
$TDINDWG
 40
0.0000000116
  9
$TDUSRTIMER
 40
0.0000000116
  9
$USRTIMER
 70
     1
  9
$ANGBASE
 50
0.0
  9
$ANGDIR
 70
     0
  9
$PDMODE
 70
     0
  9
$PDSIZE
 40
0.0
  9
$PLINEWID
 40
0.0
  9
$SPLFRAME
 70
     0
  9
$SPLINETYPE
 70
     6
  9
$SPLINESEGS
 70
     8
  9
$HANDSEED
  5
898
  9
$SURFTAB1
 70
     6
  9
$SURFTAB2
 70
     6
  9
$SURFTYPE
 70
     6
  9
$SURFU
 70
     6
  9
$SURFV
 70
     6
  9
$UCSBASE
  2

  9
$UCSNAME
  2

  9
$UCSORG
 10
0.0
 20
0.0
 30
0.0
  9
$UCSXDIR
 10
1.0
 20
0.0
 30
0.0
  9
$UCSYDIR
 10
0.0
 20
1.0
 30
0.0
  9
$UCSORTHOREF
  2

  9
$UCSORTHOVIEW
 70
     0
  9
$UCSORGTOP
 10
0.0
 20
0.0
 30
0.0
  9
$UCSORGBOTTOM
 10
0.0
 20
0.0
 30
0.0
  9
$UCSORGLEFT
 10
0.0
 20
0.0
 30
0.0
  9
$UCSORGRIGHT
 10
0.0
 20
0.0
 30
0.0
  9
$UCSORGFRONT
 10
0.0
 20
0.0
 30
0.0
  9
$UCSORGBACK
 10
0.0
 20
0.0
 30
0.0
  9
$PUCSBASE
  2

  9
$PUCSNAME
  2

  9
$PUCSORG
 10
0.0
 20
0.0
 30
0.0
  9
$PUCSXDIR
 10
1.0
 20
0.0
 30
0.0
  9
$PUCSYDIR
 10
0.0
 20
1.0
 30
0.0
  9
$PUCSORTHOREF
  2

  9
$PUCSORTHOVIEW
 70
     0
  9
$PUCSORGTOP
 10
0.0
 20
0.0
 30
0.0
  9
$PUCSORGBOTTOM
 10
0.0
 20
0.0
 30
0.0
  9
$PUCSORGLEFT
 10
0.0
 20
0.0
 30
0.0
  9
$PUCSORGRIGHT
 10
0.0
 20
0.0
 30
0.0
  9
$PUCSORGFRONT
 10
0.0
 20
0.0
 30
0.0
  9
$PUCSORGBACK
 10
0.0
 20
0.0
 30
0.0
  9
$USERI1
 70
     0
  9
$USERI2
 70
     0
  9
$USERI3
 70
     0
  9
$USERI4
 70
     0
  9
$USERI5
 70
     0
  9
$USERR1
 40
0.0
  9
$USERR2
 40
0.0
  9
$USERR3
 40
0.0
  9
$USERR4
 40
0.0
  9
$USERR5
 40
0.0
  9
$WORLDVIEW
 70
     1
  9
$SHADEDGE
 70
     3
  9
$SHADEDIF
 70
    70
  9
$TILEMODE
 70
     1
  9
$MAXACTVP
 70
    64
  9
$PINSBASE
 10
0.0
 20
0.0
 30
0.0
  9
$PLIMCHECK
 70
     0
  9
$PEXTMIN
 10
1.000000000000000E+20
 20
1.000000000000000E+20
 30
1.000000000000000E+20
  9
$PEXTMAX
 10
-1.000000000000000E+20
 20
-1.000000000000000E+20
 30
-1.000000000000000E+20
  9
$PLIMMIN
 10
0.0
 20
0.0
  9
$PLIMMAX
 10
420.0
 20
297.0
  9
$UNITMODE
 70
     0
  9
$VISRETAIN
 70
     1
  9
$PLINEGEN
 70
     0
  9
$PSLTSCALE
 70
     1
  9
$TREEDEPTH
 70
  3020
  9
$CMLSTYLE
  2
Standard
  9
$CMLJUST
 70
     0
  9
$CMLSCALE
 40
20.0
  9
$PROXYGRAPHICS
 70
     1
  9
$MEASUREMENT
 70
     1
  9
$CELWEIGHT
370
    -1
  9
$ENDCAPS
280
     0
  9
$JOINSTYLE
280
     0
  9
$LWDISPLAY
290
     0
  9
$INSUNITS
 70
     4
  9
$HYPERLINKBASE
  1

  9
$STYLESHEET
  1

  9
$XEDIT
290
     1
  9
$CEPSNTYPE
380
     0
  9
$PSTYLEMODE
290
     1
  9
$FINGERPRINTGUID
  2
{6A4EA1AA-B4CC-4785-BC4C-8BE7E9269A17}
  9
$VERSIONGUID
  2
{FAEB1C32-E019-11D5-929B-00C0DF256EC4}
  9
$EXTNAMES
290
     1
  9
$PSVPSCALE
 40
0.0
  9
$OLESTARTUP
290
     0
  0
ENDSEC
  0
SECTION
  2
CLASSES
  0
CLASS
  1
ACDBDICTIONARYWDFLT
  2
AcDbDictionaryWithDefault
  3
ObjectDBX Classes
 90
        0
280
     0
281
     0
  0
CLASS
  1
VISUALSTYLE
  2
AcDbVisualStyle
  3
ObjectDBX Classes
 90
     4095
280
     0
281
     0
  0
CLASS
  1
MATERIAL
  2
AcDbMaterial
  3
ObjectDBX Classes
 90
     1153
280
     0
281
     0
  0
CLASS
  1
SCALE
  2
AcDbScale
  3
ObjectDBX Classes
 90
     1153
280
     0
281
     0
  0
CLASS
  1
DICTIONARYVAR
  2
AcDbDictionaryVar
  3
ObjectDBX Classes
 90
        0
280
     0
281
     0
  0
CLASS
  1
ACDBPLACEHOLDER
  2
AcDbPlaceHolder
  3
ObjectDBX Classes
 90
        0
280
     0
281
     0
  0
CLASS
  1
LAYOUT
  2
AcDbLayout
  3
ObjectDBX Classes
 90
        0
280
     0
281
     0
  0
ENDSEC
  0
SECTION
  2
TABLES
  0
TABLE
  2
VPORT
  5
8
330
0
100
AcDbSymbolTable
 70
     1
  0
VPORT
  5
29
330
8
100
AcDbSymbolTableRecord
100
AcDbViewportTableRecord
  2
*Active
 70
     0
 10
0.0
 20
0.0
 11
1.0
 21
1.0
 12
11.26
 22
4.5
 13
0.0
 23
0.0
 14
10.0
 24
10.0
 15
10.0
 25
10.0
 16
0.0
 26
0.0
 36
1.0
 17
0.0
 27
0.0
 37
0.0
 40
9.0
 41
2.503333333333333
 42
50.0
 43
0.0
 44
0.0
 50
0.0
 51
0.0
 71
     0
 72
   100
 73
     1
 74
     3
 75
     0
 76
     0
 77
     0
 78
     0
281
     0
 65
     1
110
0.0
120
0.0
130
0.0
111
1.0
121
0.0
131
0.0
112
0.0
122
1.0
132
0.0
 79
     0
146
0.0
  0
ENDTAB
  0
TABLE
  2
LTYPE
  5
5
330
0
100
AcDbSymbolTable
 70
    10
  0
LTYPE
  5
14
330
5
100
AcDbSymbolTableRecord
100
AcDbLinetypeTableRecord
  2
ByBlock
 70
     0
  3

 72
    65
 73
     0
 40
0.0
  0
LTYPE
  5
15
330
5
100
AcDbSymbolTableRecord
100
AcDbLinetypeTableRecord
  2
ByLayer
 70
     0
  3

 72
    65
 73
     0
 40
0.0
  0
LTYPE
  5
16
330
5
100
AcDbSymbolTableRecord
100
AcDbLinetypeTableRecord
  2
Continuous
 70
     0
  3
Solid line
 72
    65
 73
     0
 40
0.0
  0
LTYPE
  5
45
330
5
100
AcDbSymbolTableRecord
100
AcDbLinetypeTableRecord
  2
phl_thick
 70
     0
  3
THICK
 72
    65
 73
     0
 40
0.0
  0
LTYPE
  5
210
330
5
100
AcDbSymbolTableRecord
100
AcDbLinetypeTableRecord
  2
ls_CUT
 70
     0
  3
THICK
 72
    65
 73
     0
 40
0.0
  0
LTYPE
  5
216
330
5
100
AcDbSymbolTableRecord
100
AcDbLinetypeTableRecord
  2
ls1
 70
     0
  3
THICK
 72
    65
 73
     0
 40
0.0
  0
LTYPE
  5
21D
330
5
100
AcDbSymbolTableRecord
100
AcDbLinetypeTableRecord
  2
SK1
 70
     0
  3
THICK
 72
    65
 73
     0
 40
0.0
  0
LTYPE
  5
22B
330
5
100
AcDbSymbolTableRecord
100
AcDbLinetypeTableRecord
  2
ls_SK2
 70
     0
  3
THIN
 72
    65
 73
     0
 40
0.0
  0
LTYPE
  5
2D7
330
5
100
AcDbSymbolTableRecord
100
AcDbLinetypeTableRecord
  2
ls_2
 70
     0
  3
THIN
 72
    65
 73
     0
 40
0.0
  0
LTYPE
  5
3E7
330
5
100
AcDbSymbolTableRecord
100
AcDbLinetypeTableRecord
  2
LONGDASH_DASH
 70
     0
  3
THIN_DASHDOT
 72
    65
 73
     4
 40
0.85
 49
0.4
 74
     0
 49
-0.2
 74
     0
 49
0.05
 74
     0
 49
-0.2
 74
     0
  0
LTYPE
  5
428
330
5
100
AcDbSymbolTableRecord
100
AcDbLinetypeTableRecord
  2
ls_SK1
 70
     0
  3
THICK
 72
    65
 73
     0
 40
0.0
  0
LTYPE
  5
46D
330
5
100
AcDbSymbolTableRecord
100
AcDbLinetypeTableRecord
  2
INFTOTAL
 70
     0
  3
THIN
 72
    65
 73
     0
 40
0.0
  0
ENDTAB
  0
TABLE
  2
LAYER
  5
2
330
0
100
AcDbSymbolTable
 70
    11
  0
LAYER
  5
10
330
2
100
AcDbSymbolTableRecord
100
AcDbLayerTableRecord
  2
0
 70
     0
 62
     7
  6
Continuous
370
    -3
390
F
  0
LAYER
  5
44
330
2
100
AcDbSymbolTableRecord
100
AcDbLayerTableRecord
  2
1
 70
     0
 62
4
  6
CONTINUOUS
370
50
370
    -3
390
F
  0
LAYER
  5
20F
330
2
100
AcDbSymbolTableRecord
100
AcDbLayerTableRecord
  2
CUT
 70
     0
 62
1
  6
CONTINUOUS
370
25
370
    -3
390
F
  0
LAYER
  5
215
330
2
100
AcDbSymbolTableRecord
100
AcDbLayerTableRecord
  2
NOCUT
 70
     0
 62
7
  6
CONTINUOUS
370
25
370
    -3
390
F
  0
LAYER
  5
21C
330
2
100
AcDbSymbolTableRecord
100
AcDbLayerTableRecord
  2
SK1
 70
     0
 62
4
  6
CONTINUOUS
370
50
370
    -3
390
F
  0
LAYER
  5
22A
330
2
100
AcDbSymbolTableRecord
100
AcDbLayerTableRecord
  2
SK2
 70
     0
 62
7
  6
CONTINUOUS
370
25
370
    -3
390
F
  0
LAYER
  5
2D6
330
2
100
AcDbSymbolTableRecord
100
AcDbLayerTableRecord
  2
2
 70
     0
 62
7
  6
CONTINUOUS
370
25
370
    -3
390
F
  0
LAYER
  5
3E6
330
2
100
AcDbSymbolTableRecord
100
AcDbLayerTableRecord
  2
4
 70
     0
 62
2
  6
LONGDASH_DASH
370
25
370
    -3
390
F
  0
LAYER
  5
3E9
330
2
100
AcDbSymbolTableRecord
100
AcDbLayerTableRecord
  2
SK4
 70
     0
 62
2
  6
LONGDASH_DASH
370
25
370
    -3
390
F
  0
LAYER
  5
461
330
2
100
AcDbSymbolTableRecord
100
AcDbLayerTableRecord
  2
SK6
 70
     0
 62
5
  6
CONTINUOUS
370
25
370
    -3
390
F
  0
LAYER
  5
46C
330
2
100
AcDbSymbolTableRecord
100
AcDbLayerTableRecord
  2
INFTOTAL
 70
     0
 62
9
  6
CONTINUOUS
370
18
370
    -3
390
F
  0
ENDTAB
  0
TABLE
  2
STYLE
  5
3
330
0
100
AcDbSymbolTable
 70
     1
  0
STYLE
  5
11
330
3
100
AcDbSymbolTableRecord
100
AcDbTextStyleTableRecord
  2
Standard
 70
     0
 40
0.0
 41
1.0
 50
0.0
 71
     0
 42
2.5
  3
Monospac821 BT
  4

  0
ENDTAB
  0
TABLE
  2
VIEW
  5
6
330
0
100
AcDbSymbolTable
 70
     0
  0
ENDTAB
  0
TABLE
  2
UCS
  5
7
330
0
100
AcDbSymbolTable
 70
     0
  0
ENDTAB
  0
TABLE
  2
APPID
  5
9
330
0
100
AcDbSymbolTable
 70
     2
  0
APPID
  5
12
330
9
100
AcDbSymbolTableRecord
100
AcDbRegAppTableRecord
  2
ACAD
 70
     0
  0
APPID
  5
3F
330
9
100
AcDbSymbolTableRecord
100
AcDbRegAppTableRecord
  2
ccLab
 70
     0
  0
ENDTAB
  0
TABLE
  2
DIMSTYLE
  5
A
330
0
100
AcDbSymbolTable
 70
     1
100
AcDbDimStyleTable
  0
DIMSTYLE
105
27
330
A
100
AcDbSymbolTableRecord
100
AcDbDimStyleTableRecord
  2
ISO-25
 70
     0
 41
2.5
 42
0.625
 43
3.75
 44
1.25
 73
     0
 74
     0
 77
     1
 78
     8
140
2.5
141
2.5
143
0.03937007874016
147
0.625
171
     3
172
     1
271
     2
272
     2
274
     3
278
    44
283
     0
284
     8
340
11
  0
ENDTAB
  0
TABLE
  2
BLOCK_RECORD
  5
1
330
0
100
AcDbSymbolTable
 70
     2
  0
BLOCK_RECORD
  5
1F
330
1
100
AcDbSymbolTableRecord
100
AcDbBlockTableRecord
  2
*Model_Space
340
22
  0
BLOCK_RECORD
  5
1B
330
1
100
AcDbSymbolTableRecord
100
AcDbBlockTableRecord
  2
*Paper_Space
340
1E
  0
BLOCK_RECORD
  5
23
330
1
100
AcDbSymbolTableRecord
100
AcDbBlockTableRecord
  2
*Paper_Space0
340
26
  0
ENDTAB
  0
ENDSEC
  0
SECTION
  2
BLOCKS
  0
BLOCK
  5
20
330
1F
100
AcDbEntity
  8
0
100
AcDbBlockBegin
  2
*Model_Space
 70
     0
 10
0.0
 20
0.0
 30
0.0
  3
*Model_Space
  1

  0
ENDBLK
  5
21
330
1F
100
AcDbEntity
  8
0
100
AcDbBlockEnd
  0
BLOCK
  5
1C
330
1B
100
AcDbEntity
 67
     1
  8
0
100
AcDbBlockBegin
  2
*Paper_Space
 70
     0
 10
0.0
 20
0.0
 30
0.0
  3
*Paper_Space
  1

  0
ENDBLK
  5
1D
330
1B
100
AcDbEntity
 67
     1
  8
0
100
AcDbBlockEnd
  0
BLOCK
  5
24
330
23
100
AcDbEntity
  8
0
100
AcDbBlockBegin
  2
*Paper_Space0
 70
     0
 10
0.0
 20
0.0
 30
0.0
  3
*Paper_Space0
  1

  0
ENDBLK
  5
25
330
23
100
AcDbEntity
  8
0
100
AcDbBlockEnd
  0
ENDSEC
  0
SECTION
  2
ENTITIES
  0
LINE
  5
471
330
1F
100
AcDbEntity
  8
1
  6
CONTINUOUS
370
50
 62
4
100
AcDbLine
 10
45.03125
 20
-0.700992
 30
0.0
 11
45.031231
 21
-0.6740729999999999
 31
0.0
  0
LINE
  5
472
330
1F
100
AcDbEntity
  8
1
  6
CONTINUOUS
370
50
 62
4
100
AcDbLine
 10
44.848682
 20
-1.628247
 30
0.0
 11
44.848434
 21
-1.461206
 31
0.0
  0
LINE
  5
473
330
1F
100
AcDbEntity
  8
1
  6
CONTINUOUS
370
50
 62
4
100
AcDbLine
 10
44.849186
 20
-1.790911
 30
0.0
 11
44.848682
 21
-1.628247
 31
0.0
  0
LINE
  5
474
330
1F
100
AcDbEntity
  8
1
  6
CONTINUOUS
370
50
 62
4
100
AcDbLine
 10
44.849957
 20
-1.947478
 30
0.0
 11
44.849186
 21
-1.790911
 31
0.0
  0
LINE
  5
475
330
1F
100
AcDbEntity
  8
1
  6
CONTINUOUS
370
50
 62
4
100
AcDbLine
 10
44.850998
 20
-2.096455
 30
0.0
 11
44.849957
 21
-1.947478
 31
0.0
  0
LINE
  5
476
330
1F
100
AcDbEntity
  8
1
  6
CONTINUOUS
370
50
 62
4
100
AcDbLine
 10
44.852299
 20
-2.236568
 30
0.0
 11
44.850998
 21
-2.096455
 31
0.0
  0
LINE
  5
477
330
1F
100
AcDbEntity
  8
1
  6
CONTINUOUS
370
50
 62
4
100
AcDbLine
 10
44.853859
 20
-2.366583
 30
0.0
 11
44.852299
 21
-2.236568
 31
0.0
  0
LINE
  5
478
330
1F
100
AcDbEntity
  8
1
  6
CONTINUOUS
370
50
 62
4
100
AcDbLine
 10
44.855663
 20
-2.485609
 30
0.0
 11
44.853859
 21
-2.366583
 31
0.0
  0
LINE
  5
479
330
1F
100
AcDbEntity
  8
1
  6
CONTINUOUS
370
50
 62
4
100
AcDbLine
 10
44.85769699999999
 20
-2.5929
 30
0.0
 11
44.855663
 21
-2.485609
 31
0.0
  0
LINE
  5
47A
330
1F
100
AcDbEntity
  8
1
  6
CONTINUOUS
370
50
 62
4
100
AcDbLine
 10
44.85993999999999
 20
-2.687723
 30
0.0
 11
44.85769699999999
 21
-2.5929
 31
0.0
  0
LINE
  5
47B
330
1F
100
AcDbEntity
  8
1
  6
CONTINUOUS
370
50
 62
4
100
AcDbLine
 10
44.862366
 20
-2.769674
 30
0.0
 11
44.85993999999999
 21
-2.687723
 31
0.0
  0
LINE
  5
47C
330
1F
100
AcDbEntity
  8
1
  6
CONTINUOUS
370
50
 62
4
100
AcDbLine
 10
44.864944
 20
-2.838647
 30
0.0
 11
44.862366
 21
-2.769674
 31
0.0
  0
LINE
  5
47D
330
1F
100
AcDbEntity
  8
1
  6
CONTINUOUS
370
50
 62
4
100
AcDbLine
 10
44.908089
 20
2.659096
 30
0.0
 11
44.905338
 21
2.720659
 31
0.0
  0
LINE
  5
47E
330
1F
100
AcDbEntity
  8
1
  6
CONTINUOUS
370
50
 62
4
100
AcDbLine
 10
44.867672
 20
-2.89496
 30
0.0
 11
44.864944
 21
-2.838647
 31
0.0
  0
LINE
  5
47F
330
1F
100
AcDbEntity
  8
1
  6
CONTINUOUS
370
50
 62
4
100
AcDbLine
 10
44.905338
 20
2.720659
 30
0.0
 11
44.90255
 21
2.777098
 31
0.0
  0
LINE
  5
480
330
1F
100
AcDbEntity
  8
1
  6
CONTINUOUS
370
50
 62
4
100
AcDbLine
 10
44.90255
 20
2.777098
 30
0.0
 11
44.899746
 21
2.827961
 31
0.0
  0
LINE
  5
481
330
1F
100
AcDbEntity
  8
1
  6
CONTINUOUS
370
50
 62
4
100
AcDbLine
 10
44.899746
 20
2.827961
 30
0.0
 11
44.896931
 21
2.872798
 31
0.0
  0
LINE
  5
482
330
1F
100
AcDbEntity
  8
1
  6
CONTINUOUS
370
50
 62
4
100
AcDbLine
 10
44.87060899999999
 20
-2.939987
 30
0.0
 11
44.867672
 21
-2.89496
 31
0.0
  0
LINE
  5
483
330
1F
100
AcDbEntity
  8
1
  6
CONTINUOUS
370
50
 62
4
100
AcDbLine
 10
44.896931
 20
2.872798
 30
0.0
 11
44.894123
 21
2.9112
 31
0.0
  0
LINE
  5
484
330
1F
100
AcDbEntity
  8
1
  6
CONTINUOUS
370
50
 62
4
100
AcDbLine
 10
44.894123
 20
2.9112
 30
0.0
 11
44.891331
 21
2.942939
 31
0.0
  0
LINE
  5
485
330
1F
100
AcDbEntity
  8
1
  6
CONTINUOUS
370
50
 62
4
100
AcDbLine
 10
44.981483
 20
2.078899
 30
0.0
 11
44.975471
 21
2.145011
 31
0.0
  0
LINE
  5
486
330
1F
100
AcDbEntity
  8
1
  6
CONTINUOUS
370
50
 62
4
100
AcDbLine
 10
44.873753
 20
-2.973029
 30
0.0
 11
44.87060899999999
 21
-2.939987
 31
0.0
  0
LINE
  5
487
330
1F
100
AcDbEntity
  8
1
  6
CONTINUOUS
370
50
 62
4
100
AcDbLine
 10
45.845413
 20
-0.124308
 30
0.0
 11
45.84273899999999
 21
-0.100177
 31
0.0
  0
LINE
  5
488
330
1F
100
AcDbEntity
  8
1
  6
CONTINUOUS
370
50
 62
4
100
AcDbLine
 10
44.891331
 20
2.942939
 30
0.0
 11
44.888569
 21
2.967836
 31
0.0
  0
LINE
  5
489
330
1F
100
AcDbEntity
  8
1
  6
CONTINUOUS
370
50
 62
4
100
AcDbLine
 10
45.84273899999999
 20
-0.100177
 30
0.0
 11
45.839321
 21
-0.075296
 31
0.0
  0
LINE
  5
48A
330
1F
100
AcDbEntity
  8
1
  6
CONTINUOUS
370
50
 62
4
100
AcDbLine
 10
45.031231
 20
-0.6740729999999999
 30
0.0
 11
45.02696599999999
 21
-0.644794
 31
0.0
  0
LINE
  5
48B
330
1F
100
AcDbEntity
  8
1
  6
CONTINUOUS
370
50
 62
4
100
AcDbLine
 10
44.888569
 20
2.967836
 30
0.0
 11
44.885849
 21
2.985709
 31
0.0
  0
LINE
  5
48C
330
1F
100
AcDbEntity
  8
1
  6
CONTINUOUS
370
50
 62
4
100
AcDbLine
 10
45.839321
 20
-0.075296
 30
0.0
 11
45.835114
 21
-0.049464
 31
0.0
  0
LINE
  5
48D
330
1F
100
AcDbEntity
  8
1
  6
CONTINUOUS
370
50
 62
4
100
AcDbLine
 10
44.87707899999999
 20
-2.993181
 30
0.0
 11
44.873753
 21
-2.973029
 31
0.0
  0
LINE
  5
48E
330
1F
100
AcDbEntity
  8
1
  6
CONTINUOUS
370
50
 62
4
100
AcDbLine
 10
44.975471
 20
2.145011
 30
0.0
 11
44.96387499999999
 21
2.210794
 31
0.0
  0
LINE
  5
48F
330
1F
100
AcDbEntity
  8
1
  6
CONTINUOUS
370
50
 62
4
100
AcDbLine
 10
1.989898
 20
-2.34765
 30
0.0
 11
1.976136
 21
-2.273775
 31
0.0
  0
LINE
  5
490
330
1F
100
AcDbEntity
  8
1
  6
CONTINUOUS
370
50
 62
4
100
AcDbLine
 10
45.835114
 20
-0.049464
 30
0.0
 11
45.830051
 21
-0.022458
 31
0.0
  0
LINE
  5
491
330
1F
100
AcDbEntity
  8
1
  6
CONTINUOUS
370
50
 62
4
100
AcDbLine
 10
45.830051
 20
-0.022458
 30
0.0
 11
45.824059
 21
0.005978
 31
0.0
  0
LINE
  5
492
330
1F
100
AcDbEntity
  8
1
  6
CONTINUOUS
370
50
 62
4
100
AcDbLine
 10
45.824059
 20
0.005978
 30
0.0
 11
45.817028
 21
0.036137
 31
0.0
  0
LINE
  5
493
330
1F
100
AcDbEntity
  8
1
  6
CONTINUOUS
370
50
 62
4
100
AcDbLine
 10
44.885849
 20
2.985709
 30
0.0
 11
44.883179
 21
2.996408
 31
0.0
  0
LINE
  5
494
330
1F
100
AcDbEntity
  8
1
  6
CONTINUOUS
370
50
 62
4
100
AcDbLine
 10
44.96387499999999
 20
2.210794
 30
0.0
 11
44.947437
 21
2.275857
 31
0.0
  0
LINE
  5
495
330
1F
100
AcDbEntity
  8
1
  6
CONTINUOUS
370
50
 62
4
100
AcDbLine
 10
45.02696599999999
 20
-0.644794
 30
0.0
 11
45.019112
 21
-0.613749
 31
0.0
  0
LINE
  5
496
330
1F
100
AcDbEntity
  8
1
  6
CONTINUOUS
370
50
 62
4
100
AcDbLine
 10
45.817028
 20
0.036137
 30
0.0
 11
45.808846
 21
0.068368
 31
0.0
  0
LINE
  5
497
330
1F
100
AcDbEntity
  8
1
  6
CONTINUOUS
370
50
 62
4
100
AcDbLine
 10
45.816837
 20
0.068355
 30
0.0
 11
45.79361
 21
0.150181
 31
0.0
  0
LINE
  5
498
330
1F
100
AcDbEntity
  8
1
  6
CONTINUOUS
370
50
 62
4
100
AcDbLine
 10
45.79361
 20
0.150181
 30
0.0
 11
45.761242
 21
0.251069
 31
0.0
  0
LINE
  5
499
330
1F
100
AcDbEntity
  8
1
  6
CONTINUOUS
370
50
 62
4
100
AcDbLine
 10
45.019112
 20
-0.613749
 30
0.0
 11
45.007935
 21
-0.580477
 31
0.0
  0
LINE
  5
49A
330
1F
100
AcDbEntity
  8
1
  6
CONTINUOUS
370
50
 62
4
100
AcDbLine
 10
45.761242
 20
0.251069
 30
0.0
 11
45.715336
 21
0.381854
 31
0.0
  0
LINE
  5
49B
330
1F
100
AcDbEntity
  8
1
  6
CONTINUOUS
370
50
 62
4
100
AcDbLine
 10
46.0
 20
0.0
 30
0.0
 11
44.883144
 21
2.996526
 31
0.0
  0
LINE
  5
49C
330
1F
100
AcDbEntity
  8
1
  6
CONTINUOUS
370
50
 62
4
100
AcDbLine
 10
45.715336
 20
0.381854
 30
0.0
 11
45.64769
 21
0.562317
 31
0.0
  0
LINE
  5
49D
330
1F
100
AcDbEntity
  8
1
  6
CONTINUOUS
370
50
 62
4
100
AcDbLine
 10
44.947437
 20
2.275857
 30
0.0
 11
44.942009
 21
2.289828
 31
0.0
  0
LINE
  5
49E
330
1F
100
AcDbEntity
  8
1
  6
CONTINUOUS
370
50
 62
4
100
AcDbLine
 10
45.64769
 20
0.562317
 30
0.0
 11
45.541264
 21
0.8332069999999999
 31
0.0
  0
LINE
  5
49F
330
1F
100
AcDbEntity
  8
1
  6
CONTINUOUS
370
50
 62
4
100
AcDbLine
 10
45.007935
 20
-0.580477
 30
0.0
 11
44.99342
 21
-0.544482
 31
0.0
  0
LINE
  5
4A0
330
1F
100
AcDbEntity
  8
1
  6
CONTINUOUS
370
50
 62
4
100
AcDbLine
 10
44.942009
 20
2.289828
 30
0.0
 11
44.936398
 21
2.303718
 31
0.0
  0
LINE
  5
4A1
330
1F
100
AcDbEntity
  8
1
  6
CONTINUOUS
370
50
 62
4
100
AcDbLine
 10
44.883179
 20
2.996408
 30
0.0
 11
44.88274
 21
2.997494
 31
0.0
  0
LINE
  5
4A2
330
1F
100
AcDbEntity
  8
1
  6
CONTINUOUS
370
50
 62
4
100
AcDbLine
 10
44.936398
 20
2.303718
 30
0.0
 11
44.930779
 21
2.317578
 31
0.0
  0
LINE
  5
4A3
330
1F
100
AcDbEntity
  8
1
  6
CONTINUOUS
370
50
 62
4
100
AcDbLine
 10
45.541264
 20
0.8332069999999999
 30
0.0
 11
45.354057
 21
1.294533
 31
0.0
  0
LINE
  5
4A4
330
1F
100
AcDbEntity
  8
1
  6
CONTINUOUS
370
50
 62
4
100
AcDbLine
 10
44.930779
 20
2.317578
 30
0.0
 11
44.925144
 21
2.331409
 31
0.0
  0
LINE
  5
4A5
330
1F
100
AcDbEntity
  8
1
  6
CONTINUOUS
370
50
 62
4
100
AcDbLine
 10
44.925144
 20
2.331409
 30
0.0
 11
44.919502
 21
2.345208
 31
0.0
  0
LINE
  5
4A6
330
1F
100
AcDbEntity
  8
1
  6
CONTINUOUS
370
50
 62
4
100
AcDbLine
 10
44.919502
 20
2.345208
 30
0.0
 11
44.913853
 21
2.358976
 31
0.0
  0
LINE
  5
4A7
330
1F
100
AcDbEntity
  8
1
  6
CONTINUOUS
370
50
 62
4
100
AcDbLine
 10
46.0
 20
0.0
 30
0.0
 11
44.908089
 21
2.659096
 31
0.0
  0
LINE
  5
4A8
330
1F
100
AcDbEntity
  8
1
  6
CONTINUOUS
370
50
 62
4
100
AcDbLine
 10
45.354057
 20
1.294533
 30
0.0
 11
44.947437
 21
2.275857
 31
0.0
  0
LINE
  5
4A9
330
1F
100
AcDbEntity
  8
1
  6
CONTINUOUS
370
50
 62
4
100
AcDbLine
 10
44.913853
 20
2.358976
 30
0.0
 11
44.908089
 21
2.372679
 31
0.0
  0
LINE
  5
4AA
330
1F
100
AcDbEntity
  8
1
  6
CONTINUOUS
370
50
 62
4
100
AcDbLine
 10
2.019314
 20
-2.417063
 30
0.0
 11
1.989898
 21
-2.34765
 31
0.0
  0
LINE
  5
4AB
330
1F
100
AcDbEntity
  8
1
  6
CONTINUOUS
370
50
 62
4
100
AcDbLine
 10
44.99342
 20
-0.544482
 30
0.0
 11
44.975658
 21
-0.505819
 31
0.0
  0
LINE
  5
4AC
330
1F
100
AcDbEntity
  8
1
  6
CONTINUOUS
370
50
 62
4
100
AcDbLine
 10
44.88274
 20
2.997494
 30
0.0
 11
44.882301
 21
2.99838
 31
0.0
  0
LINE
  5
4AD
330
1F
100
AcDbEntity
  8
1
  6
CONTINUOUS
370
50
 62
4
100
AcDbLine
 10
44.975658
 20
-0.505819
 30
0.0
 11
44.954746
 21
-0.464544
 31
0.0
  0
LINE
  5
4AE
330
1F
100
AcDbEntity
  8
1
  6
CONTINUOUS
370
50
 62
4
100
AcDbLine
 10
44.880569
 20
-3.0
 30
0.0
 11
44.87707899999999
 21
-2.993181
 31
0.0
  0
LINE
  5
4AF
330
1F
100
AcDbEntity
  8
1
  6
CONTINUOUS
370
50
 62
4
100
AcDbLine
 10
44.954746
 20
-0.464544
 30
0.0
 11
44.930771
 21
-0.420709
 31
0.0
  0
LINE
  5
4B0
330
1F
100
AcDbEntity
  8
1
  6
CONTINUOUS
370
50
 62
4
100
AcDbLine
 10
44.930771
 20
-0.420709
 30
0.0
 11
44.903797
 21
-0.374318
 31
0.0
  0
LINE
  5
4B1
330
1F
100
AcDbEntity
  8
1
  6
CONTINUOUS
370
50
 62
4
100
AcDbLine
 10
44.903797
 20
-0.374318
 30
0.0
 11
44.870083
 21
-0.319085
 31
0.0
  0
LINE
  5
4B2
330
1F
100
AcDbEntity
  8
1
  6
CONTINUOUS
370
50
 62
4
100
AcDbLine
 10
44.882301
 20
2.99838
 30
0.0
 11
44.881866
 21
2.999069
 31
0.0
  0
LINE
  5
4B3
330
1F
100
AcDbEntity
  8
1
  6
CONTINUOUS
370
50
 62
4
100
AcDbLine
 10
44.870083
 20
-0.319085
 30
0.0
 11
44.824696
 21
-0.24846
 31
0.0
  0
LINE
  5
4B4
330
1F
100
AcDbEntity
  8
1
  6
CONTINUOUS
370
50
 62
4
100
AcDbLine
 10
2.061372
 20
-2.481389
 30
0.0
 11
2.019314
 21
-2.417063
 31
0.0
  0
LINE
  5
4B5
330
1F
100
AcDbEntity
  8
1
  6
CONTINUOUS
370
50
 62
4
100
AcDbLine
 10
44.824696
 20
-0.24846
 30
0.0
 11
44.76437
 21
-0.159285
 31
0.0
  0
LINE
  5
4B6
330
1F
100
AcDbEntity
  8
1
  6
CONTINUOUS
370
50
 62
4
100
AcDbLine
 10
44.76437
 20
-0.159285
 30
0.0
 11
44.685833
 21
-0.048403
 31
0.0
  0
LINE
  5
4B7
330
1F
100
AcDbEntity
  8
1
  6
CONTINUOUS
370
50
 62
4
100
AcDbLine
 10
44.685833
 20
-0.048403
 30
0.0
 11
44.58582699999999
 21
0.087344
 31
0.0
  0
LINE
  5
4B8
330
1F
100
AcDbEntity
  8
1
  6
CONTINUOUS
370
50
 62
4
100
AcDbLine
 10
44.58582699999999
 20
0.087344
 30
0.0
 11
44.461082
 21
0.251113
 31
0.0
  0
LINE
  5
4B9
330
1F
100
AcDbEntity
  8
1
  6
CONTINUOUS
370
50
 62
4
100
AcDbLine
 10
44.461082
 20
0.251113
 30
0.0
 11
44.308334
 21
0.446062
 31
0.0
  0
LINE
  5
4BA
330
1F
100
AcDbEntity
  8
1
  6
CONTINUOUS
370
50
 62
4
100
AcDbLine
 10
44.308334
 20
0.446062
 30
0.0
 11
44.124313
 21
0.675349
 31
0.0
  0
LINE
  5
4BB
330
1F
100
AcDbEntity
  8
1
  6
CONTINUOUS
370
50
 62
4
100
AcDbLine
 10
44.124313
 20
0.675349
 30
0.0
 11
43.905758
 21
0.9421299999999999
 31
0.0
  0
LINE
  5
4BC
330
1F
100
AcDbEntity
  8
1
  6
CONTINUOUS
370
50
 62
4
100
AcDbLine
 10
43.905758
 20
0.9421299999999999
 30
0.0
 11
43.649395
 21
1.249564
 31
0.0
  0
LINE
  5
4BD
330
1F
100
AcDbEntity
  8
1
  6
CONTINUOUS
370
50
 62
4
100
AcDbLine
 10
2.113159
 20
-2.540329
 30
0.0
 11
2.061372
 21
-2.481389
 31
0.0
  0
LINE
  5
4BE
330
1F
100
AcDbEntity
  8
1
  6
CONTINUOUS
370
50
 62
4
100
AcDbLine
 10
44.881866
 20
2.999069
 30
0.0
 11
44.881432
 21
2.999561
 31
0.0
  0
LINE
  5
4BF
330
1F
100
AcDbEntity
  8
1
  6
CONTINUOUS
370
50
 62
4
100
AcDbLine
 10
2.171836
 20
-2.593652
 30
0.0
 11
2.113159
 21
-2.540329
 31
0.0
  0
LINE
  5
4C0
330
1F
100
AcDbEntity
  8
1
  6
CONTINUOUS
370
50
 62
4
100
AcDbLine
 10
2.237859
 20
-2.643452
 30
0.0
 11
2.171836
 21
-2.593652
 31
0.0
  0
LINE
  5
4C1
330
1F
100
AcDbEntity
  8
1
  6
CONTINUOUS
370
50
 62
4
100
AcDbLine
 10
44.881432
 20
2.999561
 30
0.0
 11
44.881001
 21
2.999854
 31
0.0
  0
LINE
  5
4C2
330
1F
100
AcDbEntity
  8
1
  6
CONTINUOUS
370
50
 62
4
100
AcDbLine
 10
2.311826
 20
-2.690738
 30
0.0
 11
2.237859
 21
-2.643452
 31
0.0
  0
LINE
  5
4C3
330
1F
100
AcDbEntity
  8
1
  6
CONTINUOUS
370
50
 62
4
100
AcDbLine
 10
45.845413
 20
-0.124308
 30
0.0
 11
43.649395
 21
1.249564
 31
0.0
  0
LINE
  5
4C4
330
1F
100
AcDbEntity
  8
1
  6
CONTINUOUS
370
50
 62
4
100
AcDbLine
 10
10.671032
 20
0.0
 30
0.0
 11
10.188605
 21
0.2784
 31
0.0
  0
LINE
  5
4C5
330
1F
100
AcDbEntity
  8
1
  6
CONTINUOUS
370
50
 62
4
100
AcDbLine
 10
10.721235
 20
-0.028971
 30
0.0
 11
10.671032
 21
0.0
 31
0.0
  0
LINE
  5
4C6
330
1F
100
AcDbEntity
  8
1
  6
CONTINUOUS
370
50
 62
4
100
AcDbLine
 10
10.771441
 20
-0.057936
 30
0.0
 11
10.721235
 21
-0.028971
 31
0.0
  0
LINE
  5
4C7
330
1F
100
AcDbEntity
  8
1
  6
CONTINUOUS
370
50
 62
4
100
AcDbLine
 10
10.821659
 20
-0.086886
 30
0.0
 11
10.771441
 21
-0.057936
 31
0.0
  0
LINE
  5
4C8
330
1F
100
AcDbEntity
  8
1
  6
CONTINUOUS
370
50
 62
4
100
AcDbLine
 10
43.777233
 20
-0.24338
 30
0.0
 11
43.660557
 21
-0.176133
 31
0.0
  0
LINE
  5
4C9
330
1F
100
AcDbEntity
  8
1
  6
CONTINUOUS
370
50
 62
4
100
AcDbLine
 10
10.871892
 20
-0.11582
 30
0.0
 11
10.821659
 21
-0.086886
 31
0.0
  0
LINE
  5
4CA
330
1F
100
AcDbEntity
  8
1
  6
CONTINUOUS
370
50
 62
4
100
AcDbLine
 10
16.663027
 20
0.176317
 30
0.0
 11
16.552525
 21
0.239945
 31
0.0
  0
LINE
  5
4CB
330
1F
100
AcDbEntity
  8
1
  6
CONTINUOUS
370
50
 62
4
100
AcDbLine
 10
33.504082
 20
-0.11089
 30
0.0
 11
33.005478
 21
0.176185
 31
0.0
  0
LINE
  5
4CC
330
1F
100
AcDbEntity
  8
1
  6
CONTINUOUS
370
50
 62
4
100
AcDbLine
 10
43.893906
 20
-0.310543
 30
0.0
 11
43.777233
 21
-0.24338
 31
0.0
  0
LINE
  5
4CD
330
1F
100
AcDbEntity
  8
1
  6
CONTINUOUS
370
50
 62
4
100
AcDbLine
 10
34.002251
 20
-0.397632
 30
0.0
 11
33.504082
 21
-0.11089
 31
0.0
  0
LINE
  5
4CE
330
1F
100
AcDbEntity
  8
1
  6
CONTINUOUS
370
50
 62
4
100
AcDbLine
 10
26.817102
 20
0.112359
 30
0.0
 11
26.317947
 21
0.399664
 31
0.0
  0
LINE
  5
4CF
330
1F
100
AcDbEntity
  8
1
  6
CONTINUOUS
370
50
 62
4
100
AcDbLine
 10
43.660557
 20
-0.176133
 30
0.0
 11
43.161251
 21
0.111237
 31
0.0
  0
LINE
  5
4D0
330
1F
100
AcDbEntity
  8
1
  6
CONTINUOUS
370
50
 62
4
100
AcDbLine
 10
10.922145
 20
-0.144736
 30
0.0
 11
10.871892
 21
-0.11582
 31
0.0
  0
LINE
  5
4D1
330
1F
100
AcDbEntity
  8
1
  6
CONTINUOUS
370
50
 62
4
100
AcDbLine
 10
27.318216
 20
-0.175943
 30
0.0
 11
26.817102
 21
0.112359
 31
0.0
  0
LINE
  5
4D2
330
1F
100
AcDbEntity
  8
1
  6
CONTINUOUS
370
50
 62
4
100
AcDbLine
 10
16.552525
 20
0.239945
 30
0.0
 11
16.442087
 21
0.303482
 31
0.0
  0
LINE
  5
4D3
330
1F
100
AcDbEntity
  8
1
  6
CONTINUOUS
370
50
 62
4
100
AcDbLine
 10
17.16251
 20
-0.110984
 30
0.0
 11
16.663027
 21
0.176317
 31
0.0
  0
LINE
  5
4D4
330
1F
100
AcDbEntity
  8
1
  6
CONTINUOUS
370
50
 62
4
100
AcDbLine
 10
17.661774
 20
-0.39798
 30
0.0
 11
17.16251
 21
-0.110984
 31
0.0
  0
LINE
  5
4D5
330
1F
100
AcDbEntity
  8
1
  6
CONTINUOUS
370
50
 62
4
100
AcDbLine
 10
10.972423
 20
-0.173631
 30
0.0
 11
10.922145
 21
-0.144736
 31
0.0
  0
LINE
  5
4D6
330
1F
100
AcDbEntity
  8
1
  6
CONTINUOUS
370
50
 62
4
100
AcDbLine
 10
44.010483
 20
-0.377504
 30
0.0
 11
43.893906
 21
-0.310543
 31
0.0
  0
LINE
  5
4D7
330
1F
100
AcDbEntity
  8
1
  6
CONTINUOUS
370
50
 62
4
100
AcDbLine
 10
16.442087
 20
0.303482
 30
0.0
 11
16.331665
 21
0.366904
 31
0.0
  0
LINE
  5
4D8
330
1F
100
AcDbEntity
  8
1
  6
CONTINUOUS
370
50
 62
4
100
AcDbLine
 10
43.161251
 20
0.111237
 30
0.0
 11
42.662292
 21
0.397783
 31
0.0
  0
LINE
  5
4D9
330
1F
100
AcDbEntity
  8
1
  6
CONTINUOUS
370
50
 62
4
100
AcDbLine
 10
27.808937
 20
-0.457322
 30
0.0
 11
27.318216
 21
-0.175943
 31
0.0
  0
LINE
  5
4DA
330
1F
100
AcDbEntity
  8
1
  6
CONTINUOUS
370
50
 62
4
100
AcDbLine
 10
33.005478
 20
0.176185
 30
0.0
 11
32.514843
 21
0.457337
 31
0.0
  0
LINE
  5
4DB
330
1F
100
AcDbEntity
  8
1
  6
CONTINUOUS
370
50
 62
4
100
AcDbLine
 10
16.331665
 20
0.366904
 30
0.0
 11
16.221209
 21
0.43019
 31
0.0
  0
LINE
  5
4DC
330
1F
100
AcDbEntity
  8
1
  6
CONTINUOUS
370
50
 62
4
100
AcDbLine
 10
44.127014
 20
-0.444231
 30
0.0
 11
44.010483
 21
-0.377504
 31
0.0
  0
LINE
  5
4DD
330
1F
100
AcDbEntity
  8
1
  6
CONTINUOUS
370
50
 62
4
100
AcDbLine
 10
11.474934
 20
-0.460898
 30
0.0
 11
10.972423
 21
-0.173631
 31
0.0
  0
LINE
  5
4DE
330
1F
100
AcDbEntity
  8
1
  6
CONTINUOUS
370
50
 62
4
100
AcDbLine
 10
16.221209
 20
0.43019
 30
0.0
 11
16.11067
 21
0.493318
 31
0.0
  0
LINE
  5
4DF
330
1F
100
AcDbEntity
  8
1
  6
CONTINUOUS
370
50
 62
4
100
AcDbLine
 10
10.188605
 20
0.2784
 30
0.0
 11
9.705876
 21
0.553786
 31
0.0
  0
LINE
  5
4E0
330
1F
100
AcDbEntity
  8
1
  6
CONTINUOUS
370
50
 62
4
100
AcDbLine
 10
44.243553
 20
-0.510702
 30
0.0
 11
44.127014
 21
-0.444231
 31
0.0
  0
LINE
  5
4E1
330
1F
100
AcDbEntity
  8
1
  6
CONTINUOUS
370
50
 62
4
100
AcDbLine
 10
16.11067
 20
0.493318
 30
0.0
 11
16.0
 21
0.556264
 31
0.0
  0
LINE
  5
4E2
330
1F
100
AcDbEntity
  8
1
  6
CONTINUOUS
370
50
 62
4
100
AcDbLine
 10
42.662292
 20
0.397783
 30
0.0
 11
42.163895
 21
0.681009
 31
0.0
  0
LINE
  5
4E3
330
1F
100
AcDbEntity
  8
1
  6
CONTINUOUS
370
50
 62
4
100
AcDbLine
 10
18.160515
 20
-0.6812389999999999
 30
0.0
 11
17.661774
 21
-0.39798
 31
0.0
  0
LINE
  5
4E4
330
1F
100
AcDbEntity
  8
1
  6
CONTINUOUS
370
50
 62
4
100
AcDbLine
 10
44.360157
 20
-0.576893
 30
0.0
 11
44.243553
 21
-0.510702
 31
0.0
  0
LINE
  5
4E5
330
1F
100
AcDbEntity
  8
1
  6
CONTINUOUS
370
50
 62
4
100
AcDbLine
 10
26.317947
 20
0.399664
 30
0.0
 11
25.817572
 21
0.683342
 31
0.0
  0
LINE
  5
4E6
330
1F
100
AcDbEntity
  8
1
  6
CONTINUOUS
370
50
 62
4
100
AcDbLine
 10
34.501377
 20
-0.680496
 30
0.0
 11
34.002251
 21
-0.397632
 31
0.0
  0
LINE
  5
4E7
330
1F
100
AcDbEntity
  8
1
  6
CONTINUOUS
370
50
 62
4
100
AcDbLine
 10
28.298653
 20
-0.734525
 30
0.0
 11
27.808937
 21
-0.457322
 31
0.0
  0
LINE
  5
4E8
330
1F
100
AcDbEntity
  8
1
  6
CONTINUOUS
370
50
 62
4
100
AcDbLine
 10
32.514843
 20
0.457337
 30
0.0
 11
32.024124
 21
0.735045
 31
0.0
  0
LINE
  5
4E9
330
1F
100
AcDbEntity
  8
1
  6
CONTINUOUS
370
50
 62
4
100
AcDbLine
 10
11.97643
 20
-0.744628
 30
0.0
 11
11.474934
 21
-0.460898
 31
0.0
  0
LINE
  5
4EA
330
1F
100
AcDbEntity
  8
1
  6
CONTINUOUS
370
50
 62
4
100
AcDbLine
 10
9.705876
 20
0.553786
 30
0.0
 11
9.223429
 21
0.823981
 31
0.0
  0
LINE
  5
4EB
330
1F
100
AcDbEntity
  8
1
  6
CONTINUOUS
370
50
 62
4
100
AcDbLine
 10
16.0
 20
0.555609
 30
0.0
 11
15.391828
 21
0.8951119999999999
 31
0.0
  0
LINE
  5
4EC
330
1F
100
AcDbEntity
  8
1
  6
CONTINUOUS
370
50
 62
4
100
AcDbLine
 10
35.001007
 20
-0.9572039999999999
 30
0.0
 11
34.501377
 21
-0.680496
 31
0.0
  0
LINE
  5
4ED
330
1F
100
AcDbEntity
  8
1
  6
CONTINUOUS
370
50
 62
4
100
AcDbLine
 10
25.817572
 20
0.683342
 30
0.0
 11
25.317047
 21
0.960359
 31
0.0
  0
LINE
  5
4EE
330
1F
100
AcDbEntity
  8
1
  6
CONTINUOUS
370
50
 62
4
100
AcDbLine
 10
42.163895
 20
0.681009
 30
0.0
 11
41.66376899999999
 21
0.957731
 31
0.0
  0
LINE
  5
4EF
330
1F
100
AcDbEntity
  8
1
  6
CONTINUOUS
370
50
 62
4
100
AcDbLine
 10
18.6612
 20
-0.958181
 30
0.0
 11
18.160515
 21
-0.6812389999999999
 31
0.0
  0
LINE
  5
4F0
330
1F
100
AcDbEntity
  8
1
  6
CONTINUOUS
370
50
 62
4
100
AcDbLine
 10
32.024124
 20
0.735045
 30
0.0
 11
31.532152
 21
1.005973
 31
0.0
  0
LINE
  5
4F1
330
1F
100
AcDbEntity
  8
1
  6
CONTINUOUS
370
50
 62
4
100
AcDbLine
 10
12.479762
 20
-1.0217
 30
0.0
 11
11.97643
 21
-0.744628
 31
0.0
  0
LINE
  5
4F2
330
1F
100
AcDbEntity
  8
1
  6
CONTINUOUS
370
50
 62
4
100
AcDbLine
 10
28.790342
 20
-1.005171
 30
0.0
 11
28.298653
 21
-0.734525
 31
0.0
  0
LINE
  5
4F3
330
1F
100
AcDbEntity
  8
1
  6
CONTINUOUS
370
50
 62
4
100
AcDbLine
 10
2.393174
 20
-2.73534
 30
0.0
 11
2.311826
 21
-2.690738
 31
0.0
  0
LINE
  5
4F4
330
1F
100
AcDbEntity
  8
1
  6
CONTINUOUS
370
50
 62
4
100
AcDbLine
 10
9.223429
 20
0.823981
 30
0.0
 11
8.742049999999999
 21
1.087612
 31
0.0
  0
LINE
  5
4F5
330
1F
100
AcDbEntity
  8
1
  6
CONTINUOUS
370
50
 62
4
100
AcDbLine
 10
15.391828
 20
0.8951119999999999
 30
0.0
 11
14.784697
 21
1.222685
 31
0.0
  0
LINE
  5
4F6
330
1F
100
AcDbEntity
  8
1
  6
CONTINUOUS
370
50
 62
4
100
AcDbLine
 10
35.498848
 20
-1.225044
 30
0.0
 11
35.001007
 21
-0.9572039999999999
 31
0.0
  0
LINE
  5
4F7
330
1F
100
AcDbEntity
  8
1
  6
CONTINUOUS
370
50
 62
4
100
AcDbLine
 10
25.317047
 20
0.960359
 30
0.0
 11
24.818367
 21
1.228558
 31
0.0
  0
LINE
  5
4F8
330
1F
100
AcDbEntity
  8
1
  6
CONTINUOUS
370
50
 62
4
100
AcDbLine
 10
19.159973
 20
-1.226212
 30
0.0
 11
18.6612
 21
-0.958181
 31
0.0
  0
LINE
  5
4F9
330
1F
100
AcDbEntity
  8
1
  6
CONTINUOUS
370
50
 62
4
100
AcDbLine
 10
41.66376899999999
 20
0.957731
 30
0.0
 11
41.164848
 21
1.225605
 31
0.0
  0
LINE
  5
4FA
330
1F
100
AcDbEntity
  8
1
  6
CONTINUOUS
370
50
 62
4
100
AcDbLine
 10
29.281446
 20
-1.267238
 30
0.0
 11
28.790342
 21
-1.005171
 31
0.0
  0
LINE
  5
4FB
330
1F
100
AcDbEntity
  8
1
  6
CONTINUOUS
370
50
 62
4
100
AcDbLine
 10
31.532152
 20
1.005973
 30
0.0
 11
31.040859
 21
1.268
 31
0.0
  0
LINE
  5
4FC
330
1F
100
AcDbEntity
  8
1
  6
CONTINUOUS
370
50
 62
4
100
AcDbLine
 10
12.983041
 20
-1.289048
 30
0.0
 11
12.479762
 21
-1.0217
 31
0.0
  0
LINE
  5
4FD
330
1F
100
AcDbEntity
  8
1
  6
CONTINUOUS
370
50
 62
4
100
AcDbLine
 10
8.742049999999999
 20
1.087612
 30
0.0
 11
8.259328
 21
1.342116
 31
0.0
  0
LINE
  5
4FE
330
1F
100
AcDbEntity
  8
1
  6
CONTINUOUS
370
50
 62
4
100
AcDbLine
 10
41.164848
 20
1.225605
 30
0.0
 11
40.666653
 21
1.482348
 31
0.0
  0
LINE
  5
4FF
330
1F
100
AcDbEntity
  8
1
  6
CONTINUOUS
370
50
 62
4
100
AcDbLine
 10
19.658571
 20
-1.482975
 30
0.0
 11
19.159973
 21
-1.226212
 31
0.0
  0
LINE
  5
500
330
1F
100
AcDbEntity
  8
1
  6
CONTINUOUS
370
50
 62
4
100
AcDbLine
 10
35.997879
 20
-1.481431
 30
0.0
 11
35.498848
 21
-1.225044
 31
0.0
  0
LINE
  5
501
330
1F
100
AcDbEntity
  8
1
  6
CONTINUOUS
370
50
 62
4
100
AcDbLine
 10
24.818367
 20
1.228558
 30
0.0
 11
24.318251
 21
1.485438
 31
0.0
  0
LINE
  5
502
330
1F
100
AcDbEntity
  8
1
  6
CONTINUOUS
370
50
 62
4
100
AcDbLine
 10
14.784697
 20
1.222685
 30
0.0
 11
14.176481
 21
1.533834
 31
0.0
  0
LINE
  5
503
330
1F
100
AcDbEntity
  8
1
  6
CONTINUOUS
370
50
 62
4
100
AcDbLine
 10
29.771612
 20
-1.517943
 30
0.0
 11
29.281446
 21
-1.267238
 31
0.0
  0
LINE
  5
504
330
1F
100
AcDbEntity
  8
1
  6
CONTINUOUS
370
50
 62
4
100
AcDbLine
 10
31.040859
 20
1.268
 30
0.0
 11
30.550619
 21
1.518719
 31
0.0
  0
LINE
  5
505
330
1F
100
AcDbEntity
  8
1
  6
CONTINUOUS
370
50
 62
4
100
AcDbLine
 10
44.409153
 20
-0.601834
 30
0.0
 11
44.360157
 21
-0.576893
 31
0.0
  0
LINE
  5
506
330
1F
100
AcDbEntity
  8
1
  6
CONTINUOUS
370
50
 62
4
100
AcDbLine
 10
13.485113
 20
-1.544606
 30
0.0
 11
12.983041
 21
-1.289048
 31
0.0
  0
LINE
  5
507
330
1F
100
AcDbEntity
  8
1
  6
CONTINUOUS
370
50
 62
4
100
AcDbLine
 10
8.259328
 20
1.342116
 30
0.0
 11
7.775992
 21
1.585042
 31
0.0
  0
LINE
  5
508
330
1F
100
AcDbEntity
  8
1
  6
CONTINUOUS
370
50
 62
4
100
AcDbLine
 10
0.001
 20
2.9995
 30
0.0
 11
0.0
 21
3.0
 31
0.0
  0
LINE
  5
509
330
1F
100
AcDbEntity
  8
1
  6
CONTINUOUS
370
50
 62
4
100
AcDbLine
 10
44.456924
 20
-0.625393
 30
0.0
 11
44.409153
 21
-0.601834
 31
0.0
  0
LINE
  5
50A
330
1F
100
AcDbEntity
  8
1
  6
CONTINUOUS
370
50
 62
4
100
AcDbLine
 10
36.497021
 20
-1.724398
 30
0.0
 11
35.997879
 21
-1.481431
 31
0.0
  0
LINE
  5
50B
330
1F
100
AcDbEntity
  8
1
  6
CONTINUOUS
370
50
 62
4
100
AcDbLine
 10
40.666653
 20
1.482348
 30
0.0
 11
40.166924
 21
1.725322
 31
0.0
  0
LINE
  5
50C
330
1F
100
AcDbEntity
  8
1
  6
CONTINUOUS
370
50
 62
4
100
AcDbLine
 10
24.318251
 20
1.485438
 30
0.0
 11
23.818308
 21
1.728348
 31
0.0
  0
LINE
  5
50D
330
1F
100
AcDbEntity
  8
1
  6
CONTINUOUS
370
50
 62
4
100
AcDbLine
 10
20.15888
 20
-1.726011
 30
0.0
 11
19.658571
 21
-1.482975
 31
0.0
  0
LINE
  5
50E
330
1F
100
AcDbEntity
  8
1
  6
CONTINUOUS
370
50
 62
4
100
AcDbLine
 10
30.550619
 20
1.518719
 30
0.0
 11
30.058893
 21
1.755907
 31
0.0
  0
LINE
  5
50F
330
1F
100
AcDbEntity
  8
1
  6
CONTINUOUS
370
50
 62
4
100
AcDbLine
 10
30.263714
 20
-1.755105
 30
0.0
 11
29.771612
 21
-1.517943
 31
0.0
  0
LINE
  5
510
330
1F
100
AcDbEntity
  8
1
  6
CONTINUOUS
370
50
 62
4
100
AcDbLine
 10
13.988492
 20
-1.78555
 30
0.0
 11
13.485113
 21
-1.544606
 31
0.0
  0
LINE
  5
511
330
1F
100
AcDbEntity
  8
1
  6
CONTINUOUS
370
50
 62
4
100
AcDbLine
 10
14.176481
 20
1.533834
 30
0.0
 11
13.568021
 21
1.82395
 31
0.0
  0
LINE
  5
512
330
1F
100
AcDbEntity
  8
1
  6
CONTINUOUS
370
50
 62
4
100
AcDbLine
 10
44.503414
 20
-0.647535
 30
0.0
 11
44.456924
 21
-0.625393
 31
0.0
  0
LINE
  5
513
330
1F
100
AcDbEntity
  8
1
  6
CONTINUOUS
370
50
 62
4
100
AcDbLine
 10
7.775992
 20
1.585042
 30
0.0
 11
7.295042
 21
1.81356
 31
0.0
  0
LINE
  5
514
330
1F
100
AcDbEntity
  8
1
  6
CONTINUOUS
370
50
 62
4
100
AcDbLine
 10
2.481339
 20
-2.777087
 30
0.0
 11
2.393174
 21
-2.73534
 31
0.0
  0
LINE
  5
515
330
1F
100
AcDbEntity
  8
1
  6
CONTINUOUS
370
50
 62
4
100
AcDbLine
 10
5.351871
 20
-2.331965
 30
0.0
 11
5.210478999999999
 21
-2.266425
 31
0.0
  0
LINE
  5
516
330
1F
100
AcDbEntity
  8
1
  6
CONTINUOUS
370
50
 62
4
100
AcDbLine
 10
44.548576
 20
-0.668206
 30
0.0
 11
44.503414
 21
-0.647535
 31
0.0
  0
LINE
  5
517
330
1F
100
AcDbEntity
  8
1
  6
CONTINUOUS
370
50
 62
4
100
AcDbLine
 10
36.994869
 20
-1.951541
 30
0.0
 11
36.497021
 21
-1.724398
 31
0.0
  0
LINE
  5
518
330
1F
100
AcDbEntity
  8
1
  6
CONTINUOUS
370
50
 62
4
100
AcDbLine
 10
23.818308
 20
1.728348
 30
0.0
 11
23.319662
 21
1.9556
 31
0.0
  0
LINE
  5
519
330
1F
100
AcDbEntity
  8
1
  6
CONTINUOUS
370
50
 62
4
100
AcDbLine
 10
20.657249
 20
-1.953118
 30
0.0
 11
20.15888
 21
-1.726011
 31
0.0
  0
LINE
  5
51A
330
1F
100
AcDbEntity
  8
1
  6
CONTINUOUS
370
50
 62
4
100
AcDbLine
 10
5.210478999999999
 20
-2.266425
 30
0.0
 11
5.069077
 21
-2.202024
 31
0.0
  0
LINE
  5
51B
330
1F
100
AcDbEntity
  8
1
  6
CONTINUOUS
370
50
 62
4
100
AcDbLine
 10
40.166924
 20
1.725322
 30
0.0
 11
39.667648
 21
1.95258
 31
0.0
  0
LINE
  5
51C
330
1F
100
AcDbEntity
  8
1
  6
CONTINUOUS
370
50
 62
4
100
AcDbLine
 10
30.755114
 20
-1.976898
 30
0.0
 11
30.263714
 21
-1.755105
 31
0.0
  0
LINE
  5
51D
330
1F
100
AcDbEntity
  8
1
  6
CONTINUOUS
370
50
 62
4
100
AcDbLine
 10
30.058893
 20
1.755907
 30
0.0
 11
29.567108
 21
1.977558
 31
0.0
  0
LINE
  5
51E
330
1F
100
AcDbEntity
  8
1
  6
CONTINUOUS
370
50
 62
4
100
AcDbLine
 10
14.49173
 20
-2.009773
 30
0.0
 11
13.988492
 21
-1.78555
 31
0.0
  0
LINE
  5
51F
330
1F
100
AcDbEntity
  8
1
  6
CONTINUOUS
370
50
 62
4
100
AcDbLine
 10
5.069077
 20
-2.202024
 30
0.0
 11
4.927546
 21
-2.139234
 31
0.0
  0
LINE
  5
520
330
1F
100
AcDbEntity
  8
1
  6
CONTINUOUS
370
50
 62
4
100
AcDbLine
 10
7.295042
 20
1.81356
 30
0.0
 11
6.811999999999999
 21
2.026113
 31
0.0
  0
LINE
  5
521
330
1F
100
AcDbEntity
  8
1
  6
CONTINUOUS
370
50
 62
4
100
AcDbLine
 10
44.59235
 20
-0.687352
 30
0.0
 11
44.548576
 21
-0.668206
 31
0.0
  0
LINE
  5
522
330
1F
100
AcDbEntity
  8
1
  6
CONTINUOUS
370
50
 62
4
100
AcDbLine
 10
13.568021
 20
1.82395
 30
0.0
 11
12.961183
 21
2.089163
 31
0.0
  0
LINE
  5
523
330
1F
100
AcDbEntity
  8
1
  6
CONTINUOUS
370
50
 62
4
100
AcDbLine
 10
5.349870999999999
 20
2.583934
 30
0.0
 11
5.242852
 21
2.63025
 31
0.0
  0
LINE
  5
524
330
1F
100
AcDbEntity
  8
1
  6
CONTINUOUS
370
50
 62
4
100
AcDbLine
 10
4.927546
 20
-2.139234
 30
0.0
 11
4.785762
 21
-2.078522
 31
0.0
  0
LINE
  5
525
330
1F
100
AcDbEntity
  8
1
  6
CONTINUOUS
370
50
 62
4
100
AcDbLine
 10
39.667648
 20
1.95258
 30
0.0
 11
39.169785
 21
2.161687
 31
0.0
  0
LINE
  5
526
330
1F
100
AcDbEntity
  8
1
  6
CONTINUOUS
370
50
 62
4
100
AcDbLine
 10
21.156132
 20
-2.162383
 30
0.0
 11
20.657249
 21
-1.953118
 31
0.0
  0
LINE
  5
527
330
1F
100
AcDbEntity
  8
1
  6
CONTINUOUS
370
50
 62
4
100
AcDbLine
 10
37.494408
 20
-2.160698
 30
0.0
 11
36.994869
 21
-1.951541
 31
0.0
  0
LINE
  5
528
330
1F
100
AcDbEntity
  8
1
  6
CONTINUOUS
370
50
 62
4
100
AcDbLine
 10
5.242852
 20
2.63025
 30
0.0
 11
5.135737
 21
2.675094
 31
0.0
  0
LINE
  5
529
330
1F
100
AcDbEntity
  8
1
  6
CONTINUOUS
370
50
 62
4
100
AcDbLine
 10
23.319662
 20
1.9556
 30
0.0
 11
22.820259
 21
2.164544
 31
0.0
  0
LINE
  5
52A
330
1F
100
AcDbEntity
  8
1
  6
CONTINUOUS
370
50
 62
4
100
AcDbLine
 10
31.245716
 20
-2.180951
 30
0.0
 11
30.755114
 21
-1.976898
 31
0.0
  0
LINE
  5
52B
330
1F
100
AcDbEntity
  8
1
  6
CONTINUOUS
370
50
 62
4
100
AcDbLine
 10
29.567108
 20
1.977558
 30
0.0
 11
29.076687
 21
2.181519
 31
0.0
  0
LINE
  5
52C
330
1F
100
AcDbEntity
  8
1
  6
CONTINUOUS
370
50
 62
4
100
AcDbLine
 10
44.634682
 20
-0.70492
 30
0.0
 11
44.59235
 21
-0.687352
 31
0.0
  0
LINE
  5
52D
330
1F
100
AcDbEntity
  8
1
  6
CONTINUOUS
370
50
 62
4
100
AcDbLine
 10
2.575756
 20
-2.815807
 30
0.0
 11
2.481339
 21
-2.777087
 31
0.0
  0
LINE
  5
52E
330
1F
100
AcDbEntity
  8
1
  6
CONTINUOUS
370
50
 62
4
100
AcDbLine
 10
14.99332
 20
-2.215242
 30
0.0
 11
14.49173
 21
-2.009773
 31
0.0
  0
LINE
  5
52F
330
1F
100
AcDbEntity
  8
1
  6
CONTINUOUS
370
50
 62
4
100
AcDbLine
 10
4.785762
 20
-2.078522
 30
0.0
 11
4.643606999999999
 21
-2.020357
 31
0.0
  0
LINE
  5
530
330
1F
100
AcDbEntity
  8
1
  6
CONTINUOUS
370
50
 62
4
100
AcDbLine
 10
6.811999999999999
 20
2.026113
 30
0.0
 11
6.322338999999999
 21
2.223938
 31
0.0
  0
LINE
  5
531
330
1F
100
AcDbEntity
  8
1
  6
CONTINUOUS
370
50
 62
4
100
AcDbLine
 10
5.135737
 20
2.675094
 30
0.0
 11
5.028188999999999
 21
2.718194
 31
0.0
  0
LINE
  5
532
330
1F
100
AcDbEntity
  8
1
  6
CONTINUOUS
370
50
 62
4
100
AcDbLine
 10
44.675514
 20
-0.7208559999999999
 30
0.0
 11
44.634682
 21
-0.70492
 31
0.0
  0
LINE
  5
533
330
1F
100
AcDbEntity
  8
1
  6
CONTINUOUS
370
50
 62
4
100
AcDbLine
 10
12.961183
 20
2.089163
 30
0.0
 11
12.353384
 21
2.3254
 31
0.0
  0
LINE
  5
534
330
1F
100
AcDbEntity
  8
1
  6
CONTINUOUS
370
50
 62
4
100
AcDbLine
 10
4.643606999999999
 20
-2.020357
 30
0.0
 11
4.500959
 21
-1.96521
 31
0.0
  0
LINE
  5
535
330
1F
100
AcDbEntity
  8
1
  6
CONTINUOUS
370
50
 62
4
100
AcDbLine
 10
37.99255
 20
-2.349771
 30
0.0
 11
37.494408
 21
-2.160698
 31
0.0
  0
LINE
  5
536
330
1F
100
AcDbEntity
  8
1
  6
CONTINUOUS
370
50
 62
4
100
AcDbLine
 10
5.028188999999999
 20
2.718194
 30
0.0
 11
4.91987
 21
2.75928
 31
0.0
  0
LINE
  5
537
330
1F
100
AcDbEntity
  8
1
  6
CONTINUOUS
370
50
 62
4
100
AcDbLine
 10
39.169785
 20
2.161687
 30
0.0
 11
38.670551
 21
2.350587
 31
0.0
  0
LINE
  5
538
330
1F
100
AcDbEntity
  8
1
  6
CONTINUOUS
370
50
 62
4
100
AcDbLine
 10
21.655336
 20
-2.351257
 30
0.0
 11
21.156132
 21
-2.162383
 31
0.0
  0
LINE
  5
539
330
1F
100
AcDbEntity
  8
1
  6
CONTINUOUS
370
50
 62
4
100
AcDbLine
 10
22.820259
 20
2.164544
 30
0.0
 11
22.320992
 21
2.353434
 31
0.0
  0
LINE
  5
53A
330
1F
100
AcDbEntity
  8
1
  6
CONTINUOUS
370
50
 62
4
100
AcDbLine
 10
29.076687
 20
2.181519
 30
0.0
 11
28.584976
 21
2.365864
 31
0.0
  0
LINE
  5
53B
330
1F
100
AcDbEntity
  8
1
  6
CONTINUOUS
370
50
 62
4
100
AcDbLine
 10
31.738314
 20
-2.365528
 30
0.0
 11
31.245716
 21
-2.180951
 31
0.0
  0
LINE
  5
53C
330
1F
100
AcDbEntity
  8
1
  6
CONTINUOUS
370
50
 62
4
100
AcDbLine
 10
46.0
 20
0.0
 30
0.0
 11
45.816837
 21
0.068355
 31
0.0
  0
LINE
  5
53D
330
1F
100
AcDbEntity
  8
1
  6
CONTINUOUS
370
50
 62
4
100
AcDbLine
 10
6.322338999999999
 20
2.223938
 30
0.0
 11
5.835849
 21
2.403859
 31
0.0
  0
LINE
  5
53E
330
1F
100
AcDbEntity
  8
1
  6
CONTINUOUS
370
50
 62
4
100
AcDbLine
 10
15.496306
 20
-2.400021
 30
0.0
 11
14.99332
 21
-2.215242
 31
0.0
  0
LINE
  5
53F
330
1F
100
AcDbEntity
  8
1
  6
CONTINUOUS
370
50
 62
4
100
AcDbLine
 10
44.71479799999999
 20
-0.735107
 30
0.0
 11
44.675514
 21
-0.7208559999999999
 31
0.0
  0
LINE
  5
540
330
1F
100
AcDbEntity
  8
1
  6
CONTINUOUS
370
50
 62
4
100
AcDbLine
 10
4.500959
 20
-1.96521
 30
0.0
 11
4.357697
 21
-1.913548
 31
0.0
  0
LINE
  5
541
330
1F
100
AcDbEntity
  8
1
  6
CONTINUOUS
370
50
 62
4
100
AcDbLine
 10
46.0
 20
0.0
 30
0.0
 11
45.808846
 21
0.068368
 31
0.0
  0
LINE
  5
542
330
1F
100
AcDbEntity
  8
1
  6
CONTINUOUS
370
50
 62
4
100
AcDbLine
 10
2.675855
 20
-2.851327
 30
0.0
 11
2.575756
 21
-2.815807
 31
0.0
  0
LINE
  5
543
330
1F
100
AcDbEntity
  8
1
  6
CONTINUOUS
370
50
 62
4
100
AcDbLine
 10
4.91987
 20
2.75928
 30
0.0
 11
4.810442999999999
 21
2.798081
 31
0.0
  0
LINE
  5
544
330
1F
100
AcDbEntity
  8
1
  6
CONTINUOUS
370
50
 62
4
100
AcDbLine
 10
44.908089
 20
2.372679
 30
0.0
 11
44.596226
 21
2.478156
 31
0.0
  0
LINE
  5
545
330
1F
100
AcDbEntity
  8
1
  6
CONTINUOUS
370
50
 62
4
100
AcDbLine
 10
12.353384
 20
2.3254
 30
0.0
 11
11.747767
 21
2.53003
 31
0.0
  0
LINE
  5
546
330
1F
100
AcDbEntity
  8
1
  6
CONTINUOUS
370
50
 62
4
100
AcDbLine
 10
38.490284
 20
-2.517509
 30
0.0
 11
37.99255
 21
-2.349771
 31
0.0
  0
LINE
  5
547
330
1F
100
AcDbEntity
  8
1
  6
CONTINUOUS
370
50
 62
4
100
AcDbLine
 10
22.15275
 20
-2.518625
 30
0.0
 11
21.655336
 21
-2.351257
 31
0.0
  0
LINE
  5
548
330
1F
100
AcDbEntity
  8
1
  6
CONTINUOUS
370
50
 62
4
100
AcDbLine
 10
38.670551
 20
2.350587
 30
0.0
 11
38.172611
 21
2.518123
 31
0.0
  0
LINE
  5
549
330
1F
100
AcDbEntity
  8
1
  6
CONTINUOUS
370
50
 62
4
100
AcDbLine
 10
22.320992
 20
2.353434
 30
0.0
 11
21.822536
 21
2.520996
 31
0.0
  0
LINE
  5
54A
330
1F
100
AcDbEntity
  8
1
  6
CONTINUOUS
370
50
 62
4
100
AcDbLine
 10
5.908041
 20
-2.548377
 30
0.0
 11
5.351871
 21
-2.361661
 31
0.0
  0
LINE
  5
54B
330
1F
100
AcDbEntity
  8
1
  6
CONTINUOUS
370
50
 62
4
100
AcDbLine
 10
32.230076
 20
-2.52922
 30
0.0
 11
31.738314
 21
-2.365528
 31
0.0
  0
LINE
  5
54C
330
1F
100
AcDbEntity
  8
1
  6
CONTINUOUS
370
50
 62
4
100
AcDbLine
 10
28.584976
 20
2.365864
 30
0.0
 11
28.092934
 21
2.529464
 31
0.0
  0
LINE
  5
54D
330
1F
100
AcDbEntity
  8
1
  6
CONTINUOUS
370
50
 62
4
100
AcDbLine
 10
44.752663
 20
-0.7476769999999999
 30
0.0
 11
44.71479799999999
 21
-0.735107
 31
0.0
  0
LINE
  5
54E
330
1F
100
AcDbEntity
  8
1
  6
CONTINUOUS
370
50
 62
4
100
AcDbLine
 10
4.357697
 20
-1.913548
 30
0.0
 11
4.2137
 21
-1.865842
 31
0.0
  0
LINE
  5
54F
330
1F
100
AcDbEntity
  8
1
  6
CONTINUOUS
370
50
 62
4
100
AcDbLine
 10
5.835849
 20
2.403859
 30
0.0
 11
5.349870999999999
 21
2.563944
 31
0.0
  0
LINE
  5
550
330
1F
100
AcDbEntity
  8
1
  6
CONTINUOUS
370
50
 62
4
100
AcDbLine
 10
4.810442999999999
 20
2.798081
 30
0.0
 11
4.699571
 21
2.834325
 31
0.0
  0
LINE
  5
551
330
1F
100
AcDbEntity
  8
1
  6
CONTINUOUS
370
50
 62
4
100
AcDbLine
 10
16.0
 20
-2.562519
 30
0.0
 11
15.496306
 21
-2.400021
 31
0.0
  0
LINE
  5
552
330
1F
100
AcDbEntity
  8
1
  6
CONTINUOUS
370
50
 62
4
100
AcDbLine
 10
44.596226
 20
2.478156
 30
0.0
 11
44.284309
 21
2.574944
 31
0.0
  0
LINE
  5
553
330
1F
100
AcDbEntity
  8
1
  6
CONTINUOUS
370
50
 62
4
100
AcDbLine
 10
2.779784
 20
-2.883118
 30
0.0
 11
2.675855
 21
-2.851327
 31
0.0
  0
LINE
  5
554
330
1F
100
AcDbEntity
  8
1
  6
CONTINUOUS
370
50
 62
4
100
AcDbLine
 10
4.2137
 20
-1.865842
 30
0.0
 11
4.068848
 21
-1.822559
 31
0.0
  0
LINE
  5
555
330
1F
100
AcDbEntity
  8
1
  6
CONTINUOUS
370
50
 62
4
100
AcDbLine
 10
4.699571
 20
2.834325
 30
0.0
 11
4.586914
 21
2.867743
 31
0.0
  0
LINE
  5
556
330
1F
100
AcDbEntity
  8
1
  6
CONTINUOUS
370
50
 62
4
100
AcDbLine
 10
44.790169
 20
-0.758784
 30
0.0
 11
44.752663
 21
-0.7476769999999999
 31
0.0
  0
LINE
  5
557
330
1F
100
AcDbEntity
  8
1
  6
CONTINUOUS
370
50
 62
4
100
AcDbLine
 10
38.172611
 20
2.518123
 30
0.0
 11
37.674408
 21
2.662749
 31
0.0
  0
LINE
  5
558
330
1F
100
AcDbEntity
  8
1
  6
CONTINUOUS
370
50
 62
4
100
AcDbLine
 10
22.650581
 20
-2.662976
 30
0.0
 11
22.15275
 21
-2.518625
 31
0.0
  0
LINE
  5
559
330
1F
100
AcDbEntity
  8
1
  6
CONTINUOUS
370
50
 62
4
100
AcDbLine
 10
38.989086
 20
-2.661899
 30
0.0
 11
38.490284
 21
-2.517509
 31
0.0
  0
LINE
  5
55A
330
1F
100
AcDbEntity
  8
1
  6
CONTINUOUS
370
50
 62
4
100
AcDbLine
 10
21.822536
 20
2.520996
 30
0.0
 11
21.323299
 21
2.665041
 31
0.0
  0
LINE
  5
55B
330
1F
100
AcDbEntity
  8
1
  6
CONTINUOUS
370
50
 62
4
100
AcDbLine
 10
16.257828
 20
-2.637414
 30
0.0
 11
16.0
 21
-2.563157
 31
0.0
  0
LINE
  5
55C
330
1F
100
AcDbEntity
  8
1
  6
CONTINUOUS
370
50
 62
4
100
AcDbLine
 10
32.721115
 20
-2.670263
 30
0.0
 11
32.230076
 21
-2.52922
 31
0.0
  0
LINE
  5
55D
330
1F
100
AcDbEntity
  8
1
  6
CONTINUOUS
370
50
 62
4
100
AcDbLine
 10
28.092934
 20
2.529464
 30
0.0
 11
27.602186
 21
2.670409
 31
0.0
  0
LINE
  5
55E
330
1F
100
AcDbEntity
  8
1
  6
CONTINUOUS
370
50
 62
4
100
AcDbLine
 10
44.284309
 20
2.574944
 30
0.0
 11
43.973053
 21
2.662559
 31
0.0
  0
LINE
  5
55F
330
1F
100
AcDbEntity
  8
1
  6
CONTINUOUS
370
50
 62
4
100
AcDbLine
 10
11.747767
 20
2.53003
 30
0.0
 11
11.139655
 21
2.700617
 31
0.0
  0
LINE
  5
560
330
1F
100
AcDbEntity
  8
1
  6
CONTINUOUS
370
50
 62
4
100
AcDbLine
 10
6.465618
 20
-2.704145
 30
0.0
 11
5.908041
 21
-2.548377
 31
0.0
  0
LINE
  5
561
330
1F
100
AcDbEntity
  8
1
  6
CONTINUOUS
370
50
 62
4
100
AcDbLine
 10
4.586914
 20
2.867743
 30
0.0
 11
4.472136
 21
2.898062
 31
0.0
  0
LINE
  5
562
330
1F
100
AcDbEntity
  8
1
  6
CONTINUOUS
370
50
 62
4
100
AcDbLine
 10
4.068848
 20
-1.822559
 30
0.0
 11
3.923018
 21
-1.784169
 31
0.0
  0
LINE
  5
563
330
1F
100
AcDbEntity
  8
1
  6
CONTINUOUS
370
50
 62
4
100
AcDbLine
 10
16.515295
 20
-2.705054
 30
0.0
 11
16.257828
 21
-2.637414
 31
0.0
  0
LINE
  5
564
330
1F
100
AcDbEntity
  8
1
  6
CONTINUOUS
370
50
 62
4
100
AcDbLine
 10
2.885898
 20
-2.910897
 30
0.0
 11
2.779784
 21
-2.883118
 31
0.0
  0
LINE
  5
565
330
1F
100
AcDbEntity
  8
1
  6
CONTINUOUS
370
50
 62
4
100
AcDbLine
 10
44.827
 20
-0.768076
 30
0.0
 11
44.790169
 21
-0.758784
 31
0.0
  0
LINE
  5
566
330
1F
100
AcDbEntity
  8
1
  6
CONTINUOUS
370
50
 62
4
100
AcDbLine
 10
43.973053
 20
2.662559
 30
0.0
 11
43.661579
 21
2.740632
 31
0.0
  0
LINE
  5
567
330
1F
100
AcDbEntity
  8
1
  6
CONTINUOUS
370
50
 62
4
100
AcDbLine
 10
39.48740799999999
 20
-2.782041
 30
0.0
 11
38.989086
 21
-2.661899
 31
0.0
  0
LINE
  5
568
330
1F
100
AcDbEntity
  8
1
  6
CONTINUOUS
370
50
 62
4
100
AcDbLine
 10
23.149506
 20
-2.782801
 30
0.0
 11
22.650581
 21
-2.662976
 31
0.0
  0
LINE
  5
569
330
1F
100
AcDbEntity
  8
1
  6
CONTINUOUS
370
50
 62
4
100
AcDbLine
 10
37.674408
 20
2.662749
 30
0.0
 11
37.175308
 21
2.782602
 31
0.0
  0
LINE
  5
56A
330
1F
100
AcDbEntity
  8
1
  6
CONTINUOUS
370
50
 62
4
100
AcDbLine
 10
21.323299
 20
2.665041
 30
0.0
 11
20.826515
 21
2.784162
 31
0.0
  0
LINE
  5
56B
330
1F
100
AcDbEntity
  8
1
  6
CONTINUOUS
370
50
 62
4
100
AcDbLine
 10
27.602186
 20
2.670409
 30
0.0
 11
27.109447
 21
2.787599
 31
0.0
  0
LINE
  5
56C
330
1F
100
AcDbEntity
  8
1
  6
CONTINUOUS
370
50
 62
4
100
AcDbLine
 10
33.214085
 20
-2.787436
 30
0.0
 11
32.721115
 21
-2.670263
 31
0.0
  0
LINE
  5
56D
330
1F
100
AcDbEntity
  8
1
  6
CONTINUOUS
370
50
 62
4
100
AcDbLine
 10
16.773033
 20
-2.765984
 30
0.0
 11
16.515295
 21
-2.705054
 31
0.0
  0
LINE
  5
56E
330
1F
100
AcDbEntity
  8
1
  6
CONTINUOUS
370
50
 62
4
100
AcDbLine
 10
4.472136
 20
2.898062
 30
0.0
 11
4.355288
 21
2.924928
 31
0.0
  0
LINE
  5
56F
330
1F
100
AcDbEntity
  8
1
  6
CONTINUOUS
370
50
 62
4
100
AcDbLine
 10
3.923018
 20
-1.784169
 30
0.0
 11
3.77591
 21
-1.751094
 31
0.0
  0
LINE
  5
570
330
1F
100
AcDbEntity
  8
1
  6
CONTINUOUS
370
50
 62
4
100
AcDbLine
 10
44.881001
 20
2.999854
 30
0.0
 11
44.880569
 21
2.999951
 31
0.0
  0
LINE
  5
571
330
1F
100
AcDbEntity
  8
1
  6
CONTINUOUS
370
50
 62
4
100
AcDbLine
 10
2.993507
 20
-2.934732
 30
0.0
 11
2.885898
 21
-2.910897
 31
0.0
  0
LINE
  5
572
330
1F
100
AcDbEntity
  8
1
  6
CONTINUOUS
370
50
 62
4
100
AcDbLine
 10
11.139655
 20
2.700617
 30
0.0
 11
10.530107
 21
2.834638
 31
0.0
  0
LINE
  5
573
330
1F
100
AcDbEntity
  8
1
  6
CONTINUOUS
370
50
 62
4
100
AcDbLine
 10
7.027241999999999
 20
-2.827554
 30
0.0
 11
6.465618
 21
-2.704145
 31
0.0
  0
LINE
  5
574
330
1F
100
AcDbEntity
  8
1
  6
CONTINUOUS
370
50
 62
4
100
AcDbLine
 10
43.661579
 20
2.740632
 30
0.0
 11
43.349632
 21
2.808797
 31
0.0
  0
LINE
  5
575
330
1F
100
AcDbEntity
  8
1
  6
CONTINUOUS
370
50
 62
4
100
AcDbLine
 10
17.031555
 20
-2.820101
 30
0.0
 11
16.773033
 21
-2.765984
 31
0.0
  0
LINE
  5
576
330
1F
100
AcDbEntity
  8
1
  6
CONTINUOUS
370
50
 62
4
100
AcDbLine
 10
44.862556
 20
-0.775103
 30
0.0
 11
44.827
 21
-0.768076
 31
0.0
  0
LINE
  5
577
330
1F
100
AcDbEntity
  8
1
  6
CONTINUOUS
370
50
 62
4
100
AcDbLine
 10
4.355288
 20
2.924928
 30
0.0
 11
4.238188
 21
2.947725
 31
0.0
  0
LINE
  5
578
330
1F
100
AcDbEntity
  8
1
  6
CONTINUOUS
370
50
 62
4
100
AcDbLine
 10
39.985569
 20
-2.876792
 30
0.0
 11
39.48740799999999
 21
-2.782041
 31
0.0
  0
LINE
  5
579
330
1F
100
AcDbEntity
  8
1
  6
CONTINUOUS
370
50
 62
4
100
AcDbLine
 10
37.175308
 20
2.782602
 30
0.0
 11
36.677696
 21
2.877075
 31
0.0
  0
LINE
  5
57A
330
1F
100
AcDbEntity
  8
1
  6
CONTINUOUS
370
50
 62
4
100
AcDbLine
 10
23.646965
 20
-2.877239
 30
0.0
 11
23.149506
 21
-2.782801
 31
0.0
  0
LINE
  5
57B
330
1F
100
AcDbEntity
  8
1
  6
CONTINUOUS
370
50
 62
4
100
AcDbLine
 10
20.826515
 20
2.784162
 30
0.0
 11
20.332224
 21
2.877798
 31
0.0
  0
LINE
  5
57C
330
1F
100
AcDbEntity
  8
1
  6
CONTINUOUS
370
50
 62
4
100
AcDbLine
 10
33.706108
 20
-2.879802
 30
0.0
 11
33.214085
 21
-2.787436
 31
0.0
  0
LINE
  5
57D
330
1F
100
AcDbEntity
  8
1
  6
CONTINUOUS
370
50
 62
4
100
AcDbLine
 10
27.109447
 20
2.787599
 30
0.0
 11
26.616207
 21
2.880024
 31
0.0
  0
LINE
  5
57E
330
1F
100
AcDbEntity
  8
1
  6
CONTINUOUS
370
50
 62
4
100
AcDbLine
 10
43.349632
 20
2.808797
 30
0.0
 11
43.037552
 21
2.86685
 31
0.0
  0
LINE
  5
57F
330
1F
100
AcDbEntity
  8
1
  6
CONTINUOUS
370
50
 62
4
100
AcDbLine
 10
3.101923
 20
-2.954688
 30
0.0
 11
2.993507
 21
-2.934732
 31
0.0
  0
LINE
  5
580
330
1F
100
AcDbEntity
  8
1
  6
CONTINUOUS
370
50
 62
4
100
AcDbLine
 10
3.77591
 20
-1.751094
 30
0.0
 11
3.626849
 21
-1.723673
 31
0.0
  0
LINE
  5
581
330
1F
100
AcDbEntity
  8
1
  6
CONTINUOUS
370
50
 62
4
100
AcDbLine
 10
17.290211
 20
-2.867403
 30
0.0
 11
17.031555
 21
-2.820101
 31
0.0
  0
LINE
  5
582
330
1F
100
AcDbEntity
  8
1
  6
CONTINUOUS
370
50
 62
4
100
AcDbLine
 10
7.585318999999999
 20
-2.918329
 30
0.0
 11
7.027241999999999
 21
-2.827554
 31
0.0
  0
LINE
  5
583
330
1F
100
AcDbEntity
  8
1
  6
CONTINUOUS
370
50
 62
4
100
AcDbLine
 10
4.238188
 20
2.947725
 30
0.0
 11
4.120984
 21
2.966375
 31
0.0
  0
LINE
  5
584
330
1F
100
AcDbEntity
  8
1
  6
CONTINUOUS
370
50
 62
4
100
AcDbLine
 10
10.530107
 20
2.834638
 30
0.0
 11
9.92161
 21
2.929823
 31
0.0
  0
LINE
  5
585
330
1F
100
AcDbEntity
  8
1
  6
CONTINUOUS
370
50
 62
4
100
AcDbLine
 10
17.548111
 20
-2.907644
 30
0.0
 11
17.290211
 21
-2.867403
 31
0.0
  0
LINE
  5
586
330
1F
100
AcDbEntity
  8
1
  6
CONTINUOUS
370
50
 62
4
100
AcDbLine
 10
43.037552
 20
2.86685
 30
0.0
 11
42.72567
 21
2.914642
 31
0.0
  0
LINE
  5
587
330
1F
100
AcDbEntity
  8
1
  6
CONTINUOUS
370
50
 62
4
100
AcDbLine
 10
3.210645
 20
-2.970857
 30
0.0
 11
3.101923
 21
-2.954688
 31
0.0
  0
LINE
  5
588
330
1F
100
AcDbEntity
  8
1
  6
CONTINUOUS
370
50
 62
4
100
AcDbLine
 10
3.626849
 20
-1.723673
 30
0.0
 11
3.476293
 21
-1.702551
 31
0.0
  0
LINE
  5
589
330
1F
100
AcDbEntity
  8
1
  6
CONTINUOUS
370
50
 62
4
100
AcDbLine
 10
36.677696
 20
2.877075
 30
0.0
 11
36.179646
 21
2.94524
 31
0.0
  0
LINE
  5
58A
330
1F
100
AcDbEntity
  8
1
  6
CONTINUOUS
370
50
 62
4
100
AcDbLine
 10
40.485058
 20
-2.945027
 30
0.0
 11
39.985569
 21
-2.876792
 31
0.0
  0
LINE
  5
58B
330
1F
100
AcDbEntity
  8
1
  6
CONTINUOUS
370
50
 62
4
100
AcDbLine
 10
24.145258
 20
-2.94531
 30
0.0
 11
23.646965
 21
-2.877239
 31
0.0
  0
LINE
  5
58C
330
1F
100
AcDbEntity
  8
1
  6
CONTINUOUS
370
50
 62
4
100
AcDbLine
 10
20.332224
 20
2.877798
 30
0.0
 11
19.83584
 21
2.945369
 31
0.0
  0
LINE
  5
58D
330
1F
100
AcDbEntity
  8
1
  6
CONTINUOUS
370
50
 62
4
100
AcDbLine
 10
34.197578
 20
-2.946352
 30
0.0
 11
33.706108
 21
-2.879802
 31
0.0
  0
LINE
  5
58E
330
1F
100
AcDbEntity
  8
1
  6
CONTINUOUS
370
50
 62
4
100
AcDbLine
 10
26.616207
 20
2.880024
 30
0.0
 11
26.124208
 21
2.946575
 31
0.0
  0
LINE
  5
58F
330
1F
100
AcDbEntity
  8
1
  6
CONTINUOUS
370
50
 62
4
100
AcDbLine
 10
17.805908
 20
-2.94074
 30
0.0
 11
17.548111
 21
-2.907644
 31
0.0
  0
LINE
  5
590
330
1F
100
AcDbEntity
  8
1
  6
CONTINUOUS
370
50
 62
4
100
AcDbLine
 10
44.89624
 20
-0.779416
 30
0.0
 11
44.862556
 21
-0.775103
 31
0.0
  0
LINE
  5
591
330
1F
100
AcDbEntity
  8
1
  6
CONTINUOUS
370
50
 62
4
100
AcDbLine
 10
4.120984
 20
2.966375
 30
0.0
 11
4.003522
 21
2.98088
 31
0.0
  0
LINE
  5
592
330
1F
100
AcDbEntity
  8
1
  6
CONTINUOUS
370
50
 62
4
100
AcDbLine
 10
42.72567
 20
2.914642
 30
0.0
 11
42.414326
 21
2.951988
 31
0.0
  0
LINE
  5
593
330
1F
100
AcDbEntity
  8
1
  6
CONTINUOUS
370
50
 62
4
100
AcDbLine
 10
3.319969
 20
-2.983399
 30
0.0
 11
3.210645
 21
-2.970857
 31
0.0
  0
LINE
  5
594
330
1F
100
AcDbEntity
  8
1
  6
CONTINUOUS
370
50
 62
4
100
AcDbLine
 10
8.143635
 20
-2.975779
 30
0.0
 11
7.585318999999999
 21
-2.918329
 31
0.0
  0
LINE
  5
595
330
1F
100
AcDbEntity
  8
1
  6
CONTINUOUS
370
50
 62
4
100
AcDbLine
 10
18.064266
 20
-2.966605
 30
0.0
 11
17.805908
 21
-2.94074
 31
0.0
  0
LINE
  5
596
330
1F
100
AcDbEntity
  8
1
  6
CONTINUOUS
370
50
 62
4
100
AcDbLine
 10
3.476293
 20
-1.702551
 30
0.0
 11
3.324831
 21
-1.688407
 31
0.0
  0
LINE
  5
597
330
1F
100
AcDbEntity
  8
1
  6
CONTINUOUS
370
50
 62
4
100
AcDbLine
 10
9.92161
 20
2.929823
 30
0.0
 11
9.310967999999999
 21
2.98487
 31
0.0
  0
LINE
  5
598
330
1F
100
AcDbEntity
  8
1
  6
CONTINUOUS
370
50
 62
4
100
AcDbLine
 10
4.003522
 20
2.98088
 30
0.0
 11
3.885674
 21
2.99124
 31
0.0
  0
LINE
  5
599
330
1F
100
AcDbEntity
  8
1
  6
CONTINUOUS
370
50
 62
4
100
AcDbLine
 10
42.414326
 20
2.951988
 30
0.0
 11
42.10331
 21
2.978679
 31
0.0
  0
LINE
  5
59A
330
1F
100
AcDbEntity
  8
1
  6
CONTINUOUS
370
50
 62
4
100
AcDbLine
 10
40.984116
 20
-2.986254
 30
0.0
 11
40.485058
 21
-2.945027
 31
0.0
  0
LINE
  5
59B
330
1F
100
AcDbEntity
  8
1
  6
CONTINUOUS
370
50
 62
4
100
AcDbLine
 10
19.83584
 20
2.945369
 30
0.0
 11
19.33923
 21
2.986274
 31
0.0
  0
LINE
  5
59C
330
1F
100
AcDbEntity
  8
1
  6
CONTINUOUS
370
50
 62
4
100
AcDbLine
 10
36.179646
 20
2.94524
 30
0.0
 11
35.680828
 21
2.986265
 31
0.0
  0
LINE
  5
59D
330
1F
100
AcDbEntity
  8
1
  6
CONTINUOUS
370
50
 62
4
100
AcDbLine
 10
24.643513
 20
-2.986288
 30
0.0
 11
24.145258
 21
-2.94531
 31
0.0
  0
LINE
  5
59E
330
1F
100
AcDbEntity
  8
1
  6
CONTINUOUS
370
50
 62
4
100
AcDbLine
 10
3.429694
 20
-2.992344
 30
0.0
 11
3.319969
 21
-2.983399
 31
0.0
  0
LINE
  5
59F
330
1F
100
AcDbEntity
  8
1
  6
CONTINUOUS
370
50
 62
4
100
AcDbLine
 10
34.691006
 20
-2.98654
 30
0.0
 11
34.197578
 21
-2.946352
 31
0.0
  0
LINE
  5
5A0
330
1F
100
AcDbEntity
  8
1
  6
CONTINUOUS
370
50
 62
4
100
AcDbLine
 10
26.124208
 20
2.946575
 30
0.0
 11
25.631369
 21
2.986627
 31
0.0
  0
LINE
  5
5A1
330
1F
100
AcDbEntity
  8
1
  6
CONTINUOUS
370
50
 62
4
100
AcDbLine
 10
18.323565
 20
-2.985142
 30
0.0
 11
18.064266
 21
-2.966605
 31
0.0
  0
LINE
  5
5A2
330
1F
100
AcDbEntity
  8
1
  6
CONTINUOUS
370
50
 62
4
100
AcDbLine
 10
3.885674
 20
2.99124
 30
0.0
 11
3.76757
 21
2.997443
 31
0.0
  0
LINE
  5
5A3
330
1F
100
AcDbEntity
  8
1
  6
CONTINUOUS
370
50
 62
4
100
AcDbLine
 10
42.10331
 20
2.978679
 30
0.0
 11
41.79179
 21
2.994684
 31
0.0
  0
LINE
  5
5A4
330
1F
100
AcDbEntity
  8
1
  6
CONTINUOUS
370
50
 62
4
100
AcDbLine
 10
3.539537
 20
-2.997706
 30
0.0
 11
3.429694
 21
-2.992344
 31
0.0
  0
LINE
  5
5A5
330
1F
100
AcDbEntity
  8
1
  6
CONTINUOUS
370
50
 62
4
100
AcDbLine
 10
18.583221
 20
-2.996281
 30
0.0
 11
18.323565
 21
-2.985142
 31
0.0
  0
LINE
  5
5A6
330
1F
100
AcDbEntity
  8
1
  6
CONTINUOUS
370
50
 62
4
100
AcDbLine
 10
3.324831
 20
-1.688407
 30
0.0
 11
3.173051
 21
-1.68192
 31
0.0
  0
LINE
  5
5A7
330
1F
100
AcDbEntity
  8
1
  6
CONTINUOUS
370
50
 62
4
100
AcDbLine
 10
8.702228999999999
 20
-2.998988
 30
0.0
 11
8.143635
 21
-2.975779
 31
0.0
  0
LINE
  5
5A8
330
1F
100
AcDbEntity
  8
1
  6
CONTINUOUS
370
50
 62
4
100
AcDbLine
 10
44.927471
 20
-0.780567
 30
0.0
 11
44.89624
 21
-0.779416
 31
0.0
  0
LINE
  5
5A9
330
1F
100
AcDbEntity
  8
1
  6
CONTINUOUS
370
50
 62
4
100
AcDbLine
 10
41.481415
 20
-3.0
 30
0.0
 11
40.984116
 21
-2.986254
 31
0.0
  0
LINE
  5
5AA
330
1F
100
AcDbEntity
  8
1
  6
CONTINUOUS
370
50
 62
4
100
AcDbLine
 10
19.33923
 20
2.986274
 30
0.0
 11
18.842546
 21
3.0
 31
0.0
  0
LINE
  5
5AB
330
1F
100
AcDbEntity
  8
1
  6
CONTINUOUS
370
50
 62
4
100
AcDbLine
 10
35.680828
 20
2.986265
 30
0.0
 11
35.183598
 21
3.0
 31
0.0
  0
LINE
  5
5AC
330
1F
100
AcDbEntity
  8
1
  6
CONTINUOUS
370
50
 62
4
100
AcDbLine
 10
25.140203
 20
-3.0
 30
0.0
 11
24.643513
 21
-2.986288
 31
0.0
  0
LINE
  5
5AD
330
1F
100
AcDbEntity
  8
1
  6
CONTINUOUS
370
50
 62
4
100
AcDbLine
 10
35.183598
 20
-3.0
 30
0.0
 11
34.691006
 21
-2.98654
 31
0.0
  0
LINE
  5
5AE
330
1F
100
AcDbEntity
  8
1
  6
CONTINUOUS
370
50
 62
4
100
AcDbLine
 10
25.631369
 20
2.986627
 30
0.0
 11
25.140203
 21
3.0
 31
0.0
  0
LINE
  5
5AF
330
1F
100
AcDbEntity
  8
1
  6
CONTINUOUS
370
50
 62
4
100
AcDbLine
 10
9.310967999999999
 20
2.98487
 30
0.0
 11
8.702245
 21
2.998988
 31
0.0
  0
LINE
  5
5B0
330
1F
100
AcDbEntity
  8
1
  6
CONTINUOUS
370
50
 62
4
100
AcDbLine
 10
3.76757
 20
2.997443
 30
0.0
 11
3.649351
 21
2.9995
 31
0.0
  0
LINE
  5
5B1
330
1F
100
AcDbEntity
  8
1
  6
CONTINUOUS
370
50
 62
4
100
AcDbLine
 10
41.79179
 20
2.994684
 30
0.0
 11
41.481415
 21
3.0
 31
0.0
  0
LINE
  5
5B2
330
1F
100
AcDbEntity
  8
1
  6
CONTINUOUS
370
50
 62
4
100
AcDbLine
 10
3.649351
 20
-2.9995
 30
0.0
 11
3.539537
 21
-2.997706
 31
0.0
  0
LINE
  5
5B3
330
1F
100
AcDbEntity
  8
1
  6
CONTINUOUS
370
50
 62
4
100
AcDbLine
 10
18.842546
 20
-3.0
 30
0.0
 11
18.583221
 21
-2.996281
 31
0.0
  0
LINE
  5
5B4
330
1F
100
AcDbEntity
  8
1
  6
CONTINUOUS
370
50
 62
4
100
AcDbLine
 10
45.816837
 20
0.068355
 30
0.0
 11
45.808846
 21
0.068368
 31
0.0
  0
LINE
  5
5B5
330
1F
100
AcDbEntity
  8
1
  6
CONTINUOUS
370
50
 62
4
100
AcDbLine
 10
25.140203
 20
-3.0
 30
0.0
 11
35.183598
 21
-3.0
 31
0.0
  0
LINE
  5
5B6
330
1F
100
AcDbEntity
  8
1
  6
CONTINUOUS
370
50
 62
4
100
AcDbLine
 10
16.0
 20
-3.0
 30
0.0
 11
18.842546
 21
-3.0
 31
0.0
  0
LINE
  5
5B7
330
1F
100
AcDbEntity
  8
1
  6
CONTINUOUS
370
50
 62
4
100
AcDbLine
 10
41.481415
 20
-3.0
 30
0.0
 11
44.880569
 21
-3.0
 31
0.0
  0
LINE
  5
5B8
330
1F
100
AcDbEntity
  8
1
  6
CONTINUOUS
370
50
 62
4
100
AcDbLine
 10
8.798423999999999
 20
-2.9995
 30
0.0
 11
16.0
 21
-2.9995
 31
0.0
  0
LINE
  5
5B9
330
1F
100
AcDbEntity
  8
1
  6
CONTINUOUS
370
50
 62
4
100
AcDbLine
 10
0.001
 20
-2.9995
 30
0.0
 11
3.649617
 21
-2.9995
 31
0.0
  0
LINE
  5
5BA
330
1F
100
AcDbEntity
  8
1
  6
CONTINUOUS
370
50
 62
4
100
AcDbLine
 10
8.798423
 20
2.9995
 30
0.0
 11
16.0
 21
2.9995
 31
0.0
  0
LINE
  5
5BB
330
1F
100
AcDbEntity
  8
1
  6
CONTINUOUS
370
50
 62
4
100
AcDbLine
 10
0.001
 20
2.9995
 30
0.0
 11
3.649617
 21
2.9995
 31
0.0
  0
LINE
  5
5BC
330
1F
100
AcDbEntity
  8
1
  6
CONTINUOUS
370
50
 62
4
100
AcDbLine
 10
16.0
 20
3.0
 30
0.0
 11
18.842546
 21
3.0
 31
0.0
  0
LINE
  5
5BD
330
1F
100
AcDbEntity
  8
1
  6
CONTINUOUS
370
50
 62
4
100
AcDbLine
 10
41.481415
 20
3.0
 30
0.0
 11
44.880569
 21
3.0
 31
0.0
  0
LINE
  5
5BE
330
1F
100
AcDbEntity
  8
1
  6
CONTINUOUS
370
50
 62
4
100
AcDbLine
 10
25.140203
 20
3.0
 30
0.0
 11
35.183598
 21
3.0
 31
0.0
  0
LINE
  5
5BF
330
1F
100
AcDbEntity
  8
1
  6
CONTINUOUS
370
50
 62
4
100
AcDbLine
 10
3.02278
 20
-1.683725
 30
0.0
 11
3.173051
 21
-1.68192
 31
0.0
  0
LINE
  5
5C0
330
1F
100
AcDbEntity
  8
1
  6
CONTINUOUS
370
50
 62
4
100
AcDbLine
 10
3.649351
 20
-2.9995
 30
0.0
 11
3.76757
 21
-2.997443
 31
0.0
  0
LINE
  5
5C1
330
1F
100
AcDbEntity
  8
1
  6
CONTINUOUS
370
50
 62
4
100
AcDbLine
 10
40.957973
 20
2.984771
 30
0.0
 11
41.481415
 21
3.0
 31
0.0
  0
LINE
  5
5C2
330
1F
100
AcDbEntity
  8
1
  6
CONTINUOUS
370
50
 62
4
100
AcDbLine
 10
18.842546
 20
-3.0
 30
0.0
 11
19.365717
 21
-2.984772
 31
0.0
  0
LINE
  5
5C3
330
1F
100
AcDbEntity
  8
1
  6
CONTINUOUS
370
50
 62
4
100
AcDbLine
 10
24.615747
 20
2.984732
 30
0.0
 11
25.140203
 21
3.0
 31
0.0
  0
LINE
  5
5C4
330
1F
100
AcDbEntity
  8
1
  6
CONTINUOUS
370
50
 62
4
100
AcDbLine
 10
35.183598
 20
-3.0
 30
0.0
 11
35.70816
 21
-2.984719
 31
0.0
  0
LINE
  5
5C5
330
1F
100
AcDbEntity
  8
1
  6
CONTINUOUS
370
50
 62
4
100
AcDbLine
 10
8.194083
 20
2.979285
 30
0.0
 11
8.702245
 21
2.998988
 31
0.0
  0
LINE
  5
5C6
330
1F
100
AcDbEntity
  8
1
  6
CONTINUOUS
370
50
 62
4
100
AcDbLine
 10
3.76757
 20
-2.997443
 30
0.0
 11
3.885674
 21
-2.99124
 31
0.0
  0
LINE
  5
5C7
330
1F
100
AcDbEntity
  8
1
  6
CONTINUOUS
370
50
 62
4
100
AcDbLine
 10
2.879916
 20
-1.693783
 30
0.0
 11
3.02278
 21
-1.683725
 31
0.0
  0
LINE
  5
5C8
330
1F
100
AcDbEntity
  8
1
  6
CONTINUOUS
370
50
 62
4
100
AcDbLine
 10
19.365717
 20
-2.984772
 30
0.0
 11
19.890331
 21
-2.939264
 31
0.0
  0
LINE
  5
5C9
330
1F
100
AcDbEntity
  8
1
  6
CONTINUOUS
370
50
 62
4
100
AcDbLine
 10
24.090187
 20
2.939132
 30
0.0
 11
24.615747
 21
2.984732
 31
0.0
  0
LINE
  5
5CA
330
1F
100
AcDbEntity
  8
1
  6
CONTINUOUS
370
50
 62
4
100
AcDbLine
 10
35.70816
 20
-2.984719
 30
0.0
 11
36.235035
 21
-2.938973
 31
0.0
  0
LINE
  5
5CB
330
1F
100
AcDbEntity
  8
1
  6
CONTINUOUS
370
50
 62
4
100
AcDbLine
 10
40.432549
 20
2.939121
 30
0.0
 11
40.957973
 21
2.984771
 31
0.0
  0
LINE
  5
5CC
330
1F
100
AcDbEntity
  8
1
  6
CONTINUOUS
370
50
 62
4
100
AcDbLine
 10
44.927471
 20
-0.780567
 30
0.0
 11
44.955776
 21
-0.77809
 31
0.0
  0
LINE
  5
5CD
330
1F
100
AcDbEntity
  8
1
  6
CONTINUOUS
370
50
 62
4
100
AcDbLine
 10
3.885674
 20
-2.99124
 30
0.0
 11
4.003522
 21
-2.98088
 31
0.0
  0
LINE
  5
5CE
330
1F
100
AcDbEntity
  8
1
  6
CONTINUOUS
370
50
 62
4
100
AcDbLine
 10
7.685889
 20
2.931191
 30
0.0
 11
8.194083
 21
2.979285
 31
0.0
  0
LINE
  5
5CF
330
1F
100
AcDbEntity
  8
1
  6
CONTINUOUS
370
50
 62
4
100
AcDbLine
 10
4.003522
 20
-2.98088
 30
0.0
 11
4.120984
 21
-2.966375
 31
0.0
  0
LINE
  5
5D0
330
1F
100
AcDbEntity
  8
1
  6
CONTINUOUS
370
50
 62
4
100
AcDbLine
 10
43.649395
 20
1.249564
 30
0.0
 11
43.713902
 21
1.257923
 31
0.0
  0
LINE
  5
5D1
330
1F
100
AcDbEntity
  8
1
  6
CONTINUOUS
370
50
 62
4
100
AcDbLine
 10
2.745592
 20
-1.71154
 30
0.0
 11
2.879916
 21
-1.693783
 31
0.0
  0
LINE
  5
5D2
330
1F
100
AcDbEntity
  8
1
  6
CONTINUOUS
370
50
 62
4
100
AcDbLine
 10
43.713902
 20
1.257923
 30
0.0
 11
43.777962
 21
1.267
 31
0.0
  0
LINE
  5
5D3
330
1F
100
AcDbEntity
  8
1
  6
CONTINUOUS
370
50
 62
4
100
AcDbLine
 10
19.890331
 20
-2.939264
 30
0.0
 11
20.415567
 21
-2.863812
 31
0.0
  0
LINE
  5
5D4
330
1F
100
AcDbEntity
  8
1
  6
CONTINUOUS
370
50
 62
4
100
AcDbLine
 10
39.906876
 20
2.863576
 30
0.0
 11
40.432549
 21
2.939121
 31
0.0
  0
LINE
  5
5D5
330
1F
100
AcDbEntity
  8
1
  6
CONTINUOUS
370
50
 62
4
100
AcDbLine
 10
23.565874
 20
2.863616
 30
0.0
 11
24.090187
 21
2.939132
 31
0.0
  0
LINE
  5
5D6
330
1F
100
AcDbEntity
  8
1
  6
CONTINUOUS
370
50
 62
4
100
AcDbLine
 10
36.235035
 20
-2.938973
 30
0.0
 11
36.761063
 21
-2.863049
 31
0.0
  0
LINE
  5
5D7
330
1F
100
AcDbEntity
  8
1
  6
CONTINUOUS
370
50
 62
4
100
AcDbLine
 10
7.178589
 20
2.855348
 30
0.0
 11
7.685889
 21
2.931191
 31
0.0
  0
LINE
  5
5D8
330
1F
100
AcDbEntity
  8
1
  6
CONTINUOUS
370
50
 62
4
100
AcDbLine
 10
43.777962
 20
1.267
 30
0.0
 11
43.841469
 21
1.276789
 31
0.0
  0
LINE
  5
5D9
330
1F
100
AcDbEntity
  8
1
  6
CONTINUOUS
370
50
 62
4
100
AcDbLine
 10
4.120984
 20
-2.966375
 30
0.0
 11
4.238188
 21
-2.947725
 31
0.0
  0
LINE
  5
5DA
330
1F
100
AcDbEntity
  8
1
  6
CONTINUOUS
370
50
 62
4
100
AcDbLine
 10
43.841469
 20
1.276789
 30
0.0
 11
43.904324
 21
1.287319
 31
0.0
  0
LINE
  5
5DB
330
1F
100
AcDbEntity
  8
1
  6
CONTINUOUS
370
50
 62
4
100
AcDbLine
 10
43.904324
 20
1.287319
 30
0.0
 11
43.966408
 21
1.29862
 31
0.0
  0
LINE
  5
5DC
330
1F
100
AcDbEntity
  8
1
  6
CONTINUOUS
370
50
 62
4
100
AcDbLine
 10
4.238188
 20
-2.947725
 30
0.0
 11
4.355288
 21
-2.924928
 31
0.0
  0
LINE
  5
5DD
330
1F
100
AcDbEntity
  8
1
  6
CONTINUOUS
370
50
 62
4
100
AcDbLine
 10
43.966408
 20
1.29862
 30
0.0
 11
44.027622
 21
1.310723
 31
0.0
  0
LINE
  5
5DE
330
1F
100
AcDbEntity
  8
1
  6
CONTINUOUS
370
50
 62
4
100
AcDbLine
 10
2.620329
 20
-1.736429
 30
0.0
 11
2.745592
 21
-1.71154
 31
0.0
  0
LINE
  5
5DF
330
1F
100
AcDbEntity
  8
1
  6
CONTINUOUS
370
50
 62
4
100
AcDbLine
 10
23.041737
 20
2.758998
 30
0.0
 11
23.565874
 21
2.863616
 31
0.0
  0
LINE
  5
5E0
330
1F
100
AcDbEntity
  8
1
  6
CONTINUOUS
370
50
 62
4
100
AcDbLine
 10
20.415567
 20
-2.863812
 30
0.0
 11
20.939781
 21
-2.75913
 31
0.0
  0
LINE
  5
5E1
330
1F
100
AcDbEntity
  8
1
  6
CONTINUOUS
370
50
 62
4
100
AcDbLine
 10
39.382481
 20
2.75879
 30
0.0
 11
39.906876
 21
2.863576
 31
0.0
  0
LINE
  5
5E2
330
1F
100
AcDbEntity
  8
1
  6
CONTINUOUS
370
50
 62
4
100
AcDbLine
 10
36.761063
 20
-2.863049
 30
0.0
 11
37.286854
 21
-2.757982
 31
0.0
  0
LINE
  5
5E3
330
1F
100
AcDbEntity
  8
1
  6
CONTINUOUS
370
50
 62
4
100
AcDbLine
 10
6.668239
 20
2.752465
 30
0.0
 11
7.178589
 21
2.855348
 31
0.0
  0
LINE
  5
5E4
330
1F
100
AcDbEntity
  8
1
  6
CONTINUOUS
370
50
 62
4
100
AcDbLine
 10
44.027622
 20
1.310723
 30
0.0
 11
44.087849
 21
1.323657
 31
0.0
  0
LINE
  5
5E5
330
1F
100
AcDbEntity
  8
1
  6
CONTINUOUS
370
50
 62
4
100
AcDbLine
 10
4.355288
 20
-2.924928
 30
0.0
 11
4.472136
 21
-2.898062
 31
0.0
  0
LINE
  5
5E6
330
1F
100
AcDbEntity
  8
1
  6
CONTINUOUS
370
50
 62
4
100
AcDbLine
 10
44.087849
 20
1.323657
 30
0.0
 11
44.146988
 21
1.337453
 31
0.0
  0
LINE
  5
5E7
330
1F
100
AcDbEntity
  8
1
  6
CONTINUOUS
370
50
 62
4
100
AcDbLine
 10
20.939781
 20
-2.75913
 30
0.0
 11
21.465622
 21
-2.626456
 31
0.0
  0
LINE
  5
5E8
330
1F
100
AcDbEntity
  8
1
  6
CONTINUOUS
370
50
 62
4
100
AcDbLine
 10
22.516066
 20
2.626324
 30
0.0
 11
23.041737
 21
2.758998
 31
0.0
  0
LINE
  5
5E9
330
1F
100
AcDbEntity
  8
1
  6
CONTINUOUS
370
50
 62
4
100
AcDbLine
 10
38.857418
 20
2.626158
 30
0.0
 11
39.382481
 21
2.75879
 31
0.0
  0
LINE
  5
5EA
330
1F
100
AcDbEntity
  8
1
  6
CONTINUOUS
370
50
 62
4
100
AcDbLine
 10
37.286854
 20
-2.757982
 30
0.0
 11
37.811111
 21
-2.625507
 31
0.0
  0
LINE
  5
5EB
330
1F
100
AcDbEntity
  8
1
  6
CONTINUOUS
370
50
 62
4
100
AcDbLine
 10
44.146988
 20
1.337453
 30
0.0
 11
44.204922
 21
1.35214
 31
0.0
  0
LINE
  5
5EC
330
1F
100
AcDbEntity
  8
1
  6
CONTINUOUS
370
50
 62
4
100
AcDbLine
 10
6.158884
 20
2.622518
 30
0.0
 11
6.668239
 21
2.752465
 31
0.0
  0
LINE
  5
5ED
330
1F
100
AcDbEntity
  8
1
  6
CONTINUOUS
370
50
 62
4
100
AcDbLine
 10
4.472136
 20
-2.898062
 30
0.0
 11
4.586914
 21
-2.867743
 31
0.0
  0
LINE
  5
5EE
330
1F
100
AcDbEntity
  8
1
  6
CONTINUOUS
370
50
 62
4
100
AcDbLine
 10
44.955776
 20
-0.77809
 30
0.0
 11
44.980537
 21
-0.7714909999999999
 31
0.0
  0
LINE
  5
5EF
330
1F
100
AcDbEntity
  8
1
  6
CONTINUOUS
370
50
 62
4
100
AcDbLine
 10
2.507267
 20
-1.767068
 30
0.0
 11
2.620329
 21
-1.736429
 31
0.0
  0
LINE
  5
5F0
330
1F
100
AcDbEntity
  8
1
  6
CONTINUOUS
370
50
 62
4
100
AcDbLine
 10
44.204922
 20
1.35214
 30
0.0
 11
44.261547
 21
1.36775
 31
0.0
  0
LINE
  5
5F1
330
1F
100
AcDbEntity
  8
1
  6
CONTINUOUS
370
50
 62
4
100
AcDbLine
 10
4.586914
 20
-2.867743
 30
0.0
 11
4.699571
 21
-2.834325
 31
0.0
  0
LINE
  5
5F2
330
1F
100
AcDbEntity
  8
1
  6
CONTINUOUS
370
50
 62
4
100
AcDbLine
 10
44.261547
 20
1.36775
 30
0.0
 11
44.316921
 21
1.384364
 31
0.0
  0
LINE
  5
5F3
330
1F
100
AcDbEntity
  8
1
  6
CONTINUOUS
370
50
 62
4
100
AcDbLine
 10
38.33237099999999
 20
2.466751
 30
0.0
 11
38.857418
 21
2.626158
 31
0.0
  0
LINE
  5
5F4
330
1F
100
AcDbEntity
  8
1
  6
CONTINUOUS
370
50
 62
4
100
AcDbLine
 10
21.465622
 20
-2.626456
 30
0.0
 11
21.991421
 21
-2.466761
 31
0.0
  0
LINE
  5
5F5
330
1F
100
AcDbEntity
  8
1
  6
CONTINUOUS
370
50
 62
4
100
AcDbLine
 10
21.991425
 20
2.46676
 30
0.0
 11
22.516066
 21
2.626324
 31
0.0
  0
LINE
  5
5F6
330
1F
100
AcDbEntity
  8
1
  6
CONTINUOUS
370
50
 62
4
100
AcDbLine
 10
37.811111
 20
-2.625507
 30
0.0
 11
38.33239
 21
-2.466761
 31
0.0
  0
LINE
  5
5F7
330
1F
100
AcDbEntity
  8
1
  6
CONTINUOUS
370
50
 62
4
100
AcDbLine
 10
5.653156
 20
2.466496
 30
0.0
 11
6.158884
 21
2.622518
 31
0.0
  0
LINE
  5
5F8
330
1F
100
AcDbEntity
  8
1
  6
CONTINUOUS
370
50
 62
4
100
AcDbLine
 10
5.349870999999999
 20
-2.563944
 30
0.0
 11
5.400414
 21
-2.54829
 31
0.0
  0
LINE
  5
5F9
330
1F
100
AcDbEntity
  8
1
  6
CONTINUOUS
370
50
 62
4
100
AcDbLine
 10
5.400414
 20
-2.54829
 30
0.0
 11
5.45094
 21
-2.532401
 31
0.0
  0
LINE
  5
5FA
330
1F
100
AcDbEntity
  8
1
  6
CONTINUOUS
370
50
 62
4
100
AcDbLine
 10
5.45094
 20
-2.532401
 30
0.0
 11
5.501450999999999
 21
-2.516279
 31
0.0
  0
LINE
  5
5FB
330
1F
100
AcDbEntity
  8
1
  6
CONTINUOUS
370
50
 62
4
100
AcDbLine
 10
5.501450999999999
 20
-2.516279
 30
0.0
 11
5.551953999999999
 21
-2.499925
 31
0.0
  0
LINE
  5
5FC
330
1F
100
AcDbEntity
  8
1
  6
CONTINUOUS
370
50
 62
4
100
AcDbLine
 10
4.699571
 20
-2.834325
 30
0.0
 11
4.810442999999999
 21
-2.798081
 31
0.0
  0
LINE
  5
5FD
330
1F
100
AcDbEntity
  8
1
  6
CONTINUOUS
370
50
 62
4
100
AcDbLine
 10
44.316921
 20
1.384364
 30
0.0
 11
44.372082
 21
1.40242
 31
0.0
  0
LINE
  5
5FE
330
1F
100
AcDbEntity
  8
1
  6
CONTINUOUS
370
50
 62
4
100
AcDbLine
 10
5.551953999999999
 20
-2.499925
 30
0.0
 11
5.602453
 21
-2.483342
 31
0.0
  0
LINE
  5
5FF
330
1F
100
AcDbEntity
  8
1
  6
CONTINUOUS
370
50
 62
4
100
AcDbLine
 10
5.602453
 20
-2.483342
 30
0.0
 11
5.652952
 21
-2.466531
 31
0.0
  0
LINE
  5
600
330
1F
100
AcDbEntity
  8
1
  6
CONTINUOUS
370
50
 62
4
100
AcDbLine
 10
44.880569
 20
-3.0
 30
0.0
 11
44.881001
 21
-2.999854
 31
0.0
  0
LINE
  5
601
330
1F
100
AcDbEntity
  8
1
  6
CONTINUOUS
370
50
 62
4
100
AcDbLine
 10
2.398966
 20
-1.80535
 30
0.0
 11
2.507267
 21
-1.767068
 31
0.0
  0
LINE
  5
602
330
1F
100
AcDbEntity
  8
1
  6
CONTINUOUS
370
50
 62
4
100
AcDbLine
 10
4.810442999999999
 20
-2.798081
 30
0.0
 11
4.91987
 21
-2.75928
 31
0.0
  0
LINE
  5
603
330
1F
100
AcDbEntity
  8
1
  6
CONTINUOUS
370
50
 62
4
100
AcDbLine
 10
44.372082
 20
1.40242
 30
0.0
 11
44.426922
 21
1.42208
 31
0.0
  0
LINE
  5
604
330
1F
100
AcDbEntity
  8
1
  6
CONTINUOUS
370
50
 62
4
100
AcDbLine
 10
4.91987
 20
-2.75928
 30
0.0
 11
5.028188999999999
 21
-2.718194
 31
0.0
  0
LINE
  5
605
330
1F
100
AcDbEntity
  8
1
  6
CONTINUOUS
370
50
 62
4
100
AcDbLine
 10
44.426922
 20
1.42208
 30
0.0
 11
44.481098
 21
1.443431
 31
0.0
  0
LINE
  5
606
330
1F
100
AcDbEntity
  8
1
  6
CONTINUOUS
370
50
 62
4
100
AcDbLine
 10
5.028188999999999
 20
-2.718194
 30
0.0
 11
5.135737
 21
-2.675094
 31
0.0
  0
LINE
  5
607
330
1F
100
AcDbEntity
  8
1
  6
CONTINUOUS
370
50
 62
4
100
AcDbLine
 10
5.135737
 20
-2.675094
 30
0.0
 11
5.242852
 21
-2.63025
 31
0.0
  0
LINE
  5
608
330
1F
100
AcDbEntity
  8
1
  6
CONTINUOUS
370
50
 62
4
100
AcDbLine
 10
5.242852
 20
-2.63025
 30
0.0
 11
5.349870999999999
 21
-2.583934
 31
0.0
  0
LINE
  5
609
330
1F
100
AcDbEntity
  8
1
  6
CONTINUOUS
370
50
 62
4
100
AcDbLine
 10
44.481098
 20
1.443431
 30
0.0
 11
44.534245
 21
1.46656
 31
0.0
  0
LINE
  5
60A
330
1F
100
AcDbEntity
  8
1
  6
CONTINUOUS
370
50
 62
4
100
AcDbLine
 10
2.296601
 20
-1.851905
 30
0.0
 11
2.398966
 21
-1.80535
 31
0.0
  0
LINE
  5
60B
330
1F
100
AcDbEntity
  8
1
  6
CONTINUOUS
370
50
 62
4
100
AcDbLine
 10
44.534245
 20
1.46656
 30
0.0
 11
44.586006
 21
1.491556
 31
0.0
  0
LINE
  5
60C
330
1F
100
AcDbEntity
  8
1
  6
CONTINUOUS
370
50
 62
4
100
AcDbLine
 10
0.0
 20
-3.0
 30
0.0
 11
0.001
 21
-2.9995
 31
0.0
  0
LINE
  5
60D
330
1F
100
AcDbEntity
  8
1
  6
CONTINUOUS
370
50
 62
4
100
AcDbLine
 10
44.586006
 20
1.491556
 30
0.0
 11
44.636036
 21
1.518505
 31
0.0
  0
LINE
  5
60E
330
1F
100
AcDbEntity
  8
1
  6
CONTINUOUS
370
50
 62
4
100
AcDbLine
 10
44.980537
 20
-0.7714909999999999
 30
0.0
 11
45.00104899999999
 21
-0.7603289999999999
 31
0.0
  0
LINE
  5
60F
330
1F
100
AcDbEntity
  8
1
  6
CONTINUOUS
370
50
 62
4
100
AcDbLine
 10
2.202881
 20
-1.906966
 30
0.0
 11
2.296601
 21
-1.851905
 31
0.0
  0
LINE
  5
610
330
1F
100
AcDbEntity
  8
1
  6
CONTINUOUS
370
50
 62
4
100
AcDbLine
 10
44.636036
 20
1.518505
 30
0.0
 11
44.683968
 21
1.547496
 31
0.0
  0
LINE
  5
611
330
1F
100
AcDbEntity
  8
1
  6
CONTINUOUS
370
50
 62
4
100
AcDbLine
 10
44.881001
 20
-2.999854
 30
0.0
 11
44.881432
 21
-2.999561
 31
0.0
  0
LINE
  5
612
330
1F
100
AcDbEntity
  8
1
  6
CONTINUOUS
370
50
 62
4
100
AcDbLine
 10
44.683968
 20
1.547496
 30
0.0
 11
44.730473
 21
1.579365
 31
0.0
  0
LINE
  5
613
330
1F
100
AcDbEntity
  8
1
  6
CONTINUOUS
370
50
 62
4
100
AcDbLine
 10
2.120977
 20
-1.970382
 30
0.0
 11
2.202881
 21
-1.906966
 31
0.0
  0
LINE
  5
614
330
1F
100
AcDbEntity
  8
1
  6
CONTINUOUS
370
50
 62
4
100
AcDbLine
 10
44.730473
 20
1.579365
 30
0.0
 11
44.777473
 21
1.616494
 31
0.0
  0
LINE
  5
615
330
1F
100
AcDbEntity
  8
1
  6
CONTINUOUS
370
50
 62
4
100
AcDbLine
 10
44.849216
 20
-0.925391
 30
0.0
 11
45.845413
 21
-0.124308
 31
0.0
  0
LINE
  5
616
330
1F
100
AcDbEntity
  8
1
  6
CONTINUOUS
370
50
 62
4
100
AcDbLine
 10
44.777473
 20
1.616494
 30
0.0
 11
44.823437
 21
1.659408
 31
0.0
  0
LINE
  5
617
330
1F
100
AcDbEntity
  8
1
  6
CONTINUOUS
370
50
 62
4
100
AcDbLine
 10
45.00104899999999
 20
-0.7603289999999999
 30
0.0
 11
45.016346
 21
-0.7447469999999999
 31
0.0
  0
LINE
  5
618
330
1F
100
AcDbEntity
  8
1
  6
CONTINUOUS
370
50
 62
4
100
AcDbLine
 10
2.05429
 20
-2.041597
 30
0.0
 11
2.120977
 21
-1.970382
 31
0.0
  0
LINE
  5
619
330
1F
100
AcDbEntity
  8
1
  6
CONTINUOUS
370
50
 62
4
100
AcDbLine
 10
44.881432
 20
-2.999561
 30
0.0
 11
44.881866
 21
-2.999069
 31
0.0
  0
LINE
  5
61A
330
1F
100
AcDbEntity
  8
1
  6
CONTINUOUS
370
50
 62
4
100
AcDbLine
 10
44.823437
 20
1.659408
 30
0.0
 11
44.866631
 21
1.708501
 31
0.0
  0
LINE
  5
61B
330
1F
100
AcDbEntity
  8
1
  6
CONTINUOUS
370
50
 62
4
100
AcDbLine
 10
44.866631
 20
1.708501
 30
0.0
 11
44.90514
 21
1.763847
 31
0.0
  0
LINE
  5
61C
330
1F
100
AcDbEntity
  8
1
  6
CONTINUOUS
370
50
 62
4
100
AcDbLine
 10
44.881866
 20
-2.999069
 30
0.0
 11
44.882301
 21
-2.99838
 31
0.0
  0
LINE
  5
61D
330
1F
100
AcDbEntity
  8
1
  6
CONTINUOUS
370
50
 62
4
100
AcDbLine
 10
2.007142
 20
-2.117673
 30
0.0
 11
2.05429
 21
-2.041597
 31
0.0
  0
LINE
  5
61E
330
1F
100
AcDbEntity
  8
1
  6
CONTINUOUS
370
50
 62
4
100
AcDbLine
 10
44.90514
 20
1.763847
 30
0.0
 11
44.935955
 21
1.822554
 31
0.0
  0
LINE
  5
61F
330
1F
100
AcDbEntity
  8
1
  6
CONTINUOUS
370
50
 62
4
100
AcDbLine
 10
45.016346
 20
-0.7447469999999999
 30
0.0
 11
45.026382
 21
-0.724885
 31
0.0
  0
LINE
  5
620
330
1F
100
AcDbEntity
  8
1
  6
CONTINUOUS
370
50
 62
4
100
AcDbLine
 10
44.882301
 20
-2.99838
 30
0.0
 11
44.88274
 21
-2.997494
 31
0.0
  0
LINE
  5
621
330
1F
100
AcDbEntity
  8
1
  6
CONTINUOUS
370
50
 62
4
100
AcDbLine
 10
44.88274
 20
-2.997494
 30
0.0
 11
44.883179
 21
-2.996408
 31
0.0
  0
LINE
  5
622
330
1F
100
AcDbEntity
  8
1
  6
CONTINUOUS
370
50
 62
4
100
AcDbLine
 10
44.883144
 20
-2.996526
 30
0.0
 11
46.0
 21
0.0
 31
0.0
  0
LINE
  5
623
330
1F
100
AcDbEntity
  8
1
  6
CONTINUOUS
370
50
 62
4
100
AcDbLine
 10
44.935955
 20
1.822554
 30
0.0
 11
44.958729
 21
1.883765
 31
0.0
  0
LINE
  5
624
330
1F
100
AcDbEntity
  8
1
  6
CONTINUOUS
370
50
 62
4
100
AcDbLine
 10
1.981051
 20
-2.196496
 30
0.0
 11
2.007142
 21
-2.117673
 31
0.0
  0
LINE
  5
625
330
1F
100
AcDbEntity
  8
1
  6
CONTINUOUS
370
50
 62
4
100
AcDbLine
 10
44.958729
 20
1.883765
 30
0.0
 11
44.973717
 21
1.947393
 31
0.0
  0
LINE
  5
626
330
1F
100
AcDbEntity
  8
1
  6
CONTINUOUS
370
50
 62
4
100
AcDbLine
 10
45.026382
 20
-0.724885
 30
0.0
 11
45.03125
 21
-0.700992
 31
0.0
  0
LINE
  5
627
330
1F
100
AcDbEntity
  8
1
  6
CONTINUOUS
370
50
 62
4
100
AcDbLine
 10
44.973717
 20
1.947393
 30
0.0
 11
44.981148
 21
2.012875
 31
0.0
  0
LINE
  5
628
330
1F
100
AcDbEntity
  8
1
  6
CONTINUOUS
370
50
 62
4
100
AcDbLine
 10
1.976136
 20
-2.273775
 30
0.0
 11
1.981051
 21
-2.196496
 31
0.0
  0
LINE
  5
629
330
1F
100
AcDbEntity
  8
1
  6
CONTINUOUS
370
50
 62
4
100
AcDbLine
 10
44.981148
 20
2.012875
 30
0.0
 11
44.981483
 21
2.078899
 31
0.0
  0
LINE
  5
62A
330
1F
100
AcDbEntity
  8
1
  6
CONTINUOUS
370
50
 62
4
100
AcDbLine
 10
44.848698
 20
-1.111691
 30
0.0
 11
44.849216
 21
-0.9253859999999999
 31
0.0
  0
LINE
  5
62B
330
1F
100
AcDbEntity
  8
1
  6
CONTINUOUS
370
50
 62
4
100
AcDbLine
 10
44.848442
 20
-1.29045
 30
0.0
 11
44.848698
 21
-1.111691
 31
0.0
  0
LINE
  5
62C
330
1F
100
AcDbEntity
  8
1
  6
CONTINUOUS
370
50
 62
4
100
AcDbLine
 10
44.848434
 20
-1.461206
 30
0.0
 11
44.848442
 21
-1.29045
 31
0.0
  0
LINE
  5
62D
330
1F
100
AcDbEntity
  8
1
  6
CONTINUOUS
370
50
 62
4
100
AcDbLine
 10
0.0
 20
-3.0
 30
0.0
 11
0.0
 21
3.0
 31
0.0
  0
LINE
  5
62E
330
1F
100
AcDbEntity
  8
1
  6
CONTINUOUS
370
50
 62
4
100
AcDbLine
 10
0.001
 20
-2.9995
 30
0.0
 11
0.001
 21
2.9995
 31
0.0
  0
LINE
  5
62F
330
1F
100
AcDbEntity
  8
1
  6
CONTINUOUS
370
50
 62
4
100
AcDbLine
 10
5.349870999999999
 20
2.563944
 30
0.0
 11
5.349870999999999
 21
2.583934
 31
0.0
  0
LINE
  5
630
330
1F
100
AcDbEntity
  8
1
  6
CONTINUOUS
370
50
 62
4
100
AcDbLine
 10
5.349870999999999
 20
-2.583934
 30
0.0
 11
5.349870999999999
 21
-2.540262
 31
0.0
  0
LINE
  5
631
330
1F
100
AcDbEntity
  8
1
  6
CONTINUOUS
370
50
 62
4
100
AcDbLine
 10
5.349870999999999
 20
-2.540262
 30
0.0
 11
5.349870999999999
 21
-2.497173
 31
0.0
  0
LINE
  5
632
330
1F
100
AcDbEntity
  8
1
  6
CONTINUOUS
370
50
 62
4
100
AcDbLine
 10
5.349870999999999
 20
-2.497173
 30
0.0
 11
5.349870999999999
 21
-2.454685
 31
0.0
  0
LINE
  5
633
330
1F
100
AcDbEntity
  8
1
  6
CONTINUOUS
370
50
 62
4
100
AcDbLine
 10
5.349870999999999
 20
-2.454685
 30
0.0
 11
5.349870999999999
 21
-2.41282
 31
0.0
  0
LINE
  5
634
330
1F
100
AcDbEntity
  8
1
  6
CONTINUOUS
370
50
 62
4
100
AcDbLine
 10
5.349870999999999
 20
-2.41282
 30
0.0
 11
5.349870999999999
 21
-2.371596
 31
0.0
  0
LINE
  5
635
330
1F
100
AcDbEntity
  8
1
  6
CONTINUOUS
370
50
 62
4
100
AcDbLine
 10
5.349870999999999
 20
-2.371596
 30
0.0
 11
5.349870999999999
 21
-2.331033
 31
0.0
  0
LINE
  5
636
330
1F
100
AcDbEntity
  8
1
  6
CONTINUOUS
370
50
 62
4
100
AcDbLine
 10
5.351871
 20
-2.361661
 30
0.0
 11
5.351871
 21
-2.331965
 31
0.0
  0
LINE
  5
637
330
1F
100
AcDbEntity
  8
1
  6
CONTINUOUS
370
50
 62
4
100
AcDbLine
 10
16.0
 20
-3.0
 30
0.0
 11
16.0
 21
3.0
 31
0.0
  0
LINE
  5
638
330
1F
100
AcDbEntity
  8
1
  6
CONTINUOUS
370
50
 62
4
100
AcDbLine
 10
44.908089
 20
2.372679
 30
0.0
 11
44.908089
 21
2.659096
 31
0.0
  0
ELLIPSE
  5
639
330
1F
100
AcDbEntity
  8
1
  6
CONTINUOUS
370
50
 62
4
100
AcDbEllipse
 10
46.0
 20
0.0
 30
0.0
 11
-4.239390999867045
 21
2.75769700020439
 31
0.0
210
0.0
220
0.0
230
1.0
 40
0.2786121881570929
 41
1.359629414961786
 42
1.479703808946488
  0
LINE
  5
63A
330
1F
100
AcDbEntity
  8
CUT
  6
CONTINUOUS
370
25
 62
1
100
AcDbLine
 10
16.0
 20
0.0
 30
0.0
 11
46.0
 21
0.0
 31
0.0
  0
LINE
  5
63B
330
1F
100
AcDbEntity
  8
CUT
  6
CONTINUOUS
370
25
 62
1
100
AcDbLine
 10
46.0
 20
0.0
 30
0.0
 11
44.9080893
 21
3.0
 31
0.0
  0
LINE
  5
63C
330
1F
100
AcDbEntity
  8
CUT
  6
CONTINUOUS
370
25
 62
1
100
AcDbLine
 10
44.9080893
 20
3.0
 30
0.0
 11
16.0
 21
3.0
 31
0.0
  0
LINE
  5
63D
330
1F
100
AcDbEntity
  8
CUT
  6
CONTINUOUS
370
25
 62
1
100
AcDbLine
 10
16.0
 20
3.0
 30
0.0
 11
16.0
 21
0.0
 31
0.0
  0
LINE
  5
63E
330
1F
100
AcDbEntity
  8
NOCUT
  6
CONTINUOUS
370
25
 62
7
100
AcDbLine
 10
0.0
 20
0.0
 30
0.0
 11
16.0
 21
0.0
 31
0.0
  0
LINE
  5
63F
330
1F
100
AcDbEntity
  8
NOCUT
  6
CONTINUOUS
370
25
 62
7
100
AcDbLine
 10
16.0
 20
0.0
 30
0.0
 11
16.0
 21
3.0
 31
0.0
  0
LINE
  5
640
330
1F
100
AcDbEntity
  8
NOCUT
  6
CONTINUOUS
370
25
 62
7
100
AcDbLine
 10
16.0
 20
3.0
 30
0.0
 11
0.001
 21
3.0
 31
0.0
  0
LINE
  5
641
330
1F
100
AcDbEntity
  8
NOCUT
  6
CONTINUOUS
370
25
 62
7
100
AcDbLine
 10
0.001
 20
3.0
 30
0.0
 11
0.0
 21
3.0
 31
0.0
  0
LINE
  5
642
330
1F
100
AcDbEntity
  8
NOCUT
  6
CONTINUOUS
370
25
 62
7
100
AcDbLine
 10
0.0
 20
3.0
 30
0.0
 11
0.0
 21
0.0
 31
0.0
  0
LINE
  5
643
330
1F
100
AcDbEntity
  8
SK1
  6
CONTINUOUS
370
50
 62
4
100
AcDbLine
 10
0.0
 20
3.0
 30
0.0
 11
-35.2
 21
3.0
 31
0.0
  0
LINE
  5
644
330
1F
100
AcDbEntity
  8
SK1
  6
CONTINUOUS
370
50
 62
4
100
AcDbLine
 10
-35.2
 20
3.0
 30
0.0
 11
-36.0
 21
2.538119784648299
 31
0.0
  0
LINE
  5
645
330
1F
100
AcDbEntity
  8
SK1
  6
CONTINUOUS
370
50
 62
4
100
AcDbLine
 10
-36.0
 20
2.538119784648299
 30
0.0
 11
-36.0
 21
-2.538119784648299
 31
0.0
  0
LINE
  5
646
330
1F
100
AcDbEntity
  8
SK1
  6
CONTINUOUS
370
50
 62
4
100
AcDbLine
 10
-36.0
 20
-2.538119784648299
 30
0.0
 11
-35.2
 21
-3.0
 31
0.0
  0
LINE
  5
647
330
1F
100
AcDbEntity
  8
SK1
  6
CONTINUOUS
370
50
 62
4
100
AcDbLine
 10
-20.1
 20
-2.4
 30
0.0
 11
-20.1
 21
2.4
 31
0.0
  0
LINE
  5
648
330
1F
100
AcDbEntity
  8
SK1
  6
CONTINUOUS
370
50
 62
4
100
AcDbLine
 10
-35.2
 20
-3.0
 30
0.0
 11
0.0
 21
-3.0
 31
0.0
  0
LINE
  5
649
330
1F
100
AcDbEntity
  8
SK1
  6
CONTINUOUS
370
50
 62
4
100
AcDbLine
 10
-20.1
 20
2.4
 30
0.0
 11
-15.9
 21
2.4
 31
0.0
  0
LINE
  5
64A
330
1F
100
AcDbEntity
  8
SK1
  6
CONTINUOUS
370
50
 62
4
100
AcDbLine
 10
-15.9
 20
2.4
 30
0.0
 11
-15.9
 21
-2.4
 31
0.0
  0
LINE
  5
64B
330
1F
100
AcDbEntity
  8
SK1
  6
CONTINUOUS
370
50
 62
4
100
AcDbLine
 10
-15.9
 20
-2.4
 30
0.0
 11
-20.1
 21
-2.4
 31
0.0
  0
ARC
  5
64C
330
1F
100
AcDbEntity
  8
SK1
  6
CONTINUOUS
370
50
 62
4
100
AcDbCircle
 10
-18.3
 20
-0.0000000000000018
 30
0.0
 40
3.000000000000002
100
AcDbArc
 50
126.8698976458441
 51
233.1301023541559
  0
ARC
  5
64D
330
1F
100
AcDbEntity
  8
SK1
  6
CONTINUOUS
370
50
 62
4
100
AcDbCircle
 10
-17.7
 20
0.0000000000000018
 30
0.0
 40
3.0
100
AcDbArc
 50
306.869897645844
 51
53.13010235415595
  0
LINE
  5
64E
330
1F
100
AcDbEntity
  8
SK1
  6
CONTINUOUS
370
50
 62
4
100
AcDbLine
 10
-35.2
 20
3.0
 30
0.0
 11
-35.2
 21
-3.0
 31
0.0
  0
LINE
  5
64F
330
1F
100
AcDbEntity
  8
SK2
  6
CONTINUOUS
370
25
 62
7
100
AcDbLine
 10
-36.0
 20
2.07623957
 30
0.0
 11
-36.0
 21
16.0
 31
0.0
  0
LINE
  5
650
330
1F
100
AcDbEntity
  8
SK2
  6
CONTINUOUS
370
25
 62
7
100
AcDbLine
 10
0.0000000000000001
 20
16.0
 30
0.0
 11
-0.0000000000000007
 21
3.0
 31
0.0
  0
LINE
  5
651
330
1F
100
AcDbEntity
  8
SK2
  6
CONTINUOUS
370
25
 62
7
100
AcDbLine
 10
-36.0
 20
15.0
 30
0.0
 11
0.0
 21
15.0
 31
0.0
  0
LINE
  5
652
330
1F
100
AcDbEntity
  8
SK2
  6
CONTINUOUS
370
25
 62
7
100
AcDbLine
 10
-36.0
 20
15.0
 30
0.0
 11
-31.0
 21
16.0
 31
0.0
  0
LINE
  5
653
330
1F
100
AcDbEntity
  8
SK2
  6
CONTINUOUS
370
25
 62
7
100
AcDbLine
 10
-31.0
 20
16.0
 30
0.0
 11
-31.0
 21
14.0
 31
0.0
  0
LINE
  5
654
330
1F
100
AcDbEntity
  8
SK2
  6
CONTINUOUS
370
25
 62
7
100
AcDbLine
 10
-31.0
 20
14.0
 30
0.0
 11
-36.0
 21
15.0
 31
0.0
  0
LINE
  5
655
330
1F
100
AcDbEntity
  8
SK2
  6
CONTINUOUS
370
25
 62
7
100
AcDbLine
 10
-31.33021279348028
 20
14.06604255869605
 30
0.0
 11
-31.0
 21
14.39625535217633
 31
0.0
  0
LINE
  5
656
330
1F
100
AcDbEntity
  8
SK2
  6
CONTINUOUS
370
25
 62
7
100
AcDbLine
 10
-31.68376618407356
 20
14.13675323681471
 30
0.0
 11
-31.0
 21
14.82051942088827
 31
0.0
  0
LINE
  5
657
330
1F
100
AcDbEntity
  8
SK2
  6
CONTINUOUS
370
25
 62
7
100
AcDbLine
 10
-32.03731957466682
 20
14.20746391493337
 30
0.0
 11
-31.0
 21
15.24478348960019
 31
0.0
  0
LINE
  5
658
330
1F
100
AcDbEntity
  8
SK2
  6
CONTINUOUS
370
25
 62
7
100
AcDbLine
 10
-32.39087296526011
 20
14.27817459305202
 30
0.0
 11
-31.0
 21
15.66904755831212
 31
0.0
  0
LINE
  5
659
330
1F
100
AcDbEntity
  8
SK2
  6
CONTINUOUS
370
25
 62
7
100
AcDbLine
 10
-32.74442635585338
 20
14.34888527117067
 30
0.0
 11
-31.11663953378006
 21
15.97667209324399
 31
0.0
  0
LINE
  5
65A
330
1F
100
AcDbEntity
  8
SK2
  6
CONTINUOUS
370
25
 62
7
100
AcDbLine
 10
-33.09797974644665
 20
14.41959594928933
 30
0.0
 11
-31.64696961966998
 21
15.870606076066
 31
0.0
  0
LINE
  5
65B
330
1F
100
AcDbEntity
  8
SK2
  6
CONTINUOUS
370
25
 62
7
100
AcDbLine
 10
-33.45153313703992
 20
14.49030662740798
 30
0.0
 11
-32.17729970555988
 21
15.76454005888802
 31
0.0
  0
LINE
  5
65C
330
1F
100
AcDbEntity
  8
SK2
  6
CONTINUOUS
370
25
 62
7
100
AcDbLine
 10
-33.80508652763321
 20
14.56101730552664
 30
0.0
 11
-32.7076297914498
 21
15.65847404171004
 31
0.0
  0
LINE
  5
65D
330
1F
100
AcDbEntity
  8
SK2
  6
CONTINUOUS
370
25
 62
7
100
AcDbLine
 10
-34.15863991822648
 20
14.63172798364529
 30
0.0
 11
-33.2379598773397
 21
15.55240802453206
 31
0.0
  0
LINE
  5
65E
330
1F
100
AcDbEntity
  8
SK2
  6
CONTINUOUS
370
25
 62
7
100
AcDbLine
 10
-34.51219330881975
 20
14.70243866176395
 30
0.0
 11
-33.76828996322963
 21
15.44634200735408
 31
0.0
  0
LINE
  5
65F
330
1F
100
AcDbEntity
  8
SK2
  6
CONTINUOUS
370
25
 62
7
100
AcDbLine
 10
-34.86574669941303
 20
14.77314933988261
 30
0.0
 11
-34.29862004911954
 21
15.34027599017609
 31
0.0
  0
LINE
  5
660
330
1F
100
AcDbEntity
  8
SK2
  6
CONTINUOUS
370
25
 62
7
100
AcDbLine
 10
-35.21930009000631
 20
14.84386001800126
 30
0.0
 11
-34.82895013500946
 21
15.23420997299811
 31
0.0
  0
LINE
  5
661
330
1F
100
AcDbEntity
  8
SK2
  6
CONTINUOUS
370
25
 62
7
100
AcDbLine
 10
-35.57285348059958
 20
14.91457069611991
 30
0.0
 11
-35.35928022089936
 21
15.12814395582013
 31
0.0
  0
LINE
  5
662
330
1F
100
AcDbEntity
  8
SK2
  6
CONTINUOUS
370
25
 62
7
100
AcDbLine
 10
-35.92640687119286
 20
14.98528137423857
 30
0.0
 11
-35.88961030678929
 21
15.02207793864214
 31
0.0
  0
LINE
  5
663
330
1F
100
AcDbEntity
  8
SK2
  6
CONTINUOUS
370
25
 62
7
100
AcDbLine
 10
-35.808365396164
 20
15.0383269207672
 30
0.0
 11
-35.712548094246
 21
14.9425096188492
 31
0.0
  0
LINE
  5
664
330
1F
100
AcDbEntity
  8
SK2
  6
CONTINUOUS
370
25
 62
7
100
AcDbLine
 10
-35.45481200557072
 20
15.10903759888585
 30
0.0
 11
-35.18221800835609
 21
14.83644360167122
 31
0.0
  0
LINE
  5
665
330
1F
100
AcDbEntity
  8
SK2
  6
CONTINUOUS
370
25
 62
7
100
AcDbLine
 10
-35.10125861497745
 20
15.17974827700451
 30
0.0
 11
-34.65188792246617
 21
14.73037758449323
 31
0.0
  0
LINE
  5
666
330
1F
100
AcDbEntity
  8
SK2
  6
CONTINUOUS
370
25
 62
7
100
AcDbLine
 10
-34.74770522438418
 20
15.25045895512316
 30
0.0
 11
-34.12155783657627
 21
14.62431156731526
 31
0.0
  0
LINE
  5
667
330
1F
100
AcDbEntity
  8
SK2
  6
CONTINUOUS
370
25
 62
7
100
AcDbLine
 10
-34.3941518337909
 20
15.32116963324182
 30
0.0
 11
-33.59122775068636
 21
14.51824555013727
 31
0.0
  0
LINE
  5
668
330
1F
100
AcDbEntity
  8
SK2
  6
CONTINUOUS
370
25
 62
7
100
AcDbLine
 10
-34.04059844319763
 20
15.39188031136048
 30
0.0
 11
-33.06089766479644
 21
14.41217953295929
 31
0.0
  0
LINE
  5
669
330
1F
100
AcDbEntity
  8
SK2
  6
CONTINUOUS
370
25
 62
7
100
AcDbLine
 10
-33.68704505260435
 20
15.46259098947912
 30
0.0
 11
-32.53056757890653
 21
14.30611351578131
 31
0.0
  0
LINE
  5
66A
330
1F
100
AcDbEntity
  8
SK2
  6
CONTINUOUS
370
25
 62
7
100
AcDbLine
 10
-33.33349166201108
 20
15.53330166759779
 30
0.0
 11
-32.00023749301663
 21
14.20004749860332
 31
0.0
  0
LINE
  5
66B
330
1F
100
AcDbEntity
  8
SK2
  6
CONTINUOUS
370
25
 62
7
100
AcDbLine
 10
-32.97993827141781
 20
15.60401234571644
 30
0.0
 11
-31.46990740712672
 21
14.09398148142534
 31
0.0
  0
LINE
  5
66C
330
1F
100
AcDbEntity
  8
SK2
  6
CONTINUOUS
370
25
 62
7
100
AcDbLine
 10
-32.62638488082453
 20
15.67472302383509
 30
0.0
 11
-31.0
 21
14.04833814301055
 31
0.0
  0
LINE
  5
66D
330
1F
100
AcDbEntity
  8
SK2
  6
CONTINUOUS
370
25
 62
7
100
AcDbLine
 10
-32.27283149023125
 20
15.74543370195374
 30
0.0
 11
-31.0
 21
14.47260221172248
 31
0.0
  0
LINE
  5
66E
330
1F
100
AcDbEntity
  8
SK2
  6
CONTINUOUS
370
25
 62
7
100
AcDbLine
 10
-31.91927809963799
 20
15.81614438007241
 30
0.0
 11
-31.0
 21
14.89686628043441
 31
0.0
  0
LINE
  5
66F
330
1F
100
AcDbEntity
  8
SK2
  6
CONTINUOUS
370
25
 62
7
100
AcDbLine
 10
-31.56572470904471
 20
15.88685505819106
 30
0.0
 11
-31.0
 21
15.32113034914634
 31
0.0
  0
LINE
  5
670
330
1F
100
AcDbEntity
  8
SK2
  6
CONTINUOUS
370
25
 62
7
100
AcDbLine
 10
-31.21217131845144
 20
15.95756573630971
 30
0.0
 11
-31.0
 21
15.74539441785828
 31
0.0
  0
LINE
  5
671
330
1F
100
AcDbEntity
  8
SK2
  6
CONTINUOUS
370
25
 62
7
100
AcDbLine
 10
0.0
 20
15.0
 30
0.0
 11
-5.0
 21
14.0
 31
0.0
  0
LINE
  5
672
330
1F
100
AcDbEntity
  8
SK2
  6
CONTINUOUS
370
25
 62
7
100
AcDbLine
 10
-5.0
 20
14.0
 30
0.0
 11
-5.0
 21
16.0
 31
0.0
  0
LINE
  5
673
330
1F
100
AcDbEntity
  8
SK2
  6
CONTINUOUS
370
25
 62
7
100
AcDbLine
 10
-5.0
 20
16.0
 30
0.0
 11
0.0
 21
15.0
 31
0.0
  0
LINE
  5
674
330
1F
100
AcDbEntity
  8
SK2
  6
CONTINUOUS
370
25
 62
7
100
AcDbLine
 10
-0.341883092036781
 20
14.93162338159264
 30
0.0
 11
-0.227922061357854
 21
15.04558441227157
 31
0.0
  0
LINE
  5
675
330
1F
100
AcDbEntity
  8
SK2
  6
CONTINUOUS
370
25
 62
7
100
AcDbLine
 10
-0.8722131779266906
 20
14.82555736441466
 30
0.0
 11
-0.5814754519511272
 21
15.11629509039023
 31
0.0
  0
LINE
  5
676
330
1F
100
AcDbEntity
  8
SK2
  6
CONTINUOUS
370
25
 62
7
100
AcDbLine
 10
-1.4025432638166
 20
14.71949134723668
 30
0.0
 11
-0.9350288425444002
 21
15.18700576850888
 31
0.0
  0
LINE
  5
677
330
1F
100
AcDbEntity
  8
SK2
  6
CONTINUOUS
370
25
 62
7
100
AcDbLine
 10
-1.93287334970651
 20
14.6134253300587
 30
0.0
 11
-1.288582233137673
 21
15.25771644662754
 31
0.0
  0
LINE
  5
678
330
1F
100
AcDbEntity
  8
SK2
  6
CONTINUOUS
370
25
 62
7
100
AcDbLine
 10
-2.463203435596419
 20
14.50735931288072
 30
0.0
 11
-1.642135623730946
 21
15.32842712474619
 31
0.0
  0
LINE
  5
679
330
1F
100
AcDbEntity
  8
SK2
  6
CONTINUOUS
370
25
 62
7
100
AcDbLine
 10
-2.993533521486328
 20
14.40129329570273
 30
0.0
 11
-1.995689014324219
 21
15.39913780286484
 31
0.0
  0
LINE
  5
67A
330
1F
100
AcDbEntity
  8
SK2
  6
CONTINUOUS
370
25
 62
7
100
AcDbLine
 10
-3.523863607376237
 20
14.29522727852475
 30
0.0
 11
-2.349242404917492
 21
15.4698484809835
 31
0.0
  0
LINE
  5
67B
330
1F
100
AcDbEntity
  8
SK2
  6
CONTINUOUS
370
25
 62
7
100
AcDbLine
 10
-4.054193693266146
 20
14.18916126134677
 30
0.0
 11
-2.702795795510765
 21
15.54055915910215
 31
0.0
  0
LINE
  5
67C
330
1F
100
AcDbEntity
  8
SK2
  6
CONTINUOUS
370
25
 62
7
100
AcDbLine
 10
-4.58452377915606
 20
14.08309524416879
 30
0.0
 11
-3.056349186104041
 21
15.61126983722081
 31
0.0
  0
LINE
  5
67D
330
1F
100
AcDbEntity
  8
SK2
  6
CONTINUOUS
370
25
 62
7
100
AcDbLine
 10
-5.0
 20
14.09188309203678
 30
0.0
 11
-3.409902576697313
 21
15.68198051533946
 31
0.0
  0
LINE
  5
67E
330
1F
100
AcDbEntity
  8
SK2
  6
CONTINUOUS
370
25
 62
7
100
AcDbLine
 10
-5.0
 20
14.5161471607487
 30
0.0
 11
-3.763455967290586
 21
15.75269119345812
 31
0.0
  0
LINE
  5
67F
330
1F
100
AcDbEntity
  8
SK2
  6
CONTINUOUS
370
25
 62
7
100
AcDbLine
 10
-5.0
 20
14.94041122946063
 30
0.0
 11
-4.117009357883859
 21
15.82340187157677
 31
0.0
  0
LINE
  5
680
330
1F
100
AcDbEntity
  8
SK2
  6
CONTINUOUS
370
25
 62
7
100
AcDbLine
 10
-5.0
 20
15.36467529817256
 30
0.0
 11
-4.470562748477132
 21
15.89411254969543
 31
0.0
  0
LINE
  5
681
330
1F
100
AcDbEntity
  8
SK2
  6
CONTINUOUS
370
25
 62
7
100
AcDbLine
 10
-5.0
 20
15.78893936688449
 30
0.0
 11
-4.824116139070405
 21
15.96482322781408
 31
0.0
  0
LINE
  5
682
330
1F
100
AcDbEntity
  8
SK2
  6
CONTINUOUS
370
25
 62
7
100
AcDbLine
 10
-5.0
 20
14.3338095116624
 30
0.0
 11
-4.721825406947999
 21
14.0556349186104
 31
0.0
  0
LINE
  5
683
330
1F
100
AcDbEntity
  8
SK2
  6
CONTINUOUS
370
25
 62
7
100
AcDbLine
 10
-5.0
 20
14.75807358037433
 30
0.0
 11
-4.368272016354727
 21
14.12634559672905
 31
0.0
  0
LINE
  5
684
330
1F
100
AcDbEntity
  8
SK2
  6
CONTINUOUS
370
25
 62
7
100
AcDbLine
 10
-5.0
 20
15.18233764908625
 30
0.0
 11
-4.014718625761454
 21
14.19705627484771
 31
0.0
  0
LINE
  5
685
330
1F
100
AcDbEntity
  8
SK2
  6
CONTINUOUS
370
25
 62
7
100
AcDbLine
 10
-5.0
 20
15.60660171779818
 30
0.0
 11
-3.661165235168179
 21
14.26776695296637
 31
0.0
  0
LINE
  5
686
330
1F
100
AcDbEntity
  8
SK2
  6
CONTINUOUS
370
25
 62
7
100
AcDbLine
 10
-4.961417766862361
 20
15.99228355337247
 30
0.0
 11
-3.307611844574905
 21
14.33847763108502
 31
0.0
  0
LINE
  5
687
330
1F
100
AcDbEntity
  8
SK2
  6
CONTINUOUS
370
25
 62
7
100
AcDbLine
 10
-4.431087680972451
 20
15.88621753619449
 30
0.0
 11
-2.954058453981632
 21
14.40918830920367
 31
0.0
  0
LINE
  5
688
330
1F
100
AcDbEntity
  8
SK2
  6
CONTINUOUS
370
25
 62
7
100
AcDbLine
 10
-3.90075759508254
 20
15.78015151901651
 30
0.0
 11
-2.600505063388358
 21
14.47989898732233
 31
0.0
  0
LINE
  5
689
330
1F
100
AcDbEntity
  8
SK2
  6
CONTINUOUS
370
25
 62
7
100
AcDbLine
 10
-3.370427509192631
 20
15.67408550183853
 30
0.0
 11
-2.246951672795086
 21
14.55060966544098
 31
0.0
  0
LINE
  5
68A
330
1F
100
AcDbEntity
  8
SK2
  6
CONTINUOUS
370
25
 62
7
100
AcDbLine
 10
-2.840097423302721
 20
15.56801948466054
 30
0.0
 11
-1.893398282201812
 21
14.62132034355964
 31
0.0
  0
LINE
  5
68B
330
1F
100
AcDbEntity
  8
SK2
  6
CONTINUOUS
370
25
 62
7
100
AcDbLine
 10
-2.30976733741281
 20
15.46195346748256
 30
0.0
 11
-1.539844891608539
 21
14.69203102167829
 31
0.0
  0
LINE
  5
68C
330
1F
100
AcDbEntity
  8
SK2
  6
CONTINUOUS
370
25
 62
7
100
AcDbLine
 10
-1.7794372515229
 20
15.35588745030458
 30
0.0
 11
-1.186291501015265
 21
14.76274169979695
 31
0.0
  0
LINE
  5
68D
330
1F
100
AcDbEntity
  8
SK2
  6
CONTINUOUS
370
25
 62
7
100
AcDbLine
 10
-1.249107165632989
 20
15.2498214331266
 30
0.0
 11
-0.8327381104219916
 21
14.8334523779156
 31
0.0
  0
LINE
  5
68E
330
1F
100
AcDbEntity
  8
SK2
  6
CONTINUOUS
370
25
 62
7
100
AcDbLine
 10
-0.7187770797430799
 20
15.14375541594862
 30
0.0
 11
-0.4791847198287195
 21
14.90416305603426
 31
0.0
  0
LINE
  5
68F
330
1F
100
AcDbEntity
  8
SK2
  6
CONTINUOUS
370
25
 62
7
100
AcDbLine
 10
-0.1884469938531668
 20
15.03768939877063
 30
0.0
 11
-0.1256313292354444
 21
14.97487373415291
 31
0.0
  0
TEXT
  5
690
330
1F
100
AcDbEntity
  8
SK2
  6
CONTINUOUS
370
25
 62
7
100
AcDbText
 10
-20.91666666666667
 20
16.5
 30
0.0
 40
3.5
  1
36
 72
     1
 11
-18.0
 21
16.5
 31
0.0
100
AcDbText
  0
LINE
  5
691
330
1F
100
AcDbEntity
  8
SK2
  6
CONTINUOUS
370
25
 62
7
100
AcDbLine
 10
-48.0000002
 20
-3.000001
 30
0.0
 11
-49.00000000000008
 21
-3.000001
 31
0.0
  0
LINE
  5
692
330
1F
100
AcDbEntity
  8
SK2
  6
CONTINUOUS
370
25
 62
7
100
AcDbLine
 10
-36.0
 20
-3.000001
 30
0.0
 11
-47.9999998
 21
-3.000001
 31
0.0
  0
LINE
  5
693
330
1F
100
AcDbEntity
  8
SK2
  6
CONTINUOUS
370
25
 62
7
100
AcDbLine
 10
-49.0
 20
3.0
 30
0.0
 11
-36.0
 21
3.0
 31
0.0
  0
LINE
  5
694
330
1F
100
AcDbEntity
  8
SK2
  6
CONTINUOUS
370
25
 62
7
100
AcDbLine
 10
-48.0
 20
-10.0
 30
0.0
 11
-48.0
 21
16.475
 31
0.0
  0
LINE
  5
695
330
1F
100
AcDbEntity
  8
SK2
  6
CONTINUOUS
370
25
 62
7
100
AcDbLine
 10
-48.0
 20
-3.0
 30
0.0
 11
-47.0
 21
-8.0
 31
0.0
  0
LINE
  5
696
330
1F
100
AcDbEntity
  8
SK2
  6
CONTINUOUS
370
25
 62
7
100
AcDbLine
 10
-47.0
 20
-8.0
 30
0.0
 11
-49.0
 21
-8.0
 31
0.0
  0
LINE
  5
697
330
1F
100
AcDbEntity
  8
SK2
  6
CONTINUOUS
370
25
 62
7
100
AcDbLine
 10
-49.0
 20
-8.0
 30
0.0
 11
-48.0
 21
-3.0
 31
0.0
  0
LINE
  5
698
330
1F
100
AcDbEntity
  8
SK2
  6
CONTINUOUS
370
25
 62
7
100
AcDbLine
 10
-47.0322943214974
 20
-8.0
 30
0.0
 11
-47.00538238691623
 21
-7.973088065418835
 31
0.0
  0
LINE
  5
699
330
1F
100
AcDbEntity
  8
SK2
  6
CONTINUOUS
370
25
 62
7
100
AcDbLine
 10
-47.45655839020933
 20
-8.0
 30
0.0
 11
-47.07609306503489
 21
-7.619534674825559
 31
0.0
  0
LINE
  5
69A
330
1F
100
AcDbEntity
  8
SK2
  6
CONTINUOUS
370
25
 62
7
100
AcDbLine
 10
-47.88082245892126
 20
-8.0
 30
0.0
 11
-47.14680374315355
 21
-7.265981284232289
 31
0.0
  0
LINE
  5
69B
330
1F
100
AcDbEntity
  8
SK2
  6
CONTINUOUS
370
25
 62
7
100
AcDbLine
 10
-48.30508652763319
 20
-8.0
 30
0.0
 11
-47.2175144212722
 21
-6.912427893639013
 31
0.0
  0
LINE
  5
69C
330
1F
100
AcDbEntity
  8
SK2
  6
CONTINUOUS
370
25
 62
7
100
AcDbLine
 10
-48.72935059634511
 20
-8.0
 30
0.0
 11
-47.28822509939085
 21
-6.558874503045736
 31
0.0
  0
LINE
  5
69D
330
1F
100
AcDbEntity
  8
SK2
  6
CONTINUOUS
370
25
 62
7
100
AcDbLine
 10
-48.96159633373574
 20
-7.807981668678693
 30
0.0
 11
-47.35893577750952
 21
-6.205321112452467
 31
0.0
  0
LINE
  5
69E
330
1F
100
AcDbEntity
  8
SK2
  6
CONTINUOUS
370
25
 62
7
100
AcDbLine
 10
-48.85553031655775
 20
-7.277651582788778
 30
0.0
 11
-47.42964645562817
 21
-5.85176772185919
 31
0.0
  0
LINE
  5
69F
330
1F
100
AcDbEntity
  8
SK2
  6
CONTINUOUS
370
25
 62
7
100
AcDbLine
 10
-48.74946429937977
 20
-6.747321496898863
 30
0.0
 11
-47.50035713374682
 21
-5.498214331265913
 31
0.0
  0
LINE
  5
6A0
330
1F
100
AcDbEntity
  8
SK2
  6
CONTINUOUS
370
25
 62
7
100
AcDbLine
 10
-48.64339828220179
 20
-6.216991411008955
 30
0.0
 11
-47.57106781186547
 21
-5.144660940672622
 31
0.0
  0
LINE
  5
6A1
330
1F
100
AcDbEntity
  8
SK2
  6
CONTINUOUS
370
25
 62
7
100
AcDbLine
 10
-48.53733226502381
 20
-5.68666132511904
 30
0.0
 11
-47.64177848998413
 21
-4.791107550079353
 31
0.0
  0
LINE
  5
6A2
330
1F
100
AcDbEntity
  8
SK2
  6
CONTINUOUS
370
25
 62
7
100
AcDbLine
 10
-48.43126624784583
 20
-5.156331239229125
 30
0.0
 11
-47.71248916810278
 21
-4.437554159486076
 31
0.0
  0
LINE
  5
6A3
330
1F
100
AcDbEntity
  8
SK2
  6
CONTINUOUS
370
25
 62
7
100
AcDbLine
 10
-48.32520023066785
 20
-4.62600115333921
 30
0.0
 11
-47.78319984622144
 21
-4.084000768892793
 31
0.0
  0
LINE
  5
6A4
330
1F
100
AcDbEntity
  8
SK2
  6
CONTINUOUS
370
25
 62
7
100
AcDbLine
 10
-48.21913421348987
 20
-4.095671067449302
 30
0.0
 11
-47.85391052434009
 21
-3.730447378299523
 31
0.0
  0
LINE
  5
6A5
330
1F
100
AcDbEntity
  8
SK2
  6
CONTINUOUS
370
25
 62
7
100
AcDbLine
 10
-48.11306819631188
 20
-3.56534098155938
 30
0.0
 11
-47.92462120245875
 21
-3.376893987706239
 31
0.0
  0
LINE
  5
6A6
330
1F
100
AcDbEntity
  8
SK2
  6
CONTINUOUS
370
25
 62
7
100
AcDbLine
 10
-48.0070021791339
 20
-3.035010895669473
 30
0.0
 11
-47.99533188057741
 21
-3.023340597112977
 31
0.0
  0
LINE
  5
6A7
330
1F
100
AcDbEntity
  8
SK2
  6
CONTINUOUS
370
25
 62
7
100
AcDbLine
 10
-48.97148549640708
 20
-7.857427482035419
 30
0.0
 11
-48.8289129784425
 21
-8.0
 31
0.0
  0
LINE
  5
6A8
330
1F
100
AcDbEntity
  8
SK2
  6
CONTINUOUS
370
25
 62
7
100
AcDbLine
 10
-48.90077481828843
 20
-7.503874091442142
 30
0.0
 11
-48.40464890973057
 21
-8.0
 31
0.0
  0
LINE
  5
6A9
330
1F
100
AcDbEntity
  8
SK2
  6
CONTINUOUS
370
25
 62
7
100
AcDbLine
 10
-48.83006414016977
 20
-7.150320700848873
 30
0.0
 11
-47.98038484101864
 21
-8.0
 31
0.0
  0
LINE
  5
6AA
330
1F
100
AcDbEntity
  8
SK2
  6
CONTINUOUS
370
25
 62
7
100
AcDbLine
 10
-48.75935346205112
 20
-6.796767310255589
 30
0.0
 11
-47.55612077230671
 21
-8.0
 31
0.0
  0
LINE
  5
6AB
330
1F
100
AcDbEntity
  8
SK2
  6
CONTINUOUS
370
25
 62
7
100
AcDbLine
 10
-48.68864278393247
 20
-6.443213919662305
 30
0.0
 11
-47.13185670359477
 21
-8.0
 31
0.0
  0
LINE
  5
6AC
330
1F
100
AcDbEntity
  8
SK2
  6
CONTINUOUS
370
25
 62
7
100
AcDbLine
 10
-48.61793210581381
 20
-6.089660529069036
 30
0.0
 11
-47.07310184127929
 21
-7.634490793603554
 31
0.0
  0
LINE
  5
6AD
330
1F
100
AcDbEntity
  8
SK2
  6
CONTINUOUS
370
25
 62
7
100
AcDbLine
 10
-48.54722142769516
 20
-5.736107138475752
 30
0.0
 11
-47.17916785845728
 21
-7.104160707713632
 31
0.0
  0
LINE
  5
6AE
330
1F
100
AcDbEntity
  8
SK2
  6
CONTINUOUS
370
25
 62
7
100
AcDbLine
 10
-48.47651074957651
 20
-5.382553747882483
 30
0.0
 11
-47.28523387563525
 21
-6.573830621823738
 31
0.0
  0
LINE
  5
6AF
330
1F
100
AcDbEntity
  8
SK2
  6
CONTINUOUS
370
25
 62
7
100
AcDbLine
 10
-48.40580007145785
 20
-5.029000357289206
 30
0.0
 11
-47.39129989281324
 21
-6.043500535933816
 31
0.0
  0
LINE
  5
6B0
330
1F
100
AcDbEntity
  8
SK2
  6
CONTINUOUS
370
25
 62
7
100
AcDbLine
 10
-48.33508939333919
 20
-4.675446966695937
 30
0.0
 11
-47.49736590999122
 21
-5.513170450043908
 31
0.0
  0
LINE
  5
6B1
330
1F
100
AcDbEntity
  8
SK2
  6
CONTINUOUS
370
25
 62
7
100
AcDbLine
 10
-48.26437871522052
 20
-4.321893576102667
 30
0.0
 11
-47.6034319271692
 21
-4.982840364153986
 31
0.0
  0
LINE
  5
6B2
330
1F
100
AcDbEntity
  8
SK2
  6
CONTINUOUS
370
25
 62
7
100
AcDbLine
 10
-48.19366803710187
 20
-3.96834018550939
 30
0.0
 11
-47.70949794434719
 21
-4.452510278264072
 31
0.0
  0
LINE
  5
6B3
330
1F
100
AcDbEntity
  8
SK2
  6
CONTINUOUS
370
25
 62
7
100
AcDbLine
 10
-48.12295735898322
 20
-3.614786794916107
 30
0.0
 11
-47.81556396152517
 21
-3.922180192374157
 31
0.0
  0
LINE
  5
6B4
330
1F
100
AcDbEntity
  8
SK2
  6
CONTINUOUS
370
25
 62
7
100
AcDbLine
 10
-48.05224668086456
 20
-3.26123340432283
 30
0.0
 11
-47.92162997870315
 21
-3.391850106484235
 31
0.0
  0
LINE
  5
6B5
330
1F
100
AcDbEntity
  8
SK2
  6
CONTINUOUS
370
25
 62
7
100
AcDbLine
 10
-48.0
 20
3.0
 30
0.0
 11
-49.0
 21
8.0
 31
0.0
  0
LINE
  5
6B6
330
1F
100
AcDbEntity
  8
SK2
  6
CONTINUOUS
370
25
 62
7
100
AcDbLine
 10
-49.0
 20
8.0
 30
0.0
 11
-47.0
 21
8.0
 31
0.0
  0
LINE
  5
6B7
330
1F
100
AcDbEntity
  8
SK2
  6
CONTINUOUS
370
25
 62
7
100
AcDbLine
 10
-47.0
 20
8.0
 30
0.0
 11
-48.0
 21
3.0
 31
0.0
  0
LINE
  5
6B8
330
1F
100
AcDbEntity
  8
SK2
  6
CONTINUOUS
370
25
 62
7
100
AcDbLine
 10
-48.05599205235722
 20
3.279960261786115
 30
0.0
 11
-47.91601192146417
 21
3.419940392679159
 31
0.0
  0
LINE
  5
6B9
330
1F
100
AcDbEntity
  8
SK2
  6
CONTINUOUS
370
25
 62
7
100
AcDbLine
 10
-48.12670273047588
 20
3.633513652379392
 30
0.0
 11
-47.80994590428619
 21
3.950270478569074
 31
0.0
  0
LINE
  5
6BA
330
1F
100
AcDbEntity
  8
SK2
  6
CONTINUOUS
370
25
 62
7
100
AcDbLine
 10
-48.19741340859454
 20
3.987067042972662
 30
0.0
 11
-47.7038798871082
 21
4.480600564458996
 31
0.0
  0
LINE
  5
6BB
330
1F
100
AcDbEntity
  8
SK2
  6
CONTINUOUS
370
25
 62
7
100
AcDbLine
 10
-48.26812408671319
 20
4.340620433565945
 30
0.0
 11
-47.59781386993022
 21
5.010930650348911
 31
0.0
  0
LINE
  5
6BC
330
1F
100
AcDbEntity
  8
SK2
  6
CONTINUOUS
370
25
 62
7
100
AcDbLine
 10
-48.33883476483184
 20
4.694173824159222
 30
0.0
 11
-47.49174785275224
 21
5.541260736238819
 31
0.0
  0
LINE
  5
6BD
330
1F
100
AcDbEntity
  8
SK2
  6
CONTINUOUS
370
25
 62
7
100
AcDbLine
 10
-48.4095454429505
 20
5.047727214752499
 30
0.0
 11
-47.38568183557425
 21
6.071590822128741
 31
0.0
  0
LINE
  5
6BE
330
1F
100
AcDbEntity
  8
SK2
  6
CONTINUOUS
370
25
 62
7
100
AcDbLine
 10
-48.48025612106915
 20
5.401280605345768
 30
0.0
 11
-47.27961581839627
 21
6.601920908018649
 31
0.0
  0
LINE
  5
6BF
330
1F
100
AcDbEntity
  8
SK2
  6
CONTINUOUS
370
25
 62
7
100
AcDbLine
 10
-48.55096679918782
 20
5.754833995939038
 30
0.0
 11
-47.17354980121829
 21
7.132250993908571
 31
0.0
  0
LINE
  5
6C0
330
1F
100
AcDbEntity
  8
SK2
  6
CONTINUOUS
370
25
 62
7
100
AcDbLine
 10
-48.62167747730647
 20
6.108387386532321
 30
0.0
 11
-47.0674837840403
 21
7.662581079798493
 31
0.0
  0
LINE
  5
6C1
330
1F
100
AcDbEntity
  8
SK2
  6
CONTINUOUS
370
25
 62
7
100
AcDbLine
 10
-48.69238815542512
 20
6.461940777125598
 30
0.0
 11
-47.15432893255072
 21
8.0
 31
0.0
  0
LINE
  5
6C2
330
1F
100
AcDbEntity
  8
SK2
  6
CONTINUOUS
370
25
 62
7
100
AcDbLine
 10
-48.76309883354378
 20
6.815494167718867
 30
0.0
 11
-47.57859300126265
 21
8.0
 31
0.0
  0
LINE
  5
6C3
330
1F
100
AcDbEntity
  8
SK2
  6
CONTINUOUS
370
25
 62
7
100
AcDbLine
 10
-48.83380951166243
 20
7.169047558312144
 30
0.0
 11
-48.00285706997457
 21
8.0
 31
0.0
  0
LINE
  5
6C4
330
1F
100
AcDbEntity
  8
SK2
  6
CONTINUOUS
370
25
 62
7
100
AcDbLine
 10
-48.90452018978108
 20
7.522600948905428
 30
0.0
 11
-48.42712113868651
 21
8.0
 31
0.0
  0
LINE
  5
6C5
330
1F
100
AcDbEntity
  8
SK2
  6
CONTINUOUS
370
25
 62
7
100
AcDbLine
 10
-48.97523086789974
 20
7.876154339498697
 30
0.0
 11
-48.85138520739844
 21
8.0
 31
0.0
  0
LINE
  5
6C6
330
1F
100
AcDbEntity
  8
SK2
  6
CONTINUOUS
370
25
 62
7
100
AcDbLine
 10
-48.10325336029578
 20
3.516266801478942
 30
0.0
 11
-47.93116442646948
 21
3.34417786765264
 31
0.0
  0
LINE
  5
6C7
330
1F
100
AcDbEntity
  8
SK2
  6
CONTINUOUS
370
25
 62
7
100
AcDbLine
 10
-48.20931937747378
 20
4.046596887368871
 30
0.0
 11
-47.86045374835081
 21
3.697731258245909
 31
0.0
  0
LINE
  5
6C8
330
1F
100
AcDbEntity
  8
SK2
  6
CONTINUOUS
370
25
 62
7
100
AcDbLine
 10
-48.31538539465176
 20
4.576926973258772
 30
0.0
 11
-47.78974307023216
 21
4.051284648839179
 31
0.0
  0
LINE
  5
6C9
330
1F
100
AcDbEntity
  8
SK2
  6
CONTINUOUS
370
25
 62
7
100
AcDbLine
 10
-48.42145141182974
 20
5.107257059148687
 30
0.0
 11
-47.7190323921135
 21
4.404838039432455
 31
0.0
  0
LINE
  5
6CA
330
1F
100
AcDbEntity
  8
SK2
  6
CONTINUOUS
370
25
 62
7
100
AcDbLine
 10
-48.52751742900772
 20
5.637587145038601
 30
0.0
 11
-47.64832171399485
 21
4.758391430025739
 31
0.0
  0
LINE
  5
6CB
330
1F
100
AcDbEntity
  8
SK2
  6
CONTINUOUS
370
25
 62
7
100
AcDbLine
 10
-48.6335834461857
 20
6.167917230928516
 30
0.0
 11
-47.57761103587619
 21
5.111944820619009
 31
0.0
  0
LINE
  5
6CC
330
1F
100
AcDbEntity
  8
SK2
  6
CONTINUOUS
370
25
 62
7
100
AcDbLine
 10
-48.73964946336369
 20
6.698247316818438
 30
0.0
 11
-47.50690035775754
 21
5.465498211212292
 31
0.0
  0
LINE
  5
6CD
330
1F
100
AcDbEntity
  8
SK2
  6
CONTINUOUS
370
25
 62
7
100
AcDbLine
 10
-48.84571548054167
 20
7.228577402708346
 30
0.0
 11
-47.43618967963889
 21
5.819051601805569
 31
0.0
  0
LINE
  5
6CE
330
1F
100
AcDbEntity
  8
SK2
  6
CONTINUOUS
370
25
 62
7
100
AcDbLine
 10
-48.95178149771965
 20
7.758907488598254
 30
0.0
 11
-47.36547900152023
 21
6.172604992398838
 31
0.0
  0
LINE
  5
6CF
330
1F
100
AcDbEntity
  8
SK2
  6
CONTINUOUS
370
25
 62
7
100
AcDbLine
 10
-48.76860994040945
 20
8.0
 30
0.0
 11
-47.29476832340158
 21
6.526158382992129
 31
0.0
  0
LINE
  5
6D0
330
1F
100
AcDbEntity
  8
SK2
  6
CONTINUOUS
370
25
 62
7
100
AcDbLine
 10
-48.34434587169752
 20
8.0
 30
0.0
 11
-47.22405764528292
 21
6.879711773585399
 31
0.0
  0
LINE
  5
6D1
330
1F
100
AcDbEntity
  8
SK2
  6
CONTINUOUS
370
25
 62
7
100
AcDbLine
 10
-47.92008180298559
 20
8.0
 30
0.0
 11
-47.15334696716427
 21
7.233265164178675
 31
0.0
  0
LINE
  5
6D2
330
1F
100
AcDbEntity
  8
SK2
  6
CONTINUOUS
370
25
 62
7
100
AcDbLine
 10
-47.49581773427366
 20
8.0
 30
0.0
 11
-47.08263628904562
 21
7.586818554771959
 31
0.0
  0
LINE
  5
6D3
330
1F
100
AcDbEntity
  8
SK2
  6
CONTINUOUS
370
25
 62
7
100
AcDbLine
 10
-47.07155366556173
 20
8.0
 30
0.0
 11
-47.01192561092696
 21
7.940371945365229
 31
0.0
  0
TEXT
  5
6D4
330
1F
100
AcDbEntity
  8
SK2
  6
CONTINUOUS
370
25
 62
7
100
AcDbText
 10
-49.5
 20
13.34583333333333
 30
0.0
 40
3.5
  1
6
 50
90.00000000000001
 72
     1
 11
-49.5
 21
14.5125
 31
0.0
100
AcDbText
  0
CIRCLE
  5
6D5
330
1F
100
AcDbEntity
  8
SK2
  6
CONTINUOUS
370
25
 62
7
100
AcDbCircle
 10
-51.25
 20
11.1875
 30
0.0
 40
1.4
  0
LINE
  5
6D6
330
1F
100
AcDbEntity
  8
SK2
  6
CONTINUOUS
370
25
 62
7
100
AcDbLine
 10
-49.85
 20
9.787500000000001
 30
0.0
 11
-52.65
 21
12.5875
 31
0.0
  0
LINE
  5
6D7
330
1F
100
AcDbEntity
  8
2
  6
CONTINUOUS
370
25
 62
7
100
AcDbLine
 10
44.9080893
 20
-3.0
 30
0.0
 11
79.0
 21
-3.000000000000004
 31
0.0
  0
LINE
  5
6D8
330
1F
100
AcDbEntity
  8
2
  6
CONTINUOUS
370
25
 62
7
100
AcDbLine
 10
79.0
 20
2.999999999999996
 30
0.0
 11
44.9080893
 21
3.0
 31
0.0
  0
LINE
  5
6D9
330
1F
100
AcDbEntity
  8
2
  6
CONTINUOUS
370
25
 62
7
100
AcDbLine
 10
78.0
 20
-10.0
 30
0.0
 11
78.0
 21
16.475
 31
0.0
  0
LINE
  5
6DA
330
1F
100
AcDbEntity
  8
2
  6
CONTINUOUS
370
25
 62
7
100
AcDbLine
 10
78.0
 20
-3.000000000000004
 30
0.0
 11
79.0
 21
-8.000000000000004
 31
0.0
  0
LINE
  5
6DB
330
1F
100
AcDbEntity
  8
2
  6
CONTINUOUS
370
25
 62
7
100
AcDbLine
 10
79.0
 20
-8.000000000000004
 30
0.0
 11
77.0
 21
-8.000000000000004
 31
0.0
  0
LINE
  5
6DC
330
1F
100
AcDbEntity
  8
2
  6
CONTINUOUS
370
25
 62
7
100
AcDbLine
 10
77.0
 20
-8.000000000000004
 30
0.0
 11
78.0
 21
-3.000000000000004
 31
0.0
  0
LINE
  5
6DD
330
1F
100
AcDbEntity
  8
2
  6
CONTINUOUS
370
25
 62
7
100
AcDbLine
 10
78.70616409989529
 20
-8.0
 30
0.0
 11
78.95102734998255
 21
-7.755136749912737
 31
0.0
  0
LINE
  5
6DE
330
1F
100
AcDbEntity
  8
2
  6
CONTINUOUS
370
25
 62
7
100
AcDbLine
 10
78.28190003118337
 20
-8.0
 30
0.0
 11
78.8803166718639
 21
-7.401583359319474
 31
0.0
  0
LINE
  5
6DF
330
1F
100
AcDbEntity
  8
2
  6
CONTINUOUS
370
25
 62
7
100
AcDbLine
 10
77.85763596247143
 20
-8.0
 30
0.0
 11
78.80960599374524
 21
-7.048029968726198
 31
0.0
  0
LINE
  5
6E0
330
1F
100
AcDbEntity
  8
2
  6
CONTINUOUS
370
25
 62
7
100
AcDbLine
 10
77.43337189375951
 20
-8.0
 30
0.0
 11
78.73889531562658
 21
-6.694476578132935
 31
0.0
  0
LINE
  5
6E1
330
1F
100
AcDbEntity
  8
2
  6
CONTINUOUS
370
25
 62
7
100
AcDbLine
 10
77.0091078250476
 20
-8.0
 30
0.0
 11
78.66818463750793
 21
-6.340923187539659
 31
0.0
  0
LINE
  5
6E2
330
1F
100
AcDbEntity
  8
2
  6
CONTINUOUS
370
25
 62
7
100
AcDbLine
 10
77.10378906091609
 20
-7.481054695419587
 30
0.0
 11
78.59747395938928
 21
-5.987369796946396
 31
0.0
  0
LINE
  5
6E3
330
1F
100
AcDbEntity
  8
2
  6
CONTINUOUS
370
25
 62
7
100
AcDbLine
 10
77.20985507809407
 20
-6.950724609529672
 30
0.0
 11
78.52676328127063
 21
-5.633816406353105
 31
0.0
  0
LINE
  5
6E4
330
1F
100
AcDbEntity
  8
2
  6
CONTINUOUS
370
25
 62
7
100
AcDbLine
 10
77.31592109527206
 20
-6.420394523639757
 30
0.0
 11
78.45605260315197
 21
-5.280263015759843
 31
0.0
  0
LINE
  5
6E5
330
1F
100
AcDbEntity
  8
2
  6
CONTINUOUS
370
25
 62
7
100
AcDbLine
 10
77.42198711245003
 20
-5.890064437749871
 30
0.0
 11
78.38534192503333
 21
-4.926709625166566
 31
0.0
  0
LINE
  5
6E6
330
1F
100
AcDbEntity
  8
2
  6
CONTINUOUS
370
25
 62
7
100
AcDbLine
 10
77.52805312962802
 20
-5.359734351859956
 30
0.0
 11
78.31463124691466
 21
-4.573156234573318
 31
0.0
  0
LINE
  5
6E7
330
1F
100
AcDbEntity
  8
2
  6
CONTINUOUS
370
25
 62
7
100
AcDbLine
 10
77.634119146806
 20
-4.829404265970041
 30
0.0
 11
78.24392056879601
 21
-4.219602843980027
 31
0.0
  0
LINE
  5
6E8
330
1F
100
AcDbEntity
  8
2
  6
CONTINUOUS
370
25
 62
7
100
AcDbLine
 10
77.74018516398398
 20
-4.299074180080126
 30
0.0
 11
78.17320989067734
 21
-3.866049453386765
 31
0.0
  0
LINE
  5
6E9
330
1F
100
AcDbEntity
  8
2
  6
CONTINUOUS
370
25
 62
7
100
AcDbLine
 10
77.84625118116195
 20
-3.768744094190239
 30
0.0
 11
78.1024992125587
 21
-3.512496062793488
 31
0.0
  0
LINE
  5
6EA
330
1F
100
AcDbEntity
  8
2
  6
CONTINUOUS
370
25
 62
7
100
AcDbLine
 10
77.95231719833994
 20
-3.238414008300325
 30
0.0
 11
78.03178853444004
 21
-3.158942672200226
 31
0.0
  0
LINE
  5
6EB
330
1F
100
AcDbEntity
  8
2
  6
CONTINUOUS
370
25
 62
7
100
AcDbLine
 10
77.02584053334078
 20
-7.870797333296082
 30
0.0
 11
77.1550432000447
 21
-8.0
 31
0.0
  0
LINE
  5
6EC
330
1F
100
AcDbEntity
  8
2
  6
CONTINUOUS
370
25
 62
7
100
AcDbLine
 10
77.09655121145944
 20
-7.517243942702819
 30
0.0
 11
77.57930726875662
 21
-8.0
 31
0.0
  0
LINE
  5
6ED
330
1F
100
AcDbEntity
  8
2
  6
CONTINUOUS
370
25
 62
7
100
AcDbLine
 10
77.16726188957809
 20
-7.163690552109543
 30
0.0
 11
78.00357133746854
 21
-8.0
 31
0.0
  0
LINE
  5
6EE
330
1F
100
AcDbEntity
  8
2
  6
CONTINUOUS
370
25
 62
7
100
AcDbLine
 10
77.23797256769674
 20
-6.810137161516266
 30
0.0
 11
78.42783540618048
 21
-8.0
 31
0.0
  0
LINE
  5
6EF
330
1F
100
AcDbEntity
  8
2
  6
CONTINUOUS
370
25
 62
7
100
AcDbLine
 10
77.3086832458154
 20
-6.456583770923004
 30
0.0
 11
78.8520994748924
 21
-8.0
 31
0.0
  0
LINE
  5
6F0
330
1F
100
AcDbEntity
  8
2
  6
CONTINUOUS
370
25
 62
7
100
AcDbLine
 10
77.37939392393405
 20
-6.103030380329727
 30
0.0
 11
78.93090911409892
 21
-7.654545570494605
 31
0.0
  0
LINE
  5
6F1
330
1F
100
AcDbEntity
  8
2
  6
CONTINUOUS
370
25
 62
7
100
AcDbLine
 10
77.4501046020527
 20
-5.749476989736451
 30
0.0
 11
78.82484309692094
 21
-7.12421548460469
 31
0.0
  0
LINE
  5
6F2
330
1F
100
AcDbEntity
  8
2
  6
CONTINUOUS
370
25
 62
7
100
AcDbLine
 10
77.52081528017136
 20
-5.395923599143188
 30
0.0
 11
78.71877707974296
 21
-6.593885398714789
 31
0.0
  0
LINE
  5
6F3
330
1F
100
AcDbEntity
  8
2
  6
CONTINUOUS
370
25
 62
7
100
AcDbLine
 10
77.59152595829
 20
-5.042370208549912
 30
0.0
 11
78.61271106256498
 21
-6.063555312824889
 31
0.0
  0
LINE
  5
6F4
330
1F
100
AcDbEntity
  8
2
  6
CONTINUOUS
370
25
 62
7
100
AcDbLine
 10
77.66223663640866
 20
-4.688816817956649
 30
0.0
 11
78.506645045387
 21
-5.533225226934988
 31
0.0
  0
LINE
  5
6F5
330
1F
100
AcDbEntity
  8
2
  6
CONTINUOUS
370
25
 62
7
100
AcDbLine
 10
77.73294731452732
 20
-4.335263427363373
 30
0.0
 11
78.40057902820902
 21
-5.002895141045073
 31
0.0
  0
LINE
  5
6F6
330
1F
100
AcDbEntity
  8
2
  6
CONTINUOUS
370
25
 62
7
100
AcDbLine
 10
77.80365799264598
 20
-3.98171003677011
 30
0.0
 11
78.29451301103103
 21
-4.472565055155158
 31
0.0
  0
LINE
  5
6F7
330
1F
100
AcDbEntity
  8
2
  6
CONTINUOUS
370
25
 62
7
100
AcDbLine
 10
77.87436867076464
 20
-3.628156646176848
 30
0.0
 11
78.18844699385305
 21
-3.942234969265257
 31
0.0
  0
LINE
  5
6F8
330
1F
100
AcDbEntity
  8
2
  6
CONTINUOUS
370
25
 62
7
100
AcDbLine
 10
77.94507934888328
 20
-3.274603255583557
 30
0.0
 11
78.08238097667507
 21
-3.411904883375342
 31
0.0
  0
LINE
  5
6F9
330
1F
100
AcDbEntity
  8
2
  6
CONTINUOUS
370
25
 62
7
100
AcDbLine
 10
78.0
 20
2.999999999999996
 30
0.0
 11
77.0
 21
7.999999999999996
 31
0.0
  0
LINE
  5
6FA
330
1F
100
AcDbEntity
  8
2
  6
CONTINUOUS
370
25
 62
7
100
AcDbLine
 10
77.0
 20
7.999999999999996
 30
0.0
 11
79.0
 21
7.999999999999996
 31
0.0
  0
LINE
  5
6FB
330
1F
100
AcDbEntity
  8
2
  6
CONTINUOUS
370
25
 62
7
100
AcDbLine
 10
79.0
 20
7.999999999999996
 30
0.0
 11
78.0
 21
2.999999999999996
 31
0.0
  0
LINE
  5
6FC
330
1F
100
AcDbEntity
  8
2
  6
CONTINUOUS
370
25
 62
7
100
AcDbLine
 10
77.98141695816359
 20
3.092915209182067
 30
0.0
 11
78.02787456275462
 21
3.139372813773093
 31
0.0
  0
LINE
  5
6FD
330
1F
100
AcDbEntity
  8
2
  6
CONTINUOUS
370
25
 62
7
100
AcDbLine
 10
77.91070628004492
 20
3.446468599775329
 30
0.0
 11
78.13394057993261
 21
3.669702899663022
 31
0.0
  0
LINE
  5
6FE
330
1F
100
AcDbEntity
  8
2
  6
CONTINUOUS
370
25
 62
7
100
AcDbLine
 10
77.83999560192628
 20
3.800021990368606
 30
0.0
 11
78.24000659711058
 21
4.200032985552909
 31
0.0
  0
LINE
  5
6FF
330
1F
100
AcDbEntity
  8
2
  6
CONTINUOUS
370
25
 62
7
100
AcDbLine
 10
77.76928492380762
 20
4.153575380961868
 30
0.0
 11
78.34607261428857
 21
4.730363071442824
 31
0.0
  0
LINE
  5
700
330
1F
100
AcDbEntity
  8
2
  6
CONTINUOUS
370
25
 62
7
100
AcDbLine
 10
77.69857424568896
 20
4.507128771555145
 30
0.0
 11
78.45213863146655
 21
5.260693157332739
 31
0.0
  0
LINE
  5
701
330
1F
100
AcDbEntity
  8
2
  6
CONTINUOUS
370
25
 62
7
100
AcDbLine
 10
77.62786356757032
 20
4.860682162148422
 30
0.0
 11
78.55820464864453
 21
5.791023243222639
 31
0.0
  0
LINE
  5
702
330
1F
100
AcDbEntity
  8
2
  6
CONTINUOUS
370
25
 62
7
100
AcDbLine
 10
77.55715288945166
 20
5.214235552741684
 30
0.0
 11
78.66427066582251
 21
6.32135332911254
 31
0.0
  0
LINE
  5
703
330
1F
100
AcDbEntity
  8
2
  6
CONTINUOUS
370
25
 62
7
100
AcDbLine
 10
77.486442211333
 20
5.567788943334946
 30
0.0
 11
78.7703366830005
 21
6.851683415002441
 31
0.0
  0
LINE
  5
704
330
1F
100
AcDbEntity
  8
2
  6
CONTINUOUS
370
25
 62
7
100
AcDbLine
 10
77.41573153321436
 20
5.921342333928237
 30
0.0
 11
78.87640270017847
 21
7.382013500892356
 31
0.0
  0
LINE
  5
705
330
1F
100
AcDbEntity
  8
2
  6
CONTINUOUS
370
25
 62
7
100
AcDbLine
 10
77.34502085509571
 20
6.274895724521514
 30
0.0
 11
78.98246871735644
 21
7.912343586782242
 31
0.0
  0
LINE
  5
706
330
1F
100
AcDbEntity
  8
2
  6
CONTINUOUS
370
25
 62
7
100
AcDbLine
 10
77.27431017697704
 20
6.628449115114762
 30
0.0
 11
78.64586106186228
 21
8.0
 31
0.0
  0
LINE
  5
707
330
1F
100
AcDbEntity
  8
2
  6
CONTINUOUS
370
25
 62
7
100
AcDbLine
 10
77.2035994988584
 20
6.982002505708053
 30
0.0
 11
78.22159699315034
 21
8.0
 31
0.0
  0
LINE
  5
708
330
1F
100
AcDbEntity
  8
2
  6
CONTINUOUS
370
25
 62
7
100
AcDbLine
 10
77.13288882073974
 20
7.335555896301315
 30
0.0
 11
77.79733292443842
 21
8.0
 31
0.0
  0
LINE
  5
709
330
1F
100
AcDbEntity
  8
2
  6
CONTINUOUS
370
25
 62
7
100
AcDbLine
 10
77.06217814262108
 20
7.689109286894578
 30
0.0
 11
77.3730688557265
 21
8.0
 31
0.0
  0
LINE
  5
70A
330
1F
100
AcDbEntity
  8
2
  6
CONTINUOUS
370
25
 62
7
100
AcDbLine
 10
77.99139071900534
 20
3.043046404973296
 30
0.0
 11
78.00573952066311
 21
3.028697603315521
 31
0.0
  0
LINE
  5
70B
330
1F
100
AcDbEntity
  8
2
  6
CONTINUOUS
370
25
 62
7
100
AcDbLine
 10
77.88532470182736
 20
3.573376490863197
 30
0.0
 11
78.07645019878176
 21
3.382250993908798
 31
0.0
  0
LINE
  5
70C
330
1F
100
AcDbEntity
  8
2
  6
CONTINUOUS
370
25
 62
7
100
AcDbLine
 10
77.77925868464938
 20
4.103706576753098
 30
0.0
 11
78.14716087690041
 21
3.73580438450206
 31
0.0
  0
LINE
  5
70D
330
1F
100
AcDbEntity
  8
2
  6
CONTINUOUS
370
25
 62
7
100
AcDbLine
 10
77.6731926674714
 20
4.634036662643013
 30
0.0
 11
78.21787155501907
 21
4.089357775095337
 31
0.0
  0
LINE
  5
70E
330
1F
100
AcDbEntity
  8
2
  6
CONTINUOUS
370
25
 62
7
100
AcDbLine
 10
77.56712665029342
 20
5.164366748532913
 30
0.0
 11
78.28858223313772
 21
4.442911165688614
 31
0.0
  0
LINE
  5
70F
330
1F
100
AcDbEntity
  8
2
  6
CONTINUOUS
370
25
 62
7
100
AcDbLine
 10
77.46106063311544
 20
5.694696834422814
 30
0.0
 11
78.35929291125638
 21
4.79646455628189
 31
0.0
  0
LINE
  5
710
330
1F
100
AcDbEntity
  8
2
  6
CONTINUOUS
370
25
 62
7
100
AcDbLine
 10
77.35499461593746
 20
6.225026920312715
 30
0.0
 11
78.43000358937503
 21
5.150017946875153
 31
0.0
  0
LINE
  5
711
330
1F
100
AcDbEntity
  8
2
  6
CONTINUOUS
370
25
 62
7
100
AcDbLine
 10
77.24892859875948
 20
6.75535700620263
 30
0.0
 11
78.50071426749368
 21
5.503571337468443
 31
0.0
  0
LINE
  5
712
330
1F
100
AcDbEntity
  8
2
  6
CONTINUOUS
370
25
 62
7
100
AcDbLine
 10
77.1428625815815
 20
7.28568709209253
 30
0.0
 11
78.57142494561234
 21
5.857124728061692
 31
0.0
  0
LINE
  5
713
330
1F
100
AcDbEntity
  8
2
  6
CONTINUOUS
370
25
 62
7
100
AcDbLine
 10
77.03679656440352
 20
7.816017177982431
 30
0.0
 11
78.642135623731
 21
6.210678118654954
 31
0.0
  0
LINE
  5
714
330
1F
100
AcDbEntity
  8
2
  6
CONTINUOUS
370
25
 62
7
100
AcDbLine
 10
77.27707781109787
 20
8.0
 30
0.0
 11
78.71284630184964
 21
6.564231509248231
 31
0.0
  0
LINE
  5
715
330
1F
100
AcDbEntity
  8
2
  6
CONTINUOUS
370
25
 62
7
100
AcDbLine
 10
77.7013418798098
 20
8.0
 30
0.0
 11
78.7835569799683
 21
6.917784899841507
 31
0.0
  0
LINE
  5
716
330
1F
100
AcDbEntity
  8
2
  6
CONTINUOUS
370
25
 62
7
100
AcDbLine
 10
78.12560594852172
 20
8.0
 30
0.0
 11
78.85426765808697
 21
7.271338290434755
 31
0.0
  0
LINE
  5
717
330
1F
100
AcDbEntity
  8
2
  6
CONTINUOUS
370
25
 62
7
100
AcDbLine
 10
78.54987001723364
 20
8.0
 30
0.0
 11
78.92497833620561
 21
7.624891681028032
 31
0.0
  0
LINE
  5
718
330
1F
100
AcDbEntity
  8
2
  6
CONTINUOUS
370
25
 62
7
100
AcDbLine
 10
78.97413408594556
 20
8.0
 30
0.0
 11
78.99568901432427
 21
7.978445071621294
 31
0.0
  0
TEXT
  5
719
330
1F
100
AcDbEntity
  8
2
  6
CONTINUOUS
370
25
 62
7
100
AcDbText
 10
76.5
 20
13.34583333333333
 30
0.0
 40
3.5
  1
6
 50
90.00000000000001
 72
     1
 11
76.5
 21
14.5125
 31
0.0
100
AcDbText
  0
CIRCLE
  5
71A
330
1F
100
AcDbEntity
  8
2
  6
CONTINUOUS
370
25
 62
7
100
AcDbCircle
 10
74.75
 20
11.1875
 30
0.0
 40
1.4
  0
LINE
  5
71B
330
1F
100
AcDbEntity
  8
2
  6
CONTINUOUS
370
25
 62
7
100
AcDbLine
 10
76.15
 20
9.787499999999998
 30
0.0
 11
73.35
 21
12.5875
 31
0.0
  0
LINE
  5
71C
330
1F
100
AcDbEntity
  8
2
  6
CONTINUOUS
370
25
 62
7
100
AcDbLine
 10
0.0
 20
3.0
 30
0.0
 11
0.0000000000000014
 21
26.0
 31
0.0
  0
LINE
  5
71D
330
1F
100
AcDbEntity
  8
2
  6
CONTINUOUS
370
25
 62
7
100
AcDbLine
 10
46.0
 20
26.0
 30
0.0
 11
46.0
 21
0.0
 31
0.0
  0
LINE
  5
71E
330
1F
100
AcDbEntity
  8
2
  6
CONTINUOUS
370
25
 62
7
100
AcDbLine
 10
0.0
 20
25.0
 30
0.0
 11
46.0
 21
25.0
 31
0.0
  0
LINE
  5
71F
330
1F
100
AcDbEntity
  8
2
  6
CONTINUOUS
370
25
 62
7
100
AcDbLine
 10
0.0
 20
25.0
 30
0.0
 11
5.0
 21
26.0
 31
0.0
  0
LINE
  5
720
330
1F
100
AcDbEntity
  8
2
  6
CONTINUOUS
370
25
 62
7
100
AcDbLine
 10
5.0
 20
26.0
 30
0.0
 11
5.0
 21
24.0
 31
0.0
  0
LINE
  5
721
330
1F
100
AcDbEntity
  8
2
  6
CONTINUOUS
370
25
 62
7
100
AcDbLine
 10
5.0
 20
24.0
 30
0.0
 11
0.0
 21
25.0
 31
0.0
  0
LINE
  5
722
330
1F
100
AcDbEntity
  8
2
  6
CONTINUOUS
370
25
 62
7
100
AcDbLine
 10
4.923430756636047
 20
24.01531384867279
 30
0.0
 11
5.0
 21
24.09188309203675
 31
0.0
  0
LINE
  5
723
330
1F
100
AcDbEntity
  8
2
  6
CONTINUOUS
370
25
 62
7
100
AcDbLine
 10
4.569877366042773
 20
24.08602452679144
 30
0.0
 11
5.0
 21
24.51614716074867
 31
0.0
  0
LINE
  5
724
330
1F
100
AcDbEntity
  8
2
  6
CONTINUOUS
370
25
 62
7
100
AcDbLine
 10
4.2163239754495
 20
24.1567352049101
 30
0.0
 11
5.0
 21
24.9404112294606
 31
0.0
  0
LINE
  5
725
330
1F
100
AcDbEntity
  8
2
  6
CONTINUOUS
370
25
 62
7
100
AcDbLine
 10
3.862770584856227
 20
24.22744588302875
 30
0.0
 11
5.0
 21
25.36467529817253
 31
0.0
  0
LINE
  5
726
330
1F
100
AcDbEntity
  8
2
  6
CONTINUOUS
370
25
 62
7
100
AcDbLine
 10
3.509217194262954
 20
24.29815656114741
 30
0.0
 11
5.0
 21
25.78893936688446
 31
0.0
  0
LINE
  5
727
330
1F
100
AcDbEntity
  8
2
  6
CONTINUOUS
370
25
 62
7
100
AcDbLine
 10
3.155663803669681
 20
24.36886723926606
 30
0.0
 11
4.733495705504523
 21
25.9466991411009
 31
0.0
  0
LINE
  5
728
330
1F
100
AcDbEntity
  8
2
  6
CONTINUOUS
370
25
 62
7
100
AcDbLine
 10
2.802110413076408
 20
24.43957791738472
 30
0.0
 11
4.203165619614614
 21
25.84063312392292
 31
0.0
  0
LINE
  5
729
330
1F
100
AcDbEntity
  8
2
  6
CONTINUOUS
370
25
 62
7
100
AcDbLine
 10
2.448557022483135
 20
24.51028859550337
 30
0.0
 11
3.672835533724704
 21
25.73456710674494
 31
0.0
  0
LINE
  5
72A
330
1F
100
AcDbEntity
  8
2
  6
CONTINUOUS
370
25
 62
7
100
AcDbLine
 10
2.095003631889862
 20
24.58099927362203
 30
0.0
 11
3.142505447834794
 21
25.62850108956696
 31
0.0
  0
LINE
  5
72B
330
1F
100
AcDbEntity
  8
2
  6
CONTINUOUS
370
25
 62
7
100
AcDbLine
 10
1.741450241296589
 20
24.65170995174068
 30
0.0
 11
2.612175361944884
 21
25.52243507238898
 31
0.0
  0
LINE
  5
72C
330
1F
100
AcDbEntity
  8
2
  6
CONTINUOUS
370
25
 62
7
100
AcDbLine
 10
1.387896850703316
 20
24.72242062985934
 30
0.0
 11
2.081845276054974
 21
25.416369055211
 31
0.0
  0
LINE
  5
72D
330
1F
100
AcDbEntity
  8
2
  6
CONTINUOUS
370
25
 62
7
100
AcDbLine
 10
1.034343460110042
 20
24.79313130797799
 30
0.0
 11
1.551515190165064
 21
25.31030303803301
 31
0.0
  0
LINE
  5
72E
330
1F
100
AcDbEntity
  8
2
  6
CONTINUOUS
370
25
 62
7
100
AcDbLine
 10
0.680790069516769
 20
24.86384198609665
 30
0.0
 11
1.021185104275154
 21
25.20423702085503
 31
0.0
  0
LINE
  5
72F
330
1F
100
AcDbEntity
  8
2
  6
CONTINUOUS
370
25
 62
7
100
AcDbLine
 10
0.3272366789234958
 20
24.9345526642153
 30
0.0
 11
0.4908550183852439
 21
25.09817100367705
 31
0.0
  0
LINE
  5
730
330
1F
100
AcDbEntity
  8
2
  6
CONTINUOUS
370
25
 62
7
100
AcDbLine
 10
0.0263167116697864
 20
25.00526334233396
 30
0.0
 11
0.0394750675046796
 21
24.99210498649906
 31
0.0
  0
LINE
  5
731
330
1F
100
AcDbEntity
  8
2
  6
CONTINUOUS
370
25
 62
7
100
AcDbLine
 10
0.3798701022630599
 20
25.07597402045261
 30
0.0
 11
0.56980515339459
 21
24.88603896932108
 31
0.0
  0
LINE
  5
732
330
1F
100
AcDbEntity
  8
2
  6
CONTINUOUS
370
25
 62
7
100
AcDbLine
 10
0.7334234928563332
 20
25.14668469857127
 30
0.0
 11
1.1001352392845
 21
24.7799729521431
 31
0.0
  0
LINE
  5
733
330
1F
100
AcDbEntity
  8
2
  6
CONTINUOUS
370
25
 62
7
100
AcDbLine
 10
1.086976883449607
 20
25.21739537668992
 30
0.0
 11
1.630465325174411
 21
24.67390693496512
 31
0.0
  0
LINE
  5
734
330
1F
100
AcDbEntity
  8
2
  6
CONTINUOUS
370
25
 62
7
100
AcDbLine
 10
1.44053027404288
 20
25.28810605480858
 30
0.0
 11
2.160795411064321
 21
24.56784091778714
 31
0.0
  0
LINE
  5
735
330
1F
100
AcDbEntity
  8
2
  6
CONTINUOUS
370
25
 62
7
100
AcDbLine
 10
1.794083664636153
 20
25.35881673292723
 30
0.0
 11
2.691125496954231
 21
24.46177490060915
 31
0.0
  0
LINE
  5
736
330
1F
100
AcDbEntity
  8
2
  6
CONTINUOUS
370
25
 62
7
100
AcDbLine
 10
2.147637055229427
 20
25.42952741104589
 30
0.0
 11
3.221455582844142
 21
24.35570888343117
 31
0.0
  0
LINE
  5
737
330
1F
100
AcDbEntity
  8
2
  6
CONTINUOUS
370
25
 62
7
100
AcDbLine
 10
2.5011904458227
 20
25.50023808916454
 30
0.0
 11
3.751785668734052
 21
24.24964286625319
 31
0.0
  0
LINE
  5
738
330
1F
100
AcDbEntity
  8
2
  6
CONTINUOUS
370
25
 62
7
100
AcDbLine
 10
2.854743836415973
 20
25.57094876728319
 30
0.0
 11
4.282115754623962
 21
24.14357684907521
 31
0.0
  0
LINE
  5
739
330
1F
100
AcDbEntity
  8
2
  6
CONTINUOUS
370
25
 62
7
100
AcDbLine
 10
3.208297227009246
 20
25.64165944540185
 30
0.0
 11
4.812445840513872
 21
24.03751083189723
 31
0.0
  0
LINE
  5
73A
330
1F
100
AcDbEntity
  8
2
  6
CONTINUOUS
370
25
 62
7
100
AcDbLine
 10
3.56185061760252
 20
25.7123701235205
 30
0.0
 11
5.0
 21
24.27422074112302
 31
0.0
  0
LINE
  5
73B
330
1F
100
AcDbEntity
  8
2
  6
CONTINUOUS
370
25
 62
7
100
AcDbLine
 10
3.915404008195793
 20
25.78308080163916
 30
0.0
 11
5.0
 21
24.69848480983495
 31
0.0
  0
LINE
  5
73C
330
1F
100
AcDbEntity
  8
2
  6
CONTINUOUS
370
25
 62
7
100
AcDbLine
 10
4.268957398789066
 20
25.85379147975781
 30
0.0
 11
5.0
 21
25.12274887854688
 31
0.0
  0
LINE
  5
73D
330
1F
100
AcDbEntity
  8
2
  6
CONTINUOUS
370
25
 62
7
100
AcDbLine
 10
4.62251078938234
 20
25.92450215787647
 30
0.0
 11
5.0
 21
25.54701294725881
 31
0.0
  0
LINE
  5
73E
330
1F
100
AcDbEntity
  8
2
  6
CONTINUOUS
370
25
 62
7
100
AcDbLine
 10
4.976064179975612
 20
25.99521283599512
 30
0.0
 11
5.0
 21
25.97127701597073
 31
0.0
  0
LINE
  5
73F
330
1F
100
AcDbEntity
  8
2
  6
CONTINUOUS
370
25
 62
7
100
AcDbLine
 10
46.0
 20
25.0
 30
0.0
 11
41.0
 21
24.0
 31
0.0
  0
LINE
  5
740
330
1F
100
AcDbEntity
  8
2
  6
CONTINUOUS
370
25
 62
7
100
AcDbLine
 10
41.0
 20
24.0
 30
0.0
 11
41.0
 21
26.0
 31
0.0
  0
LINE
  5
741
330
1F
100
AcDbEntity
  8
2
  6
CONTINUOUS
370
25
 62
7
100
AcDbLine
 10
41.0
 20
26.0
 30
0.0
 11
46.0
 21
25.0
 31
0.0
  0
LINE
  5
742
330
1F
100
AcDbEntity
  8
2
  6
CONTINUOUS
370
25
 62
7
100
AcDbLine
 10
45.71254809424592
 20
24.94250961884918
 30
0.0
 11
45.80836539616395
 21
25.03832692076721
 31
0.0
  0
LINE
  5
743
330
1F
100
AcDbEntity
  8
2
  6
CONTINUOUS
370
25
 62
7
100
AcDbLine
 10
45.18221800835601
 20
24.8364436016712
 30
0.0
 11
45.45481200557068
 21
25.10903759888587
 31
0.0
  0
LINE
  5
744
330
1F
100
AcDbEntity
  8
2
  6
CONTINUOUS
370
25
 62
7
100
AcDbLine
 10
44.65188792246609
 20
24.73037758449321
 30
0.0
 11
45.1012586149774
 21
25.17974827700453
 31
0.0
  0
LINE
  5
745
330
1F
100
AcDbEntity
  8
2
  6
CONTINUOUS
370
25
 62
7
100
AcDbLine
 10
44.12155783657618
 20
24.62431156731524
 30
0.0
 11
44.74770522438412
 21
25.25045895512318
 31
0.0
  0
LINE
  5
746
330
1F
100
AcDbEntity
  8
2
  6
CONTINUOUS
370
25
 62
7
100
AcDbLine
 10
43.59122775068626
 20
24.51824555013724
 30
0.0
 11
44.39415183379085
 21
25.32116963324184
 31
0.0
  0
LINE
  5
747
330
1F
100
AcDbEntity
  8
2
  6
CONTINUOUS
370
25
 62
7
100
AcDbLine
 10
43.06089766479635
 20
24.41217953295927
 30
0.0
 11
44.04059844319757
 21
25.39188031136049
 31
0.0
  0
LINE
  5
748
330
1F
100
AcDbEntity
  8
2
  6
CONTINUOUS
370
25
 62
7
100
AcDbLine
 10
42.53056757890644
 20
24.30611351578128
 30
0.0
 11
43.6870450526043
 21
25.46259098947915
 31
0.0
  0
LINE
  5
749
330
1F
100
AcDbEntity
  8
2
  6
CONTINUOUS
370
25
 62
7
100
AcDbLine
 10
42.00023749301652
 20
24.2000474986033
 30
0.0
 11
43.33349166201102
 21
25.5333016675978
 31
0.0
  0
LINE
  5
74A
330
1F
100
AcDbEntity
  8
2
  6
CONTINUOUS
370
25
 62
7
100
AcDbLine
 10
41.46990740712661
 20
24.09398148142532
 30
0.0
 11
42.97993827141774
 21
25.60401234571646
 31
0.0
  0
LINE
  5
74B
330
1F
100
AcDbEntity
  8
2
  6
CONTINUOUS
370
25
 62
7
100
AcDbLine
 10
41.0
 20
24.04833814301064
 30
0.0
 11
42.62638488082447
 21
25.67472302383512
 31
0.0
  0
LINE
  5
74C
330
1F
100
AcDbEntity
  8
2
  6
CONTINUOUS
370
25
 62
7
100
AcDbLine
 10
41.0
 20
24.47260221172257
 30
0.0
 11
42.27283149023119
 21
25.74543370195376
 31
0.0
  0
LINE
  5
74D
330
1F
100
AcDbEntity
  8
2
  6
CONTINUOUS
370
25
 62
7
100
AcDbLine
 10
41.0
 20
24.89686628043451
 30
0.0
 11
41.91927809963791
 21
25.81614438007242
 31
0.0
  0
LINE
  5
74E
330
1F
100
AcDbEntity
  8
2
  6
CONTINUOUS
370
25
 62
7
100
AcDbLine
 10
41.0
 20
25.32113034914644
 30
0.0
 11
41.56572470904464
 21
25.88685505819107
 31
0.0
  0
LINE
  5
74F
330
1F
100
AcDbEntity
  8
2
  6
CONTINUOUS
370
25
 62
7
100
AcDbLine
 10
41.0
 20
25.74539441785837
 30
0.0
 11
41.21217131845137
 21
25.95756573630974
 31
0.0
  0
LINE
  5
750
330
1F
100
AcDbEntity
  8
2
  6
CONTINUOUS
370
25
 62
7
100
AcDbLine
 10
41.0
 20
24.33666658163699
 30
0.0
 11
41.28055548469749
 21
24.0561110969395
 31
0.0
  0
LINE
  5
751
330
1F
100
AcDbEntity
  8
2
  6
CONTINUOUS
370
25
 62
7
100
AcDbLine
 10
41.0
 20
24.76093065034893
 30
0.0
 11
41.63410887529077
 21
24.12682177505816
 31
0.0
  0
LINE
  5
752
330
1F
100
AcDbEntity
  8
2
  6
CONTINUOUS
370
25
 62
7
100
AcDbLine
 10
41.0
 20
25.18519471906086
 30
0.0
 11
41.98766226588405
 21
24.19753245317681
 31
0.0
  0
LINE
  5
753
330
1F
100
AcDbEntity
  8
2
  6
CONTINUOUS
370
25
 62
7
100
AcDbLine
 10
41.0
 20
25.60945878777278
 30
0.0
 11
42.34121565647732
 21
24.26824313129546
 31
0.0
  0
LINE
  5
754
330
1F
100
AcDbEntity
  8
2
  6
CONTINUOUS
370
25
 62
7
100
AcDbLine
 10
41.0421535706059
 20
25.99156928587882
 30
0.0
 11
42.6947690470706
 21
24.33895380941412
 31
0.0
  0
LINE
  5
755
330
1F
100
AcDbEntity
  8
2
  6
CONTINUOUS
370
25
 62
7
100
AcDbLine
 10
41.57248365649582
 20
25.88550326870084
 30
0.0
 11
43.04832243766388
 21
24.40966448753278
 31
0.0
  0
LINE
  5
756
330
1F
100
AcDbEntity
  8
2
  6
CONTINUOUS
370
25
 62
7
100
AcDbLine
 10
42.10281374238572
 20
25.77943725152286
 30
0.0
 11
43.40187582825715
 21
24.48037516565143
 31
0.0
  0
LINE
  5
757
330
1F
100
AcDbEntity
  8
2
  6
CONTINUOUS
370
25
 62
7
100
AcDbLine
 10
42.63314382827564
 20
25.67337123434488
 30
0.0
 11
43.75542921885042
 21
24.55108584377009
 31
0.0
  0
LINE
  5
758
330
1F
100
AcDbEntity
  8
2
  6
CONTINUOUS
370
25
 62
7
100
AcDbLine
 10
43.16347391416556
 20
25.56730521716689
 30
0.0
 11
44.10898260944371
 21
24.62179652188874
 31
0.0
  0
LINE
  5
759
330
1F
100
AcDbEntity
  8
2
  6
CONTINUOUS
370
25
 62
7
100
AcDbLine
 10
43.69380400005547
 20
25.46123919998891
 30
0.0
 11
44.46253600003698
 21
24.6925072000074
 31
0.0
  0
LINE
  5
75A
330
1F
100
AcDbEntity
  8
2
  6
CONTINUOUS
370
25
 62
7
100
AcDbLine
 10
44.22413408594539
 20
25.35517318281092
 30
0.0
 11
44.81608939063026
 21
24.76321787812606
 31
0.0
  0
LINE
  5
75B
330
1F
100
AcDbEntity
  8
2
  6
CONTINUOUS
370
25
 62
7
100
AcDbLine
 10
44.75446417183529
 20
25.24910716563294
 30
0.0
 11
45.16964278122353
 21
24.83392855624471
 31
0.0
  0
LINE
  5
75C
330
1F
100
AcDbEntity
  8
2
  6
CONTINUOUS
370
25
 62
7
100
AcDbLine
 10
45.28479425772522
 20
25.14304114845496
 30
0.0
 11
45.52319617181681
 21
24.90463923436337
 31
0.0
  0
LINE
  5
75D
330
1F
100
AcDbEntity
  8
2
  6
CONTINUOUS
370
25
 62
7
100
AcDbLine
 10
45.81512434361513
 20
25.03697513127698
 30
0.0
 11
45.87674956241009
 21
24.97534991248202
 31
0.0
  0
TEXT
  5
75E
330
1F
100
AcDbEntity
  8
2
  6
CONTINUOUS
370
25
 62
7
100
AcDbText
 10
20.08333333333333
 20
26.5
 30
0.0
 40
3.5
  1
46
 72
     1
 11
23.0
 21
26.5
 31
0.0
100
AcDbText
  0
LINE
  5
75F
330
1F
100
AcDbEntity
  8
2
  6
CONTINUOUS
370
25
 62
7
100
AcDbLine
 10
16.0
 20
-3.0
 30
0.0
 11
16.0
 21
-36.0
 31
0.0
  0
LINE
  5
760
330
1F
100
AcDbEntity
  8
2
  6
CONTINUOUS
370
25
 62
7
100
AcDbLine
 10
46.0
 20
-36.0
 30
0.0
 11
46.0
 21
0.0
 31
0.0
  0
LINE
  5
761
330
1F
100
AcDbEntity
  8
2
  6
CONTINUOUS
370
25
 62
7
100
AcDbLine
 10
16.0
 20
-35.0
 30
0.0
 11
46.0
 21
-35.0
 31
0.0
  0
LINE
  5
762
330
1F
100
AcDbEntity
  8
2
  6
CONTINUOUS
370
25
 62
7
100
AcDbLine
 10
16.0
 20
-35.0
 30
0.0
 11
21.0
 21
-34.0
 31
0.0
  0
LINE
  5
763
330
1F
100
AcDbEntity
  8
2
  6
CONTINUOUS
370
25
 62
7
100
AcDbLine
 10
21.0
 20
-34.0
 30
0.0
 11
21.0
 21
-36.0
 31
0.0
  0
LINE
  5
764
330
1F
100
AcDbEntity
  8
2
  6
CONTINUOUS
370
25
 62
7
100
AcDbLine
 10
21.0
 20
-36.0
 30
0.0
 11
16.0
 21
-35.0
 31
0.0
  0
LINE
  5
765
330
1F
100
AcDbEntity
  8
2
  6
CONTINUOUS
370
25
 62
7
100
AcDbLine
 10
20.85742748203539
 20
-35.97148549640708
 30
0.0
 11
21.0
 21
-35.82891297844246
 31
0.0
  0
LINE
  5
766
330
1F
100
AcDbEntity
  8
2
  6
CONTINUOUS
370
25
 62
7
100
AcDbLine
 10
20.50387409144211
 20
-35.90077481828843
 30
0.0
 11
21.0
 21
-35.40464890973054
 31
0.0
  0
LINE
  5
767
330
1F
100
AcDbEntity
  8
2
  6
CONTINUOUS
370
25
 62
7
100
AcDbLine
 10
20.15032070084883
 20
-35.83006414016977
 30
0.0
 11
21.0
 21
-34.9803848410186
 31
0.0
  0
LINE
  5
768
330
1F
100
AcDbEntity
  8
2
  6
CONTINUOUS
370
25
 62
7
100
AcDbLine
 10
19.79676731025556
 20
-35.75935346205111
 30
0.0
 11
21.0
 21
-34.55612077230667
 31
0.0
  0
LINE
  5
769
330
1F
100
AcDbEntity
  8
2
  6
CONTINUOUS
370
25
 62
7
100
AcDbLine
 10
19.44321391966229
 20
-35.68864278393245
 30
0.0
 11
21.0
 21
-34.13185670359475
 31
0.0
  0
LINE
  5
76A
330
1F
100
AcDbEntity
  8
2
  6
CONTINUOUS
370
25
 62
7
100
AcDbLine
 10
19.08966052906901
 20
-35.6179321058138
 30
0.0
 11
20.63449079360352
 21
-34.07310184127929
 31
0.0
  0
LINE
  5
76B
330
1F
100
AcDbEntity
  8
2
  6
CONTINUOUS
370
25
 62
7
100
AcDbLine
 10
18.73610713847573
 20
-35.54722142769515
 30
0.0
 11
20.10416070771361
 21
-34.17916785845728
 31
0.0
  0
LINE
  5
76C
330
1F
100
AcDbEntity
  8
2
  6
CONTINUOUS
370
25
 62
7
100
AcDbLine
 10
18.38255374788246
 20
-35.47651074957649
 30
0.0
 11
19.5738306218237
 21
-34.28523387563526
 31
0.0
  0
LINE
  5
76D
330
1F
100
AcDbEntity
  8
2
  6
CONTINUOUS
370
25
 62
7
100
AcDbLine
 10
18.02900035728919
 20
-35.40580007145783
 30
0.0
 11
19.04350053593379
 21
-34.39129989281324
 31
0.0
  0
LINE
  5
76E
330
1F
100
AcDbEntity
  8
2
  6
CONTINUOUS
370
25
 62
7
100
AcDbLine
 10
17.67544696669591
 20
-35.33508939333918
 30
0.0
 11
18.51317045004388
 21
-34.49736590999122
 31
0.0
  0
LINE
  5
76F
330
1F
100
AcDbEntity
  8
2
  6
CONTINUOUS
370
25
 62
7
100
AcDbLine
 10
17.32189357610264
 20
-35.26437871522053
 30
0.0
 11
17.98284036415397
 21
-34.6034319271692
 31
0.0
  0
LINE
  5
770
330
1F
100
AcDbEntity
  8
2
  6
CONTINUOUS
370
25
 62
7
100
AcDbLine
 10
16.96834018550936
 20
-35.19366803710187
 30
0.0
 11
17.45251027826405
 21
-34.70949794434719
 31
0.0
  0
LINE
  5
771
330
1F
100
AcDbEntity
  8
2
  6
CONTINUOUS
370
25
 62
7
100
AcDbLine
 10
16.61478679491609
 20
-35.12295735898321
 30
0.0
 11
16.92218019237414
 21
-34.81556396152517
 31
0.0
  0
LINE
  5
772
330
1F
100
AcDbEntity
  8
2
  6
CONTINUOUS
370
25
 62
7
100
AcDbLine
 10
16.26123340432281
 20
-35.05224668086456
 30
0.0
 11
16.39185010648422
 21
-34.92162997870315
 31
0.0
  0
LINE
  5
773
330
1F
100
AcDbEntity
  8
2
  6
CONTINUOUS
370
25
 62
7
100
AcDbLine
 10
16.09053431753624
 20
-34.98189313649275
 30
0.0
 11
16.13580147630435
 21
-35.02716029526087
 31
0.0
  0
LINE
  5
774
330
1F
100
AcDbEntity
  8
2
  6
CONTINUOUS
370
25
 62
7
100
AcDbLine
 10
16.44408770812951
 20
-34.9111824583741
 30
0.0
 11
16.66613156219427
 21
-35.13322631243885
 31
0.0
  0
LINE
  5
775
330
1F
100
AcDbEntity
  8
2
  6
CONTINUOUS
370
25
 62
7
100
AcDbLine
 10
16.79764109872278
 20
-34.84047178025544
 30
0.0
 11
17.19646164808418
 21
-35.23929232961683
 31
0.0
  0
LINE
  5
776
330
1F
100
AcDbEntity
  8
2
  6
CONTINUOUS
370
25
 62
7
100
AcDbLine
 10
17.15119448931606
 20
-34.76976110213678
 30
0.0
 11
17.72679173397409
 21
-35.34535834679482
 31
0.0
  0
LINE
  5
777
330
1F
100
AcDbEntity
  8
2
  6
CONTINUOUS
370
25
 62
7
100
AcDbLine
 10
17.50474787990933
 20
-34.69905042401813
 30
0.0
 11
18.257121819864
 21
-35.4514243639728
 31
0.0
  0
LINE
  5
778
330
1F
100
AcDbEntity
  8
2
  6
CONTINUOUS
370
25
 62
7
100
AcDbLine
 10
17.8583012705026
 20
-34.62833974589947
 30
0.0
 11
18.78745190575392
 21
-35.55749038115079
 31
0.0
  0
LINE
  5
779
330
1F
100
AcDbEntity
  8
2
  6
CONTINUOUS
370
25
 62
7
100
AcDbLine
 10
18.21185466109588
 20
-34.55762906778082
 30
0.0
 11
19.31778199164383
 21
-35.66355639832877
 31
0.0
  0
LINE
  5
77A
330
1F
100
AcDbEntity
  8
2
  6
CONTINUOUS
370
25
 62
7
100
AcDbLine
 10
18.56540805168916
 20
-34.48691838966216
 30
0.0
 11
19.84811207753375
 21
-35.76962241550675
 31
0.0
  0
LINE
  5
77B
330
1F
100
AcDbEntity
  8
2
  6
CONTINUOUS
370
25
 62
7
100
AcDbLine
 10
18.91896144228243
 20
-34.41620771154351
 30
0.0
 11
20.37844216342366
 21
-35.87568843268473
 31
0.0
  0
LINE
  5
77C
330
1F
100
AcDbEntity
  8
2
  6
CONTINUOUS
370
25
 62
7
100
AcDbLine
 10
19.27251483287571
 20
-34.34549703342486
 30
0.0
 11
20.90877224931357
 21
-35.98175444986271
 31
0.0
  0
LINE
  5
77D
330
1F
100
AcDbEntity
  8
2
  6
CONTINUOUS
370
25
 62
7
100
AcDbLine
 10
19.62606822346898
 20
-34.2747863553062
 30
0.0
 11
21.0
 21
-35.64871813183721
 31
0.0
  0
LINE
  5
77E
330
1F
100
AcDbEntity
  8
2
  6
CONTINUOUS
370
25
 62
7
100
AcDbLine
 10
19.97962161406226
 20
-34.20407567718755
 30
0.0
 11
21.0
 21
-35.22445406312529
 31
0.0
  0
LINE
  5
77F
330
1F
100
AcDbEntity
  8
2
  6
CONTINUOUS
370
25
 62
7
100
AcDbLine
 10
20.33317500465554
 20
-34.1333649990689
 30
0.0
 11
21.0
 21
-34.80018999441335
 31
0.0
  0
LINE
  5
780
330
1F
100
AcDbEntity
  8
2
  6
CONTINUOUS
370
25
 62
7
100
AcDbLine
 10
20.68672839524881
 20
-34.06265432095024
 30
0.0
 11
21.0
 21
-34.37592592570142
 31
0.0
  0
LINE
  5
781
330
1F
100
AcDbEntity
  8
2
  6
CONTINUOUS
370
25
 62
7
100
AcDbLine
 10
46.0
 20
-35.0
 30
0.0
 11
41.0
 21
-36.0
 31
0.0
  0
LINE
  5
782
330
1F
100
AcDbEntity
  8
2
  6
CONTINUOUS
370
25
 62
7
100
AcDbLine
 10
41.0
 20
-36.0
 30
0.0
 11
41.0
 21
-34.0
 31
0.0
  0
LINE
  5
783
330
1F
100
AcDbEntity
  8
2
  6
CONTINUOUS
370
25
 62
7
100
AcDbLine
 10
41.0
 20
-34.0
 30
0.0
 11
46.0
 21
-35.0
 31
0.0
  0
LINE
  5
784
330
1F
100
AcDbEntity
  8
2
  6
CONTINUOUS
370
25
 62
7
100
AcDbLine
 10
45.93600598376849
 20
-35.01279880324631
 30
0.0
 11
45.95733732251233
 21
-34.99146746450246
 31
0.0
  0
LINE
  5
785
330
1F
100
AcDbEntity
  8
2
  6
CONTINUOUS
370
25
 62
7
100
AcDbLine
 10
45.40567589787857
 20
-35.11886482042429
 30
0.0
 11
45.60378393191905
 21
-34.92075678638381
 31
0.0
  0
LINE
  5
786
330
1F
100
AcDbEntity
  8
2
  6
CONTINUOUS
370
25
 62
7
100
AcDbLine
 10
44.87534581198866
 20
-35.22493083760227
 30
0.0
 11
45.25023054132578
 21
-34.85004610826515
 31
0.0
  0
LINE
  5
787
330
1F
100
AcDbEntity
  8
2
  6
CONTINUOUS
370
25
 62
7
100
AcDbLine
 10
44.34501572609874
 20
-35.33099685478026
 30
0.0
 11
44.8966771507325
 21
-34.7793354301465
 31
0.0
  0
LINE
  5
788
330
1F
100
AcDbEntity
  8
2
  6
CONTINUOUS
370
25
 62
7
100
AcDbLine
 10
43.81468564020882
 20
-35.43706287195824
 30
0.0
 11
44.54312376013922
 21
-34.70862475202784
 31
0.0
  0
LINE
  5
789
330
1F
100
AcDbEntity
  8
2
  6
CONTINUOUS
370
25
 62
7
100
AcDbLine
 10
43.28435555431891
 20
-35.54312888913622
 30
0.0
 11
44.18957036954594
 21
-34.63791407390919
 31
0.0
  0
LINE
  5
78A
330
1F
100
AcDbEntity
  8
2
  6
CONTINUOUS
370
25
 62
7
100
AcDbLine
 10
42.75402546842899
 20
-35.6491949063142
 30
0.0
 11
43.83601697895266
 21
-34.56720339579054
 31
0.0
  0
LINE
  5
78B
330
1F
100
AcDbEntity
  8
2
  6
CONTINUOUS
370
25
 62
7
100
AcDbLine
 10
42.22369538253907
 20
-35.75526092349219
 30
0.0
 11
43.48246358835939
 21
-34.49649271767188
 31
0.0
  0
LINE
  5
78C
330
1F
100
AcDbEntity
  8
2
  6
CONTINUOUS
370
25
 62
7
100
AcDbLine
 10
41.69336529664915
 20
-35.86132694067017
 30
0.0
 11
43.12891019776611
 21
-34.42578203955322
 31
0.0
  0
LINE
  5
78D
330
1F
100
AcDbEntity
  8
2
  6
CONTINUOUS
370
25
 62
7
100
AcDbLine
 10
41.16303521075923
 20
-35.96739295784815
 30
0.0
 11
42.77535680717283
 21
-34.35507136143457
 31
0.0
  0
LINE
  5
78E
330
1F
100
AcDbEntity
  8
2
  6
CONTINUOUS
370
25
 62
7
100
AcDbLine
 10
41.0
 20
-35.70616409989545
 30
0.0
 11
42.42180341657955
 21
-34.28436068331591
 31
0.0
  0
LINE
  5
78F
330
1F
100
AcDbEntity
  8
2
  6
CONTINUOUS
370
25
 62
7
100
AcDbLine
 10
41.0
 20
-35.28190003118352
 30
0.0
 11
42.06825002598627
 21
-34.21365000519725
 31
0.0
  0
LINE
  5
790
330
1F
100
AcDbEntity
  8
2
  6
CONTINUOUS
370
25
 62
7
100
AcDbLine
 10
41.0
 20
-34.85763596247158
 30
0.0
 11
41.71469663539299
 21
-34.1429393270786
 31
0.0
  0
LINE
  5
791
330
1F
100
AcDbEntity
  8
2
  6
CONTINUOUS
370
25
 62
7
100
AcDbLine
 10
41.0
 20
-34.43337189375966
 30
0.0
 11
41.36114324479971
 21
-34.07222864895994
 31
0.0
  0
LINE
  5
792
330
1F
100
AcDbEntity
  8
2
  6
CONTINUOUS
370
25
 62
7
100
AcDbLine
 10
41.0
 20
-34.00910782504772
 30
0.0
 11
41.00758985420644
 21
-34.00151797084128
 31
0.0
  0
LINE
  5
793
330
1F
100
AcDbEntity
  8
2
  6
CONTINUOUS
370
25
 62
7
100
AcDbLine
 10
41.0
 20
-35.90883117545684
 30
0.0
 11
41.07597402045264
 21
-35.98480519590948
 31
0.0
  0
LINE
  5
794
330
1F
100
AcDbEntity
  8
2
  6
CONTINUOUS
370
25
 62
7
100
AcDbLine
 10
41.0
 20
-35.4845671067449
 30
0.0
 11
41.42952741104591
 21
-35.91409451779082
 31
0.0
  0
LINE
  5
795
330
1F
100
AcDbEntity
  8
2
  6
CONTINUOUS
370
25
 62
7
100
AcDbLine
 10
41.0
 20
-35.06030303803298
 30
0.0
 11
41.78308080163919
 21
-35.84338383967216
 31
0.0
  0
LINE
  5
796
330
1F
100
AcDbEntity
  8
2
  6
CONTINUOUS
370
25
 62
7
100
AcDbLine
 10
41.0
 20
-34.63603896932105
 30
0.0
 11
42.13663419223247
 21
-35.77267316155351
 31
0.0
  0
LINE
  5
797
330
1F
100
AcDbEntity
  8
2
  6
CONTINUOUS
370
25
 62
7
100
AcDbLine
 10
41.0
 20
-34.21177490060911
 30
0.0
 11
42.49018758282575
 21
-35.70196248343485
 31
0.0
  0
LINE
  5
798
330
1F
100
AcDbEntity
  8
2
  6
CONTINUOUS
370
25
 62
7
100
AcDbLine
 10
41.26561146012853
 20
-34.05312229202571
 30
0.0
 11
42.84374097341902
 21
-35.6312518053162
 31
0.0
  0
LINE
  5
799
330
1F
100
AcDbEntity
  8
2
  6
CONTINUOUS
370
25
 62
7
100
AcDbLine
 10
41.79594154601844
 20
-34.15918830920369
 30
0.0
 11
43.1972943640123
 21
-35.56054112719754
 31
0.0
  0
LINE
  5
79A
330
1F
100
AcDbEntity
  8
2
  6
CONTINUOUS
370
25
 62
7
100
AcDbLine
 10
42.32627163190835
 20
-34.26525432638167
 30
0.0
 11
43.55084775460558
 21
-35.48983044907888
 31
0.0
  0
LINE
  5
79B
330
1F
100
AcDbEntity
  8
2
  6
CONTINUOUS
370
25
 62
7
100
AcDbLine
 10
42.85660171779827
 20
-34.37132034355965
 30
0.0
 11
43.90440114519885
 21
-35.41911977096023
 31
0.0
  0
LINE
  5
79C
330
1F
100
AcDbEntity
  8
2
  6
CONTINUOUS
370
25
 62
7
100
AcDbLine
 10
43.38693180368821
 20
-34.47738636073764
 30
0.0
 11
44.25795453579214
 21
-35.34840909284158
 31
0.0
  0
LINE
  5
79D
330
1F
100
AcDbEntity
  8
2
  6
CONTINUOUS
370
25
 62
7
100
AcDbLine
 10
43.91726188957811
 20
-34.58345237791562
 30
0.0
 11
44.61150792638541
 21
-35.27769841472292
 31
0.0
  0
LINE
  5
79E
330
1F
100
AcDbEntity
  8
2
  6
CONTINUOUS
370
25
 62
7
100
AcDbLine
 10
44.44759197546803
 20
-34.6895183950936
 30
0.0
 11
44.9650613169787
 21
-35.20698773660426
 31
0.0
  0
LINE
  5
79F
330
1F
100
AcDbEntity
  8
2
  6
CONTINUOUS
370
25
 62
7
100
AcDbLine
 10
44.97792206135795
 20
-34.79558441227159
 30
0.0
 11
45.31861470757197
 21
-35.1362770584856
 31
0.0
  0
LINE
  5
7A0
330
1F
100
AcDbEntity
  8
2
  6
CONTINUOUS
370
25
 62
7
100
AcDbLine
 10
45.50825214724787
 20
-34.90165042944957
 30
0.0
 11
45.67216809816525
 21
-35.06556638036696
 31
0.0
  0
TEXT
  5
7A1
330
1F
100
AcDbEntity
  8
2
  6
CONTINUOUS
370
25
 62
7
100
AcDbText
 10
28.375
 20
-33.5
 30
0.0
 40
3.5
  1
30
 72
     1
 11
31.0
 21
-33.5
 31
0.0
100
AcDbText
  0
LINE
  5
7A2
330
1F
100
AcDbEntity
  8
SK2
  6
CONTINUOUS
370
25
 62
7
100
AcDbLine
 10
-36.0
 20
6.0
 30
0.0
 11
-36.0
 21
36.0
 31
0.0
  0
LINE
  5
7A3
330
1F
100
AcDbEntity
  8
SK2
  6
CONTINUOUS
370
25
 62
7
100
AcDbLine
 10
46.0
 20
36.0
 30
0.0
 11
46.0
 21
0.0
 31
0.0
  0
LINE
  5
7A4
330
1F
100
AcDbEntity
  8
SK2
  6
CONTINUOUS
370
25
 62
7
100
AcDbLine
 10
-36.0
 20
35.0
 30
0.0
 11
46.0
 21
35.0
 31
0.0
  0
LINE
  5
7A5
330
1F
100
AcDbEntity
  8
SK2
  6
CONTINUOUS
370
25
 62
7
100
AcDbLine
 10
-36.0
 20
35.0
 30
0.0
 11
-31.0
 21
36.0
 31
0.0
  0
LINE
  5
7A6
330
1F
100
AcDbEntity
  8
SK2
  6
CONTINUOUS
370
25
 62
7
100
AcDbLine
 10
-31.0
 20
36.0
 30
0.0
 11
-31.0
 21
34.0
 31
0.0
  0
LINE
  5
7A7
330
1F
100
AcDbEntity
  8
SK2
  6
CONTINUOUS
370
25
 62
7
100
AcDbLine
 10
-31.0
 20
34.0
 30
0.0
 11
-36.0
 21
35.0
 31
0.0
  0
LINE
  5
7A8
330
1F
100
AcDbEntity
  8
SK2
  6
CONTINUOUS
370
25
 62
7
100
AcDbLine
 10
-31.2805554846975
 20
34.0561110969395
 30
0.0
 11
-31.0
 21
34.336666581637
 31
0.0
  0
LINE
  5
7A9
330
1F
100
AcDbEntity
  8
SK2
  6
CONTINUOUS
370
25
 62
7
100
AcDbLine
 10
-31.63410887529077
 20
34.12682177505815
 30
0.0
 11
-31.0
 21
34.76093065034893
 31
0.0
  0
LINE
  5
7AA
330
1F
100
AcDbEntity
  8
SK2
  6
CONTINUOUS
370
25
 62
7
100
AcDbLine
 10
-31.98766226588405
 20
34.19753245317681
 30
0.0
 11
-31.0
 21
35.18519471906086
 31
0.0
  0
LINE
  5
7AB
330
1F
100
AcDbEntity
  8
SK2
  6
CONTINUOUS
370
25
 62
7
100
AcDbLine
 10
-32.34121565647732
 20
34.26824313129547
 30
0.0
 11
-31.0
 21
35.60945878777279
 31
0.0
  0
LINE
  5
7AC
330
1F
100
AcDbEntity
  8
SK2
  6
CONTINUOUS
370
25
 62
7
100
AcDbLine
 10
-32.69476904707059
 20
34.33895380941412
 30
0.0
 11
-31.04215357060589
 21
35.99156928587882
 31
0.0
  0
LINE
  5
7AD
330
1F
100
AcDbEntity
  8
SK2
  6
CONTINUOUS
370
25
 62
7
100
AcDbLine
 10
-33.04832243766387
 20
34.40966448753278
 30
0.0
 11
-31.57248365649581
 21
35.88550326870084
 31
0.0
  0
LINE
  5
7AE
330
1F
100
AcDbEntity
  8
SK2
  6
CONTINUOUS
370
25
 62
7
100
AcDbLine
 10
-33.40187582825715
 20
34.48037516565143
 30
0.0
 11
-32.10281374238573
 21
35.77943725152286
 31
0.0
  0
LINE
  5
7AF
330
1F
100
AcDbEntity
  8
SK2
  6
CONTINUOUS
370
25
 62
7
100
AcDbLine
 10
-33.75542921885043
 20
34.55108584377009
 30
0.0
 11
-32.63314382827564
 21
35.67337123434488
 31
0.0
  0
LINE
  5
7B0
330
1F
100
AcDbEntity
  8
SK2
  6
CONTINUOUS
370
25
 62
7
100
AcDbLine
 10
-34.10898260944371
 20
34.62179652188875
 30
0.0
 11
-33.16347391416556
 21
35.56730521716689
 31
0.0
  0
LINE
  5
7B1
330
1F
100
AcDbEntity
  8
SK2
  6
CONTINUOUS
370
25
 62
7
100
AcDbLine
 10
-34.46253600003698
 20
34.6925072000074
 30
0.0
 11
-33.69380400005547
 21
35.46123919998891
 31
0.0
  0
LINE
  5
7B2
330
1F
100
AcDbEntity
  8
SK2
  6
CONTINUOUS
370
25
 62
7
100
AcDbLine
 10
-34.81608939063025
 20
34.76321787812606
 30
0.0
 11
-34.22413408594538
 21
35.35517318281093
 31
0.0
  0
LINE
  5
7B3
330
1F
100
AcDbEntity
  8
SK2
  6
CONTINUOUS
370
25
 62
7
100
AcDbLine
 10
-35.16964278122354
 20
34.83392855624471
 30
0.0
 11
-34.7544641718353
 21
35.24910716563294
 31
0.0
  0
LINE
  5
7B4
330
1F
100
AcDbEntity
  8
SK2
  6
CONTINUOUS
370
25
 62
7
100
AcDbLine
 10
-35.5231961718168
 20
34.90463923436337
 30
0.0
 11
-35.2847942577252
 21
35.14304114845496
 31
0.0
  0
LINE
  5
7B5
330
1F
100
AcDbEntity
  8
SK2
  6
CONTINUOUS
370
25
 62
7
100
AcDbLine
 10
-35.87674956241008
 20
34.97534991248202
 30
0.0
 11
-35.81512434361512
 21
35.03697513127698
 31
0.0
  0
LINE
  5
7B6
330
1F
100
AcDbEntity
  8
SK2
  6
CONTINUOUS
370
25
 62
7
100
AcDbLine
 10
-35.75870808738114
 20
35.04825838252378
 30
0.0
 11
-35.63806213107171
 21
34.92761242621434
 31
0.0
  0
LINE
  5
7B7
330
1F
100
AcDbEntity
  8
SK2
  6
CONTINUOUS
370
25
 62
7
100
AcDbLine
 10
-35.40515469678787
 20
35.11896906064243
 30
0.0
 11
-35.1077320451818
 21
34.82154640903636
 31
0.0
  0
LINE
  5
7B8
330
1F
100
AcDbEntity
  8
SK2
  6
CONTINUOUS
370
25
 62
7
100
AcDbLine
 10
-35.05160130619459
 20
35.18967973876109
 30
0.0
 11
-34.57740195929188
 21
34.71548039185838
 31
0.0
  0
LINE
  5
7B9
330
1F
100
AcDbEntity
  8
SK2
  6
CONTINUOUS
370
25
 62
7
100
AcDbLine
 10
-34.69804791560131
 20
35.26039041687974
 30
0.0
 11
-34.04707187340198
 21
34.6094143746804
 31
0.0
  0
LINE
  5
7BA
330
1F
100
AcDbEntity
  8
SK2
  6
CONTINUOUS
370
25
 62
7
100
AcDbLine
 10
-34.34449452500804
 20
35.3311010949984
 30
0.0
 11
-33.51674178751206
 21
34.50334835750241
 31
0.0
  0
LINE
  5
7BB
330
1F
100
AcDbEntity
  8
SK2
  6
CONTINUOUS
370
25
 62
7
100
AcDbLine
 10
-33.99094113441477
 20
35.40181177311705
 30
0.0
 11
-32.98641170162215
 21
34.39728234032443
 31
0.0
  0
LINE
  5
7BC
330
1F
100
AcDbEntity
  8
SK2
  6
CONTINUOUS
370
25
 62
7
100
AcDbLine
 10
-33.63738774382148
 20
35.4725224512357
 30
0.0
 11
-32.45608161573224
 21
34.29121632314645
 31
0.0
  0
LINE
  5
7BD
330
1F
100
AcDbEntity
  8
SK2
  6
CONTINUOUS
370
25
 62
7
100
AcDbLine
 10
-33.28383435322822
 20
35.54323312935436
 30
0.0
 11
-31.92575152984233
 21
34.18515030596846
 31
0.0
  0
LINE
  5
7BE
330
1F
100
AcDbEntity
  8
SK2
  6
CONTINUOUS
370
25
 62
7
100
AcDbLine
 10
-32.93028096263494
 20
35.61394380747301
 30
0.0
 11
-31.39542144395242
 21
34.07908428879048
 31
0.0
  0
LINE
  5
7BF
330
1F
100
AcDbEntity
  8
SK2
  6
CONTINUOUS
370
25
 62
7
100
AcDbLine
 10
-32.57672757204166
 20
35.68465448559167
 30
0.0
 11
-31.0
 21
34.10792691354999
 31
0.0
  0
LINE
  5
7C0
330
1F
100
AcDbEntity
  8
SK2
  6
CONTINUOUS
370
25
 62
7
100
AcDbLine
 10
-32.22317418144839
 20
35.75536516371032
 30
0.0
 11
-31.0
 21
34.53219098226192
 31
0.0
  0
LINE
  5
7C1
330
1F
100
AcDbEntity
  8
SK2
  6
CONTINUOUS
370
25
 62
7
100
AcDbLine
 10
-31.86962079085511
 20
35.82607584182898
 30
0.0
 11
-31.0
 21
34.95645505097386
 31
0.0
  0
LINE
  5
7C2
330
1F
100
AcDbEntity
  8
SK2
  6
CONTINUOUS
370
25
 62
7
100
AcDbLine
 10
-31.51606740026184
 20
35.89678651994764
 30
0.0
 11
-31.0
 21
35.38071911968579
 31
0.0
  0
LINE
  5
7C3
330
1F
100
AcDbEntity
  8
SK2
  6
CONTINUOUS
370
25
 62
7
100
AcDbLine
 10
-31.16251400966857
 20
35.96749719806629
 30
0.0
 11
-31.0
 21
35.80498318839772
 31
0.0
  0
LINE
  5
7C4
330
1F
100
AcDbEntity
  8
SK2
  6
CONTINUOUS
370
25
 62
7
100
AcDbLine
 10
46.0
 20
35.0
 30
0.0
 11
41.0
 21
34.0
 31
0.0
  0
LINE
  5
7C5
330
1F
100
AcDbEntity
  8
SK2
  6
CONTINUOUS
370
25
 62
7
100
AcDbLine
 10
41.0
 20
34.0
 30
0.0
 11
41.0
 21
36.0
 31
0.0
  0
LINE
  5
7C6
330
1F
100
AcDbEntity
  8
SK2
  6
CONTINUOUS
370
25
 62
7
100
AcDbLine
 10
41.0
 20
36.0
 30
0.0
 11
46.0
 21
35.0
 31
0.0
  0
LINE
  5
7C7
330
1F
100
AcDbEntity
  8
SK2
  6
CONTINUOUS
370
25
 62
7
100
AcDbLine
 10
45.94047015560375
 20
34.98809403112075
 30
0.0
 11
45.96031343706917
 21
35.00793731258618
 31
0.0
  0
LINE
  5
7C8
330
1F
100
AcDbEntity
  8
SK2
  6
CONTINUOUS
370
25
 62
7
100
AcDbLine
 10
45.41014006971383
 20
34.88202801394276
 30
0.0
 11
45.60676004647589
 21
35.07864799070482
 31
0.0
  0
LINE
  5
7C9
330
1F
100
AcDbEntity
  8
SK2
  6
CONTINUOUS
370
25
 62
7
100
AcDbLine
 10
44.87980998382391
 20
34.77596199676478
 30
0.0
 11
45.25320665588261
 21
35.14935866882348
 31
0.0
  0
LINE
  5
7CA
330
1F
100
AcDbEntity
  8
SK2
  6
CONTINUOUS
370
25
 62
7
100
AcDbLine
 10
44.349479897934
 20
34.66989597958679
 30
0.0
 11
44.89965326528934
 21
35.22006934694214
 31
0.0
  0
LINE
  5
7CB
330
1F
100
AcDbEntity
  8
SK2
  6
CONTINUOUS
370
25
 62
7
100
AcDbLine
 10
43.81914981204408
 20
34.5638299624088
 30
0.0
 11
44.54609987469606
 21
35.29078002506078
 31
0.0
  0
LINE
  5
7CC
330
1F
100
AcDbEntity
  8
SK2
  6
CONTINUOUS
370
25
 62
7
100
AcDbLine
 10
43.28881972615417
 20
34.45776394523083
 30
0.0
 11
44.19254648410278
 21
35.36149070317944
 31
0.0
  0
LINE
  5
7CD
330
1F
100
AcDbEntity
  8
SK2
  6
CONTINUOUS
370
25
 62
7
100
AcDbLine
 10
42.75848964026425
 20
34.35169792805284
 30
0.0
 11
43.83899309350951
 21
35.4322013812981
 31
0.0
  0
LINE
  5
7CE
330
1F
100
AcDbEntity
  8
SK2
  6
CONTINUOUS
370
25
 62
7
100
AcDbLine
 10
42.22815955437434
 20
34.24563191087486
 30
0.0
 11
43.48543970291623
 21
35.50291205941677
 31
0.0
  0
LINE
  5
7CF
330
1F
100
AcDbEntity
  8
SK2
  6
CONTINUOUS
370
25
 62
7
100
AcDbLine
 10
41.69782946848443
 20
34.13956589369688
 30
0.0
 11
43.13188631232295
 21
35.57362273753542
 31
0.0
  0
LINE
  5
7D0
330
1F
100
AcDbEntity
  8
SK2
  6
CONTINUOUS
370
25
 62
7
100
AcDbLine
 10
41.16749938259452
 20
34.0334998765189
 30
0.0
 11
42.77833292172968
 21
35.64433341565407
 31
0.0
  0
LINE
  5
7D1
330
1F
100
AcDbEntity
  8
SK2
  6
CONTINUOUS
370
25
 62
7
100
AcDbLine
 10
41.0
 20
34.29026456263631
 30
0.0
 11
42.42477953113639
 21
35.71504409377272
 31
0.0
  0
LINE
  5
7D2
330
1F
100
AcDbEntity
  8
SK2
  6
CONTINUOUS
370
25
 62
7
100
AcDbLine
 10
41.0
 20
34.71452863134825
 30
0.0
 11
42.07122614054312
 21
35.78575477189138
 31
0.0
  0
LINE
  5
7D3
330
1F
100
AcDbEntity
  8
SK2
  6
CONTINUOUS
370
25
 62
7
100
AcDbLine
 10
41.0
 20
35.13879270006018
 30
0.0
 11
41.71767274994984
 21
35.85646545001003
 31
0.0
  0
LINE
  5
7D4
330
1F
100
AcDbEntity
  8
SK2
  6
CONTINUOUS
370
25
 62
7
100
AcDbLine
 10
41.0
 20
35.56305676877212
 30
0.0
 11
41.36411935935657
 21
35.92717612812869
 31
0.0
  0
LINE
  5
7D5
330
1F
100
AcDbEntity
  8
SK2
  6
CONTINUOUS
370
25
 62
7
100
AcDbLine
 10
41.0
 20
35.98732083748406
 30
0.0
 11
41.0105659687633
 21
35.99788680624735
 31
0.0
  0
LINE
  5
7D6
330
1F
100
AcDbEntity
  8
SK2
  6
CONTINUOUS
370
25
 62
7
100
AcDbLine
 10
41.0
 20
34.09474016201135
 30
0.0
 11
41.07895013500946
 21
34.01579002700189
 31
0.0
  0
LINE
  5
7D7
330
1F
100
AcDbEntity
  8
SK2
  6
CONTINUOUS
370
25
 62
7
100
AcDbLine
 10
41.0
 20
34.51900423072328
 30
0.0
 11
41.43250352560274
 21
34.08650070512054
 31
0.0
  0
LINE
  5
7D8
330
1F
100
AcDbEntity
  8
SK2
  6
CONTINUOUS
370
25
 62
7
100
AcDbLine
 10
41.0
 20
34.94326829943521
 30
0.0
 11
41.78605691619602
 21
34.15721138323919
 31
0.0
  0
LINE
  5
7D9
330
1F
100
AcDbEntity
  8
SK2
  6
CONTINUOUS
370
25
 62
7
100
AcDbLine
 10
41.0
 20
35.36753236814715
 30
0.0
 11
42.1396103067893
 21
34.22792206135785
 31
0.0
  0
LINE
  5
7DA
330
1F
100
AcDbEntity
  8
SK2
  6
CONTINUOUS
370
25
 62
7
100
AcDbLine
 10
41.0
 20
35.79179643685909
 30
0.0
 11
42.49316369738257
 21
34.29863273947651
 31
0.0
  0
LINE
  5
7DB
330
1F
100
AcDbEntity
  8
SK2
  6
CONTINUOUS
370
25
 62
7
100
AcDbLine
 10
41.27007563196376
 20
35.94598487360725
 30
0.0
 11
42.84671708797585
 21
34.36934341759517
 31
0.0
  0
LINE
  5
7DC
330
1F
100
AcDbEntity
  8
SK2
  6
CONTINUOUS
370
25
 62
7
100
AcDbLine
 10
41.80040571785369
 20
35.83991885642926
 30
0.0
 11
43.20027047856913
 21
34.44005409571383
 31
0.0
  0
LINE
  5
7DD
330
1F
100
AcDbEntity
  8
SK2
  6
CONTINUOUS
370
25
 62
7
100
AcDbLine
 10
42.3307358037436
 20
35.73385283925128
 30
0.0
 11
43.55382386916241
 21
34.51076477383247
 31
0.0
  0
LINE
  5
7DE
330
1F
100
AcDbEntity
  8
SK2
  6
CONTINUOUS
370
25
 62
7
100
AcDbLine
 10
42.86106588963353
 20
35.6277868220733
 30
0.0
 11
43.90737725975569
 21
34.58147545195114
 31
0.0
  0
LINE
  5
7DF
330
1F
100
AcDbEntity
  8
SK2
  6
CONTINUOUS
370
25
 62
7
100
AcDbLine
 10
43.39139597552344
 20
35.52172080489532
 30
0.0
 11
44.26093065034896
 21
34.65218613006979
 31
0.0
  0
LINE
  5
7E0
330
1F
100
AcDbEntity
  8
SK2
  6
CONTINUOUS
370
25
 62
7
100
AcDbLine
 10
43.92172606141337
 20
35.41565478771733
 30
0.0
 11
44.61448404094225
 21
34.72289680818844
 31
0.0
  0
LINE
  5
7E1
330
1F
100
AcDbEntity
  8
SK2
  6
CONTINUOUS
370
25
 62
7
100
AcDbLine
 10
44.45205614730327
 20
35.30958877053935
 30
0.0
 11
44.96803743153552
 21
34.7936074863071
 31
0.0
  0
LINE
  5
7E2
330
1F
100
AcDbEntity
  8
SK2
  6
CONTINUOUS
370
25
 62
7
100
AcDbLine
 10
44.9823862331932
 20
35.20352275336136
 30
0.0
 11
45.3215908221288
 21
34.86431816442575
 31
0.0
  0
LINE
  5
7E3
330
1F
100
AcDbEntity
  8
SK2
  6
CONTINUOUS
370
25
 62
7
100
AcDbLine
 10
45.5127163190831
 20
35.09745673618338
 30
0.0
 11
45.67514421272207
 21
34.93502884254441
 31
0.0
  0
TEXT
  5
7E4
330
1F
100
AcDbEntity
  8
SK2
  6
CONTINUOUS
370
25
 62
7
100
AcDbText
 10
2.083333333333333
 20
36.5
 30
0.0
 40
3.5
  1
82
 72
     1
 11
5.0
 21
36.5
 31
0.0
100
AcDbText
  0
LINE
  5
7E5
330
1F
100
AcDbEntity
  8
4
  6
LONGDASH_DASH
370
25
 62
2
100
AcDbLine
 10
0.0
 20
0.0
 30
0.0
 11
46.0
 21
0.0
 31
0.0
  0
LINE
  5
7E6
330
1F
100
AcDbEntity
  8
SK4
  6
LONGDASH_DASH
370
25
 62
2
100
AcDbLine
 10
-42.0
 20
0.0
 30
0.0
 11
52.0
 21
0.0
 31
0.0
  0
LINE
  5
7E7
330
1F
100
AcDbEntity
  8
2
  6
CONTINUOUS
370
25
 62
7
100
AcDbLine
 10
46.0
 20
0.0
 30
0.0
 11
53.18242300983904
 21
19.73354503650408
 31
0.0
  0
LINE
  5
7E8
330
1F
100
AcDbEntity
  8
2
  6
CONTINUOUS
370
25
 62
7
100
AcDbLine
 10
46.0
 20
0.0
 30
0.0
 11
53.18242300983905
 21
-19.73354503650408
 31
0.0
  0
ARC
  5
7E9
330
1F
100
AcDbEntity
  8
2
  6
CONTINUOUS
370
25
 62
7
100
AcDbCircle
 10
45.99999999999999
 20
0.000000000000002
 30
0.0
 40
20.00000000000001
100
AcDbArc
 50
290.0000000000001
 51
70.0
  0
LINE
  5
7EA
330
1F
100
AcDbEntity
  8
2
  6
CONTINUOUS
370
25
 62
7
100
AcDbLine
 10
52.84040286651337
 20
18.79385241571817
 30
0.0
 11
57.74505128946728
 21
17.39942642370005
 31
0.0
  0
LINE
  5
7EB
330
1F
100
AcDbEntity
  8
2
  6
CONTINUOUS
370
25
 62
7
100
AcDbLine
 10
57.74505128946728
 20
17.39942642370005
 30
0.0
 11
56.83145295231002
 21
15.62028672194994
 31
0.0
  0
LINE
  5
7EC
330
1F
100
AcDbEntity
  8
2
  6
CONTINUOUS
370
25
 62
7
100
AcDbLine
 10
56.83145295231002
 20
15.62028672194994
 30
0.0
 11
52.84040286651337
 21
18.79385241571817
 31
0.0
  0
LINE
  5
7ED
330
1F
100
AcDbEntity
  8
2
  6
CONTINUOUS
370
25
 62
7
100
AcDbLine
 10
56.78937357613962
 20
15.65374700477244
 30
0.0
 11
56.91118675784315
 21
15.77556018647597
 31
0.0
  0
LINE
  5
7EE
330
1F
100
AcDbEntity
  8
2
  6
CONTINUOUS
370
25
 62
7
100
AcDbLine
 10
56.55303722539451
 20
15.84167472273926
 30
0.0
 11
57.35900700485485
 21
16.6476445021996
 31
0.0
  0
LINE
  5
7EF
330
1F
100
AcDbEntity
  8
2
  6
CONTINUOUS
370
25
 62
7
100
AcDbLine
 10
56.31670087464941
 20
16.02960244070609
 30
0.0
 11
57.69948085282282
 21
17.4123824188795
 31
0.0
  0
LINE
  5
7F0
330
1F
100
AcDbEntity
  8
2
  6
CONTINUOUS
370
25
 62
7
100
AcDbLine
 10
56.08036452390429
 20
16.21753015867291
 30
0.0
 11
57.36913611351032
 21
17.50630174827894
 31
0.0
  0
LINE
  5
7F1
330
1F
100
AcDbEntity
  8
2
  6
CONTINUOUS
370
25
 62
7
100
AcDbLine
 10
55.84402817315919
 20
16.40545787663973
 30
0.0
 11
57.03879137419782
 21
17.60022107767836
 31
0.0
  0
LINE
  5
7F2
330
1F
100
AcDbEntity
  8
2
  6
CONTINUOUS
370
25
 62
7
100
AcDbLine
 10
55.60769182241408
 20
16.59338559460655
 30
0.0
 11
56.70844663488531
 21
17.69414040707779
 31
0.0
  0
LINE
  5
7F3
330
1F
100
AcDbEntity
  8
2
  6
CONTINUOUS
370
25
 62
7
100
AcDbLine
 10
55.37135547166897
 20
16.78131331257338
 30
0.0
 11
56.37810189557281
 21
17.78805973647722
 31
0.0
  0
LINE
  5
7F4
330
1F
100
AcDbEntity
  8
2
  6
CONTINUOUS
370
25
 62
7
100
AcDbLine
 10
55.13501912092386
 20
16.9692410305402
 30
0.0
 11
56.0477571562603
 21
17.88197906587664
 31
0.0
  0
LINE
  5
7F5
330
1F
100
AcDbEntity
  8
2
  6
CONTINUOUS
370
25
 62
7
100
AcDbLine
 10
54.89868277017875
 20
17.15716874850702
 30
0.0
 11
55.71741241694781
 21
17.97589839527608
 31
0.0
  0
LINE
  5
7F6
330
1F
100
AcDbEntity
  8
2
  6
CONTINUOUS
370
25
 62
7
100
AcDbLine
 10
54.66234641943364
 20
17.34509646647384
 30
0.0
 11
55.38706767763531
 21
18.06981772467551
 31
0.0
  0
LINE
  5
7F7
330
1F
100
AcDbEntity
  8
2
  6
CONTINUOUS
370
25
 62
7
100
AcDbLine
 10
54.42601006868853
 20
17.53302418444067
 30
0.0
 11
55.0567229383228
 21
18.16373705407494
 31
0.0
  0
LINE
  5
7F8
330
1F
100
AcDbEntity
  8
2
  6
CONTINUOUS
370
25
 62
7
100
AcDbLine
 10
54.18967371794342
 20
17.72095190240749
 30
0.0
 11
54.72637819901031
 21
18.25765638347438
 31
0.0
  0
LINE
  5
7F9
330
1F
100
AcDbEntity
  8
2
  6
CONTINUOUS
370
25
 62
7
100
AcDbLine
 10
53.95333736719832
 20
17.90887962037431
 30
0.0
 11
54.3960334596978
 21
18.3515757128738
 31
0.0
  0
LINE
  5
7FA
330
1F
100
AcDbEntity
  8
2
  6
CONTINUOUS
370
25
 62
7
100
AcDbLine
 10
53.7170010164532
 20
18.09680733834113
 30
0.0
 11
54.0656887203853
 21
18.44549504227323
 31
0.0
  0
LINE
  5
7FB
330
1F
100
AcDbEntity
  8
2
  6
CONTINUOUS
370
25
 62
7
100
AcDbLine
 10
53.4806646657081
 20
18.28473505630796
 30
0.0
 11
53.73534398107279
 21
18.53941437167266
 31
0.0
  0
LINE
  5
7FC
330
1F
100
AcDbEntity
  8
2
  6
CONTINUOUS
370
25
 62
7
100
AcDbLine
 10
53.24432831496299
 20
18.47266277427478
 30
0.0
 11
53.40499924176029
 21
18.63333370107208
 31
0.0
  0
LINE
  5
7FD
330
1F
100
AcDbEntity
  8
2
  6
CONTINUOUS
370
25
 62
7
100
AcDbLine
 10
53.00799196421788
 20
18.6605904922416
 30
0.0
 11
53.0746545024478
 21
18.72725303047152
 31
0.0
  0
LINE
  5
7FE
330
1F
100
AcDbEntity
  8
2
  6
CONTINUOUS
370
25
 62
7
100
AcDbLine
 10
52.93314141812399
 20
18.76748619419192
 30
0.0
 11
53.16443999341249
 21
18.53618761890343
 31
0.0
  0
LINE
  5
7FF
330
1F
100
AcDbEntity
  8
2
  6
CONTINUOUS
370
25
 62
7
100
AcDbLine
 10
53.52594319535187
 20
18.59894848567596
 30
0.0
 11
55.23574455206185
 21
16.88914712896599
 31
0.0
  0
LINE
  5
800
330
1F
100
AcDbEntity
  8
2
  6
CONTINUOUS
370
25
 62
7
100
AcDbLine
 10
54.11874497257978
 20
18.43041077715998
 30
0.0
 11
56.86450450180529
 21
15.68465124793448
 31
0.0
  0
LINE
  5
801
330
1F
100
AcDbEntity
  8
2
  6
CONTINUOUS
370
25
 62
7
100
AcDbLine
 10
54.71154674980769
 20
18.26187306864401
 30
0.0
 11
57.00844978801222
 21
15.96497003043948
 31
0.0
  0
LINE
  5
802
330
1F
100
AcDbEntity
  8
2
  6
CONTINUOUS
370
25
 62
7
100
AcDbLine
 10
55.30434852703558
 20
18.09333536012804
 30
0.0
 11
57.15239507421914
 21
16.24528881294449
 31
0.0
  0
LINE
  5
803
330
1F
100
AcDbEntity
  8
2
  6
CONTINUOUS
370
25
 62
7
100
AcDbLine
 10
55.89715030426348
 20
17.92479765161207
 30
0.0
 11
57.29634036042607
 21
16.52560759544949
 31
0.0
  0
LINE
  5
804
330
1F
100
AcDbEntity
  8
2
  6
CONTINUOUS
370
25
 62
7
100
AcDbLine
 10
56.4899520814914
 20
17.7562599430961
 30
0.0
 11
57.44028564663299
 21
16.80592637795451
 31
0.0
  0
LINE
  5
805
330
1F
100
AcDbEntity
  8
2
  6
CONTINUOUS
370
25
 62
7
100
AcDbLine
 10
57.0827538587193
 20
17.58772223458013
 30
0.0
 11
57.58423093283992
 21
17.08624516045952
 31
0.0
  0
LINE
  5
806
330
1F
100
AcDbEntity
  8
2
  6
CONTINUOUS
370
25
 62
7
100
AcDbLine
 10
57.67555563594721
 20
17.41918452606416
 30
0.0
 11
57.72817621904684
 21
17.36656394296453
 31
0.0
  0
LINE
  5
807
330
1F
100
AcDbEntity
  8
2
  6
CONTINUOUS
370
25
 62
7
100
AcDbLine
 10
52.84040286651338
 20
-18.79385241571817
 30
0.0
 11
56.83145295231002
 21
-15.62028672194994
 31
0.0
  0
LINE
  5
808
330
1F
100
AcDbEntity
  8
2
  6
CONTINUOUS
370
25
 62
7
100
AcDbLine
 10
56.83145295231002
 20
-15.62028672194994
 30
0.0
 11
57.74505128946729
 21
-17.39942642370005
 31
0.0
  0
LINE
  5
809
330
1F
100
AcDbEntity
  8
2
  6
CONTINUOUS
370
25
 62
7
100
AcDbLine
 10
57.74505128946729
 20
-17.39942642370005
 30
0.0
 11
52.84040286651338
 21
-18.79385241571817
 31
0.0
  0
LINE
  5
80A
330
1F
100
AcDbEntity
  8
2
  6
CONTINUOUS
370
25
 62
7
100
AcDbLine
 10
57.1938504502322
 20
-17.55613669338106
 30
0.0
 11
57.61120762433488
 21
-17.13877951927837
 31
0.0
  0
LINE
  5
80B
330
1F
100
AcDbEntity
  8
2
  6
CONTINUOUS
370
25
 62
7
100
AcDbLine
 10
56.60104867300429
 20
-17.72467440189703
 30
0.0
 11
57.46726233812795
 21
-16.85846073677337
 31
0.0
  0
LINE
  5
80C
330
1F
100
AcDbEntity
  8
2
  6
CONTINUOUS
370
25
 62
7
100
AcDbLine
 10
56.00824689577639
 20
-17.893212110413
 30
0.0
 11
57.32331705192102
 21
-16.57814195426837
 31
0.0
  0
LINE
  5
80D
330
1F
100
AcDbEntity
  8
2
  6
CONTINUOUS
370
25
 62
7
100
AcDbLine
 10
55.41544511854848
 20
-18.06174981892897
 30
0.0
 11
57.17937176571409
 21
-16.29782317176335
 31
0.0
  0
LINE
  5
80E
330
1F
100
AcDbEntity
  8
2
  6
CONTINUOUS
370
25
 62
7
100
AcDbLine
 10
54.82264334132058
 20
-18.23028752744494
 30
0.0
 11
57.03542647950717
 21
-16.01750438925834
 31
0.0
  0
LINE
  5
80F
330
1F
100
AcDbEntity
  8
2
  6
CONTINUOUS
370
25
 62
7
100
AcDbLine
 10
54.22984156409269
 20
-18.39882523596091
 30
0.0
 11
56.89148119330025
 21
-15.73718560675334
 31
0.0
  0
LINE
  5
810
330
1F
100
AcDbEntity
  8
2
  6
CONTINUOUS
370
25
 62
7
100
AcDbLine
 10
53.63703978686478
 20
-18.56736294447688
 30
0.0
 11
55.62392637824859
 21
-16.58047635309307
 31
0.0
  0
LINE
  5
811
330
1F
100
AcDbEntity
  8
2
  6
CONTINUOUS
370
25
 62
7
100
AcDbLine
 10
53.04423800963688
 20
-18.73590065299285
 30
0.0
 11
53.55262181959919
 21
-18.22751684303054
 31
0.0
  0
LINE
  5
812
330
1F
100
AcDbEntity
  8
2
  6
CONTINUOUS
370
25
 62
7
100
AcDbLine
 10
53.01801223398158
 20
-18.65262266831537
 30
0.0
 11
53.08866057215521
 21
-18.72327100648899
 31
0.0
  0
LINE
  5
813
330
1F
100
AcDbEntity
  8
2
  6
CONTINUOUS
370
25
 62
7
100
AcDbLine
 10
53.25434858472669
 20
-18.46469495034854
 30
0.0
 11
53.41900531146771
 21
-18.62935167708957
 31
0.0
  0
LINE
  5
814
330
1F
100
AcDbEntity
  8
2
  6
CONTINUOUS
370
25
 62
7
100
AcDbLine
 10
53.49068493547179
 20
-18.27676723238172
 30
0.0
 11
53.7493500507802
 21
-18.53543234769013
 31
0.0
  0
LINE
  5
815
330
1F
100
AcDbEntity
  8
2
  6
CONTINUOUS
370
25
 62
7
100
AcDbLine
 10
53.7270212862169
 20
-18.0888395144149
 30
0.0
 11
54.07969479009271
 21
-18.44151301829071
 31
0.0
  0
LINE
  5
816
330
1F
100
AcDbEntity
  8
2
  6
CONTINUOUS
370
25
 62
7
100
AcDbLine
 10
53.96335763696202
 20
-17.90091179644808
 30
0.0
 11
54.41003952940521
 21
-18.34759368889127
 31
0.0
  0
LINE
  5
817
330
1F
100
AcDbEntity
  8
2
  6
CONTINUOUS
370
25
 62
7
100
AcDbLine
 10
54.19969398770713
 20
-17.71298407848126
 30
0.0
 11
54.7403842687177
 21
-18.25367435949184
 31
0.0
  0
LINE
  5
818
330
1F
100
AcDbEntity
  8
2
  6
CONTINUOUS
370
25
 62
7
100
AcDbLine
 10
54.43603033845223
 20
-17.52505636051443
 30
0.0
 11
55.07072900803021
 21
-18.15975503009241
 31
0.0
  0
LINE
  5
819
330
1F
100
AcDbEntity
  8
2
  6
CONTINUOUS
370
25
 62
7
100
AcDbLine
 10
54.67236668919734
 20
-17.33712864254761
 30
0.0
 11
55.40107374734271
 21
-18.06583570069299
 31
0.0
  0
LINE
  5
81A
330
1F
100
AcDbEntity
  8
2
  6
CONTINUOUS
370
25
 62
7
100
AcDbLine
 10
54.90870303994245
 20
-17.14920092458079
 30
0.0
 11
55.73141848665522
 21
-17.97191637129355
 31
0.0
  0
LINE
  5
81B
330
1F
100
AcDbEntity
  8
2
  6
CONTINUOUS
370
25
 62
7
100
AcDbLine
 10
55.14503939068756
 20
-16.96127320661397
 30
0.0
 11
56.06176322596772
 21
-17.87799704189413
 31
0.0
  0
LINE
  5
81C
330
1F
100
AcDbEntity
  8
2
  6
CONTINUOUS
370
25
 62
7
100
AcDbLine
 10
55.38137574143266
 20
-16.77334548864714
 30
0.0
 11
56.39210796528022
 21
-17.7840777124947
 31
0.0
  0
LINE
  5
81D
330
1F
100
AcDbEntity
  8
2
  6
CONTINUOUS
370
25
 62
7
100
AcDbLine
 10
55.61771209217778
 20
-16.58541777068032
 30
0.0
 11
56.72245270459272
 21
-17.69015838309527
 31
0.0
  0
LINE
  5
81E
330
1F
100
AcDbEntity
  8
2
  6
CONTINUOUS
370
25
 62
7
100
AcDbLine
 10
55.85404844292289
 20
-16.3974900527135
 30
0.0
 11
57.05279744390523
 21
-17.59623905369584
 31
0.0
  0
LINE
  5
81F
330
1F
100
AcDbEntity
  8
2
  6
CONTINUOUS
370
25
 62
7
100
AcDbLine
 10
56.090384793668
 20
-16.20956233474669
 30
0.0
 11
57.38314218321772
 21
-17.50231972429641
 31
0.0
  0
LINE
  5
820
330
1F
100
AcDbEntity
  8
2
  6
CONTINUOUS
370
25
 62
7
100
AcDbLine
 10
56.32672114441311
 20
-16.02163461677986
 30
0.0
 11
57.71348692253022
 21
-17.40840039489698
 31
0.0
  0
LINE
  5
821
330
1F
100
AcDbEntity
  8
2
  6
CONTINUOUS
370
25
 62
7
100
AcDbLine
 10
56.56305749515821
 20
-15.83370689881303
 30
0.0
 11
57.3400201682275
 21
-16.61066957188232
 31
0.0
  0
LINE
  5
822
330
1F
100
AcDbEntity
  8
2
  6
CONTINUOUS
370
25
 62
7
100
AcDbLine
 10
56.79939384590332
 20
-15.64577918084621
 30
0.0
 11
56.89219992121581
 21
-15.73858525615869
 31
0.0
  0
TEXT
  5
823
330
1F
100
AcDbEntity
  8
2
  6
CONTINUOUS
370
25
 62
7
100
AcDbText
 10
63.5
 20
-4.958333333333333
 30
0.0
 40
3.5
  1
140°
 50
90.0
 72
     1
 11
63.5
 21
0.0
 31
0.0
100
AcDbText
  0
LINE
  5
824
330
1F
100
AcDbEntity
  8
SK1
  6
CONTINUOUS
370
50
 62
4
100
AcDbLine
 10
0.0
 20
0.0
 30
0.0
 11
2.5
 21
0.0
 31
0.0
  0
LINE
  5
825
330
1F
100
AcDbEntity
  8
SK1
  6
CONTINUOUS
370
50
 62
4
100
AcDbLine
 10
0.0
 20
0.0
 30
0.0
 11
0.0
 21
2.5
 31
0.0
  0
ARC
  5
826
330
1F
100
AcDbEntity
  8
SK1
  6
CONTINUOUS
370
50
 62
4
100
AcDbCircle
 10
0.0
 20
0.0
 30
0.0
 40
2.5
100
AcDbArc
 50
0.0
 51
90.0
  0
LINE
  5
827
330
1F
100
AcDbEntity
  8
SK1
  6
CONTINUOUS
370
50
 62
4
100
AcDbLine
 10
0.0
 20
0.0
 30
0.0
 11
-2.5
 21
0.0
 31
0.0
  0
ARC
  5
828
330
1F
100
AcDbEntity
  8
SK1
  6
CONTINUOUS
370
50
 62
4
100
AcDbCircle
 10
0.0
 20
0.0
 30
0.0
 40
2.5
100
AcDbArc
 50
180.0
 51
270.0
  0
LINE
  5
829
330
1F
100
AcDbEntity
  8
SK1
  6
CONTINUOUS
370
50
 62
4
100
AcDbLine
 10
0.0
 20
-2.5
 30
0.0
 11
0.0
 21
0.0
 31
0.0
  0
ARC
  5
82A
330
1F
100
AcDbEntity
  8
SK1
  6
CONTINUOUS
370
50
 62
4
100
AcDbCircle
 10
0.0
 20
0.0
 30
0.0
 40
2.5
100
AcDbArc
 50
270.0
 51
0.0
  0
ARC
  5
82B
330
1F
100
AcDbEntity
  8
SK1
  6
CONTINUOUS
370
50
 62
4
100
AcDbCircle
 10
0.0
 20
0.0
 30
0.0
 40
2.5
100
AcDbArc
 50
90.0
 51
180.0
  0
LINE
  5
82C
330
1F
100
AcDbEntity
  8
SK1
  6
CONTINUOUS
370
50
 62
4
100
AcDbLine
 10
-0.31832627443191
 20
-2.479495909600069
 30
0.0
 11
0.0
 21
-2.161169635168159
 31
0.0
  0
LINE
  5
82D
330
1F
100
AcDbEntity
  8
SK1
  6
CONTINUOUS
370
50
 62
4
100
AcDbLine
 10
2.16116963516816
 20
0.0
 30
0.0
 11
2.479495909600069
 21
0.3183262744319091
 31
0.0
  0
LINE
  5
82E
330
1F
100
AcDbEntity
  8
SK1
  6
CONTINUOUS
370
50
 62
4
100
AcDbLine
 10
-0.615281817185723
 20
-2.422898061760609
 30
0.0
 11
0.0
 21
-1.807616244574886
 31
0.0
  0
LINE
  5
82F
330
1F
100
AcDbEntity
  8
SK1
  6
CONTINUOUS
370
50
 62
4
100
AcDbLine
 10
1.807616244574887
 20
0.0
 30
0.0
 11
2.422898061760609
 21
0.6152818171857222
 31
0.0
  0
LINE
  5
830
330
1F
100
AcDbEntity
  8
SK1
  6
CONTINUOUS
370
50
 62
4
100
AcDbLine
 10
-0.8835965231639721
 20
-2.337659377145585
 30
0.0
 11
0.0
 21
-1.454062853981614
 31
0.0
  0
LINE
  5
831
330
1F
100
AcDbEntity
  8
SK1
  6
CONTINUOUS
370
50
 62
4
100
AcDbLine
 10
1.454062853981615
 20
0.0
 30
0.0
 11
2.337659377145586
 21
0.8835965231639715
 31
0.0
  0
LINE
  5
832
330
1F
100
AcDbEntity
  8
SK1
  6
CONTINUOUS
370
50
 62
4
100
AcDbLine
 10
-1.128779664263143
 20
-2.229289127651483
 30
0.0
 11
0.0
 21
-1.100509463388341
 31
0.0
  0
LINE
  5
833
330
1F
100
AcDbEntity
  8
SK1
  6
CONTINUOUS
370
50
 62
4
100
AcDbLine
 10
1.100509463388341
 20
0.0
 30
0.0
 11
2.229289127651484
 21
1.128779664263142
 31
0.0
  0
LINE
  5
834
330
1F
100
AcDbEntity
  8
SK1
  6
CONTINUOUS
370
50
 62
4
100
AcDbLine
 10
-1.354032791010379
 20
-2.100988863805446
 30
0.0
 11
0.0
 21
-0.7469560727950677
 31
0.0
  0
LINE
  5
835
330
1F
100
AcDbEntity
  8
SK1
  6
CONTINUOUS
370
50
 62
4
100
AcDbLine
 10
0.746956072795068
 20
0.0
 30
0.0
 11
2.100988863805446
 21
1.354032791010378
 31
0.0
  0
LINE
  5
836
330
1F
100
AcDbEntity
  8
SK1
  6
CONTINUOUS
370
50
 62
4
100
AcDbLine
 10
-1.559387394659872
 20
-1.952790076861666
 30
0.0
 11
0.0
 21
-0.3934026822017946
 31
0.0
  0
LINE
  5
837
330
1F
100
AcDbEntity
  8
SK1
  6
CONTINUOUS
370
50
 62
4
100
AcDbLine
 10
0.3934026822017948
 20
0.0
 30
0.0
 11
1.952790076861667
 21
1.559387394659871
 31
0.0
  0
LINE
  5
838
330
1F
100
AcDbEntity
  8
SK1
  6
CONTINUOUS
370
50
 62
4
100
AcDbLine
 10
-1.746970020883365
 20
-1.786819312491886
 30
0.0
 11
0.0
 21
-0.0398492916085216
 31
0.0
  0
LINE
  5
839
330
1F
100
AcDbEntity
  8
SK1
  6
CONTINUOUS
370
50
 62
4
100
AcDbLine
 10
0.0398492916085216
 20
0.0
 30
0.0
 11
1.786819312491887
 21
1.746970020883364
 31
0.0
  0
LINE
  5
83A
330
1F
100
AcDbEntity
  8
SK1
  6
CONTINUOUS
370
50
 62
4
100
AcDbLine
 10
-1.917371878232655
 20
-1.603667779247902
 30
0.0
 11
-0.3137040989847517
 21
0.0
 31
0.0
  0
LINE
  5
83B
330
1F
100
AcDbEntity
  8
SK1
  6
CONTINUOUS
370
50
 62
4
100
AcDbLine
 10
0.0
 20
0.3137040989847515
 30
0.0
 11
1.603667779247903
 21
1.917371878232654
 31
0.0
  0
LINE
  5
83C
330
1F
100
AcDbEntity
  8
SK1
  6
CONTINUOUS
370
50
 62
4
100
AcDbLine
 10
-2.068741231122433
 20
-1.401483741544407
 30
0.0
 11
-0.6672574895780249
 21
0.0
 31
0.0
  0
LINE
  5
83D
330
1F
100
AcDbEntity
  8
SK1
  6
CONTINUOUS
370
50
 62
4
100
AcDbLine
 10
0.0
 20
0.6672574895780246
 30
0.0
 11
1.401483741544409
 21
2.068741231122432
 31
0.0
  0
LINE
  5
83E
330
1F
100
AcDbEntity
  8
SK1
  6
CONTINUOUS
370
50
 62
4
100
AcDbLine
 10
-2.2023876557675
 20
-1.181576775596201
 30
0.0
 11
-1.020810880171298
 21
0.0
 31
0.0
  0
LINE
  5
83F
330
1F
100
AcDbEntity
  8
SK1
  6
CONTINUOUS
370
50
 62
4
100
AcDbLine
 10
0.0
 20
1.020810880171298
 30
0.0
 11
1.181576775596202
 21
2.202387655767499
 31
0.0
  0
LINE
  5
840
330
1F
100
AcDbEntity
  8
SK1
  6
CONTINUOUS
370
50
 62
4
100
AcDbLine
 10
-2.315450943493525
 20
-0.9410866727289533
 30
0.0
 11
-1.374364270764571
 21
0.0
 31
0.0
  0
LINE
  5
841
330
1F
100
AcDbEntity
  8
SK1
  6
CONTINUOUS
370
50
 62
4
100
AcDbLine
 10
0.0
 20
1.374364270764571
 30
0.0
 11
0.9410866727289543
 21
2.315450943493524
 31
0.0
  0
LINE
  5
842
330
1F
100
AcDbEntity
  8
SK1
  6
CONTINUOUS
370
50
 62
4
100
AcDbLine
 10
-2.405290600131854
 20
-0.6773729387740097
 30
0.0
 11
-1.727917661357844
 21
0.0
 31
0.0
  0
LINE
  5
843
330
1F
100
AcDbEntity
  8
SK1
  6
CONTINUOUS
370
50
 62
4
100
AcDbLine
 10
0.0
 20
1.727917661357844
 30
0.0
 11
0.6773729387740106
 21
2.405290600131854
 31
0.0
  0
LINE
  5
844
330
1F
100
AcDbEntity
  8
SK1
  6
CONTINUOUS
370
50
 62
4
100
AcDbLine
 10
-2.468598823056026
 20
-0.3871277711049084
 30
0.0
 11
-2.081471051951118
 21
0.0
 31
0.0
  0
LINE
  5
845
330
1F
100
AcDbEntity
  8
SK1
  6
CONTINUOUS
370
50
 62
4
100
AcDbLine
 10
0.0
 20
2.081471051951117
 30
0.0
 11
0.3871277711049085
 21
2.468598823056025
 31
0.0
  0
LINE
  5
846
330
1F
100
AcDbEntity
  8
SK1
  6
CONTINUOUS
370
50
 62
4
100
AcDbLine
 10
-2.498020276172772
 20
-0.0629958336283822
 30
0.0
 11
-2.43502444254439
 21
0.0
 31
0.0
  0
LINE
  5
847
330
1F
100
AcDbEntity
  8
SK1
  6
CONTINUOUS
370
50
 62
4
100
AcDbLine
 10
0.0
 20
2.435024442544389
 30
0.0
 11
0.0629958336283828
 21
2.498020276172772
 31
0.0
  0
LINE
  5
848
330
1F
100
AcDbEntity
  8
SK1
  6
CONTINUOUS
370
50
 62
4
100
AcDbLine
 10
-2.337336523620827
 20
-0.8844932833271533
 30
0.0
 11
-0.8844932833271509
 21
-2.337336523620827
 31
0.0
  0
LINE
  5
849
330
1F
100
AcDbEntity
  8
SK1
  6
CONTINUOUS
370
50
 62
4
100
AcDbLine
 10
-2.466237059966593
 20
-0.4020393563881135
 30
0.0
 11
-0.4020393563881111
 21
-2.466237059966594
 31
0.0
  0
LINE
  5
84A
330
1F
100
AcDbEntity
  8
SK1
  6
CONTINUOUS
370
50
 62
4
100
AcDbLine
 10
-2.499522297881596
 20
-0.0152007278798383
 30
0.0
 11
-0.0152007278798351
 21
-2.499522297881596
 31
0.0
  0
LINE
  5
84B
330
1F
100
AcDbEntity
  8
SK1
  6
CONTINUOUS
370
50
 62
4
100
AcDbLine
 10
-2.16116963516816
 20
0.0
 30
0.0
 11
0.0
 21
-2.161169635168158
 31
0.0
  0
LINE
  5
84C
330
1F
100
AcDbEntity
  8
SK1
  6
CONTINUOUS
370
50
 62
4
100
AcDbLine
 10
-1.807616244574888
 20
0.0
 30
0.0
 11
0.0
 21
-1.807616244574886
 31
0.0
  0
LINE
  5
84D
330
1F
100
AcDbEntity
  8
SK1
  6
CONTINUOUS
370
50
 62
4
100
AcDbLine
 10
-1.454062853981615
 20
0.0
 30
0.0
 11
0.0
 21
-1.454062853981613
 31
0.0
  0
LINE
  5
84E
330
1F
100
AcDbEntity
  8
SK1
  6
CONTINUOUS
370
50
 62
4
100
AcDbLine
 10
-1.100509463388341
 20
0.0
 30
0.0
 11
0.0
 21
-1.10050946338834
 31
0.0
  0
LINE
  5
84F
330
1F
100
AcDbEntity
  8
SK1
  6
CONTINUOUS
370
50
 62
4
100
AcDbLine
 10
-0.7469560727950676
 20
0.0
 30
0.0
 11
0.0
 21
-0.7469560727950668
 31
0.0
  0
LINE
  5
850
330
1F
100
AcDbEntity
  8
SK1
  6
CONTINUOUS
370
50
 62
4
100
AcDbLine
 10
-0.3934026822017942
 20
0.0
 30
0.0
 11
0.0
 21
-0.3934026822017938
 31
0.0
  0
LINE
  5
851
330
1F
100
AcDbEntity
  8
SK1
  6
CONTINUOUS
370
50
 62
4
100
AcDbLine
 10
-0.0398492916085216
 20
0.0
 30
0.0
 11
0.0
 21
-0.0398492916085216
 31
0.0
  0
LINE
  5
852
330
1F
100
AcDbEntity
  8
SK1
  6
CONTINUOUS
370
50
 62
4
100
AcDbLine
 10
0.0
 20
0.3137040989847515
 30
0.0
 11
0.3137040989847518
 21
0.0
 31
0.0
  0
LINE
  5
853
330
1F
100
AcDbEntity
  8
SK1
  6
CONTINUOUS
370
50
 62
4
100
AcDbLine
 10
0.0
 20
0.6672574895780246
 30
0.0
 11
0.6672574895780253
 21
0.0
 31
0.0
  0
LINE
  5
854
330
1F
100
AcDbEntity
  8
SK1
  6
CONTINUOUS
370
50
 62
4
100
AcDbLine
 10
0.0
 20
1.020810880171298
 30
0.0
 11
1.020810880171299
 21
0.0
 31
0.0
  0
LINE
  5
855
330
1F
100
AcDbEntity
  8
SK1
  6
CONTINUOUS
370
50
 62
4
100
AcDbLine
 10
0.0
 20
1.37436427076457
 30
0.0
 11
1.374364270764571
 21
0.0
 31
0.0
  0
LINE
  5
856
330
1F
100
AcDbEntity
  8
SK1
  6
CONTINUOUS
370
50
 62
4
100
AcDbLine
 10
0.0
 20
1.727917661357843
 30
0.0
 11
1.727917661357845
 21
0.0
 31
0.0
  0
LINE
  5
857
330
1F
100
AcDbEntity
  8
SK1
  6
CONTINUOUS
370
50
 62
4
100
AcDbLine
 10
0.0
 20
2.081471051951116
 30
0.0
 11
2.081471051951118
 21
0.0
 31
0.0
  0
LINE
  5
858
330
1F
100
AcDbEntity
  8
SK1
  6
CONTINUOUS
370
50
 62
4
100
AcDbLine
 10
0.0
 20
2.435024442544389
 30
0.0
 11
2.435024442544392
 21
0.0
 31
0.0
  0
LINE
  5
859
330
1F
100
AcDbEntity
  8
SK1
  6
CONTINUOUS
370
50
 62
4
100
AcDbLine
 10
0.3077647139123103
 20
2.480813119225352
 30
0.0
 11
2.480813119225352
 21
0.307764713912313
 31
0.0
  0
LINE
  5
85A
330
1F
100
AcDbEntity
  8
SK1
  6
CONTINUOUS
370
50
 62
4
100
AcDbLine
 10
0.7611924397506667
 20
2.380938783980268
 30
0.0
 11
2.380938783980268
 21
0.7611924397506691
 31
0.0
  0
LINE
  5
85B
330
1F
100
AcDbEntity
  8
SK1
  6
CONTINUOUS
370
50
 62
4
100
AcDbLine
 10
1.48586376213526
 20
2.009820852188948
 30
0.0
 11
2.009820852188946
 21
1.485863762135263
 31
0.0
  0
ARC
  5
85C
330
1F
100
AcDbEntity
  8
SK6
  6
CONTINUOUS
370
25
 62
5
100
AcDbCircle
 10
78.7613710083765
 20
-35.34523475338786
 30
0.0
 40
2.76048912849221
100
AcDbArc
 50
338.9379403434233
 51
90.44457437511365
  0
LINE
  5
85D
330
1F
100
AcDbEntity
  8
SK6
  6
CONTINUOUS
370
25
 62
5
100
AcDbLine
 10
78.73995179695983
 20
-32.58482872421281
 30
0.0
 11
78.73995179695983
 21
-33.68788735613464
 31
0.0
  0
ARC
  5
85E
330
1F
100
AcDbEntity
  8
SK6
  6
CONTINUOUS
370
25
 62
5
100
AcDbCircle
 10
78.75049802936915
 20
-35.36522824566821
 30
0.0
 40
1.677374043771779
100
AcDbArc
 50
243.4214706017868
 51
90.36024081226083
  0
ARC
  5
85F
330
1F
100
AcDbEntity
  8
SK6
  6
CONTINUOUS
370
25
 62
5
100
AcDbCircle
 10
81.27274889684958
 20
-34.9338209921556
 30
0.0
 40
3.800217030022762
100
AcDbArc
 50
210.548373128854
 51
236.97801693668
  0
LINE
  5
860
330
1F
100
AcDbEntity
  8
SK6
  6
CONTINUOUS
370
25
 62
5
100
AcDbLine
 10
79.20177968512486
 20
-38.12015681867535
 30
0.0
 11
83.34371996742671
 21
-38.12015681867535
 31
0.0
  0
ARC
  5
861
330
1F
100
AcDbEntity
  8
SK6
  6
CONTINUOUS
370
25
 62
5
100
AcDbCircle
 10
81.27275083877257
 20
-34.93382109373459
 30
0.0
 40
3.800216899582478
100
AcDbArc
 50
303.0219828477958
 51
326.3732153033476
  0
LINE
  5
862
330
1F
100
AcDbEntity
  8
SK6
  6
CONTINUOUS
370
25
 62
5
100
AcDbLine
 10
84.43704875135722
 20
-37.0383084907709
 30
0.0
 11
81.07975070575462
 21
-37.0383084907709
 31
0.0
  0
LINE
  5
863
330
1F
100
AcDbEntity
  8
SK6
  6
CONTINUOUS
370
25
 62
5
100
AcDbLine
 10
81.07975070575462
 20
-37.0383084907709
 30
0.0
 11
84.99961009771987
 21
-35.67690729641694
 31
0.0
  0
ARC
  5
864
330
1F
100
AcDbEntity
  8
SK6
  6
CONTINUOUS
370
25
 62
5
100
AcDbCircle
 10
81.27275156157211
 20
-34.9338216048594
 30
0.0
 40
3.800217216614723
100
AcDbArc
 50
348.7238644184695
 51
53.4691051260885
  0
LINE
  5
865
330
1F
100
AcDbEntity
  8
SK6
  6
CONTINUOUS
370
25
 62
5
100
AcDbLine
 10
83.53485424538545
 20
-31.88021024429967
 30
0.0
 11
81.33743947882736
 21
-36.33729873507058
 31
0.0
  0
LINE
  5
866
330
1F
100
AcDbEntity
  8
INFTOTAL
  6
CONTINUOUS
370
18
 62
9
100
AcDbLine
 10
-80.30001100000001
 20
-49.50001100000001
 30
0.0
 11
96.80001100000001
 21
-49.50001100000001
 31
0.0
  0
LINE
  5
867
330
1F
100
AcDbEntity
  8
INFTOTAL
  6
CONTINUOUS
370
18
 62
9
100
AcDbLine
 10
96.80001100000001
 20
-49.50001100000001
 30
0.0
 11
96.80001100000001
 21
49.50001100000001
 31
0.0
  0
LINE
  5
868
330
1F
100
AcDbEntity
  8
INFTOTAL
  6
CONTINUOUS
370
18
 62
9
100
AcDbLine
 10
96.80001100000001
 20
49.50001100000001
 30
0.0
 11
-80.30001100000001
 21
49.50001100000001
 31
0.0
  0
LINE
  5
869
330
1F
100
AcDbEntity
  8
INFTOTAL
  6
CONTINUOUS
370
18
 62
9
100
AcDbLine
 10
-80.30001100000001
 20
49.50001100000001
 30
0.0
 11
-80.30001100000001
 21
-49.50001100000001
 31
0.0
  0
ENDSEC
  0
SECTION
  2
OBJECTS
  0
DICTIONARY
  5
C
330
0
100
AcDbDictionary
281
     1
  3
ACAD_GROUP
350
D
  3
ACAD_LAYOUT
350
1A
  3
ACAD_MATERIAL
350
3B
  3
ACAD_MLEADERSTYLE
350
86C
  3
ACAD_MLINESTYLE
350
17
  3
ACAD_PLOTSETTINGS
350
19
  3
ACAD_PLOTSTYLENAME
350
E
  3
ACAD_SCALELIST
350
26D
  3
ACAD_VISUALSTYLE
350
2A
  3
AcDbVariableDictionary
350
86A
  0
DICTIONARY
  5
D
102
{ACAD_REACTORS
330
C
102
}
330
C
100
AcDbDictionary
281
     1
  0
DICTIONARY
  5
1A
102
{ACAD_REACTORS
330
C
102
}
330
C
100
AcDbDictionary
281
     1
  3
Layout1
350
1E
  3
Layout2
350
26
  3
Model
350
22
  0
DICTIONARY
  5
3B
102
{ACAD_REACTORS
330
C
102
}
330
C
100
AcDbDictionary
281
     1
  3
ByBlock
350
3D
  3
ByLayer
350
3C
  3
Global
350
3E
  0
DICTIONARY
  5
86C
102
{ACAD_REACTORS
330
C
102
}
330
C
100
AcDbDictionary
281
     1
  0
DICTIONARY
  5
17
102
{ACAD_REACTORS
330
C
102
}
330
C
100
AcDbDictionary
281
     1
  3
Standard
350
18
  0
DICTIONARY
  5
19
102
{ACAD_REACTORS
330
C
102
}
330
C
100
AcDbDictionary
281
     1
  0
ACDBDICTIONARYWDFLT
  5
E
102
{ACAD_REACTORS
330
C
102
}
330
C
100
AcDbDictionary
281
     1
  3
Normal
350
F
100
AcDbDictionaryWithDefault
340
F
  0
DICTIONARY
  5
26D
102
{ACAD_REACTORS
330
C
102
}
330
C
100
AcDbDictionary
281
     1
  3
A0
350
26E
  3
A1
350
26F
  3
A2
350
270
  3
A3
350
271
  3
A4
350
272
  3
A5
350
273
  3
A6
350
274
  3
A7
350
275
  3
A8
350
276
  3
A9
350
277
  3
B0
350
278
  3
B1
350
279
  3
B2
350
27A
  3
B3
350
27B
  3
B4
350
27C
  3
B5
350
27D
  3
B6
350
27E
  3
B7
350
27F
  3
B8
350
280
  3
B9
350
281
  3
C0
350
282
  3
C1
350
283
  3
C2
350
284
  3
C3
350
285
  3
C4
350
286
  3
C5
350
287
  3
C6
350
288
  3
C7
350
289
  3
C8
350
28A
  3
C9
350
28B
  3
D0
350
28C
  3
D1
350
28D
  3
D2
350
28E
  0
DICTIONARY
  5
2A
102
{ACAD_REACTORS
330
C
102
}
330
C
100
AcDbDictionary
281
     1
  3
2dWireframe
350
2F
  3
3D Hidden
350
31
  3
3dWireframe
350
30
  3
Basic
350
32
  3
Brighten
350
36
  3
ColorChange
350
3A
  3
Conceptual
350
34
  3
Dim
350
35
  3
Facepattern
350
39
  3
Flat
350
2B
  3
FlatWithEdges
350
2C
  3
Gouraud
350
2D
  3
GouraudWithEdges
350
2E
  3
Linepattern
350
38
  3
Realistic
350
33
  3
Thicken
350
37
  0
DICTIONARY
  5
86A
102
{ACAD_REACTORS
330
C
102
}
330
C
100
AcDbDictionary
281
     1
  3
CANNOSCALE
350
86F
  3
DIMASSOC
350
870
  3
HIDETEXT
350
871
  3
PSOLHEIGHT
350
86E
  3
PSOLWIDTH
350
86D
  0
LAYOUT
  5
1E
102
{ACAD_REACTORS
330
1A
102
}
330
1A
100
AcDbPlotSettings
  1

  2
none_device
  4

  6

 40
0.0
 41
0.0
 42
0.0
 43
0.0
 44
0.0
 45
0.0
 46
0.0
 47
0.0
 48
0.0
 49
0.0
140
0.0
141
0.0
142
1.0
143
1.0
 70
   688
 72
     0
 73
     0
 74
     5
  7

 75
    16
147
1.0
148
0.0
149
0.0
100
AcDbLayout
  1
Layout1
 70
     1
 71
     1
 10
0.0
 20
0.0
 11
420.0
 21
297.0
 12
0.0
 22
0.0
 32
0.0
 14
1.000000000000000E+20
 24
1.000000000000000E+20
 34
1.000000000000000E+20
 15
-1.000000000000000E+20
 25
-1.000000000000000E+20
 35
-1.000000000000000E+20
146
0.0
 13
0.0
 23
0.0
 33
0.0
 16
1.0
 26
0.0
 36
0.0
 17
0.0
 27
1.0
 37
0.0
 76
     0
330
1B
  0
LAYOUT
  5
26
102
{ACAD_REACTORS
330
1A
102
}
330
1A
100
AcDbPlotSettings
  1

  2
none_device
  4

  6

 40
0.0
 41
0.0
 42
0.0
 43
0.0
 44
0.0
 45
0.0
 46
0.0
 47
0.0
 48
0.0
 49
0.0
140
0.0
141
0.0
142
1.0
143
1.0
 70
   688
 72
     0
 73
     0
 74
     5
  7

 75
    16
147
1.0
148
0.0
149
0.0
100
AcDbLayout
  1
Layout2
 70
     1
 71
     2
 10
0.0
 20
0.0
 11
0.0
 21
0.0
 12
0.0
 22
0.0
 32
0.0
 14
0.0
 24
0.0
 34
0.0
 15
0.0
 25
0.0
 35
0.0
146
0.0
 13
0.0
 23
0.0
 33
0.0
 16
1.0
 26
0.0
 36
0.0
 17
0.0
 27
1.0
 37
0.0
 76
     0
330
23
  0
LAYOUT
  5
22
102
{ACAD_REACTORS
330
1A
102
}
330
1A
100
AcDbPlotSettings
  1

  2
none_device
  4

  6

 40
0.0
 41
0.0
 42
0.0
 43
0.0
 44
0.0
 45
0.0
 46
0.0
 47
0.0
 48
0.0
 49
0.0
140
0.0
141
0.0
142
1.0
143
1.0
 70
  1712
 72
     0
 73
     0
 74
     0
  7

 75
     0
147
1.0
148
0.0
149
0.0
100
AcDbLayout
  1
Model
 70
     1
 71
     0
 10
0.0
 20
0.0
 11
420.0
 21
297.0
 12
0.0
 22
0.0
 32
0.0
 14
0.0
 24
0.0
 34
0.0
 15
25.0
 25
35.0
 35
0.0
146
0.0
 13
0.0
 23
0.0
 33
0.0
 16
1.0
 26
0.0
 36
0.0
 17
0.0
 27
1.0
 37
0.0
 76
     0
330
1F
331
29
  0
MATERIAL
  5
3D
102
{ACAD_REACTORS
330
3B
102
}
102
{ACAD_XDICTIONARY
360
894
102
}
330
3B
100
AcDbMaterial
  1
ByBlock
  0
MATERIAL
  5
3C
102
{ACAD_REACTORS
330
3B
102
}
102
{ACAD_XDICTIONARY
360
892
102
}
330
3B
100
AcDbMaterial
  1
ByLayer
  0
MATERIAL
  5
3E
102
{ACAD_REACTORS
330
3B
102
}
102
{ACAD_XDICTIONARY
360
896
102
}
330
3B
100
AcDbMaterial
  1
Global
  0
MLINESTYLE
  5
18
102
{ACAD_REACTORS
330
17
102
}
330
17
100
AcDbMlineStyle
  2
Standard
 70
     0
  3

 62
   256
 51
90.0
 52
90.0
 71
     2
 49
0.5
 62
   256
  6
BYLAYER
 49
-0.5
 62
   256
  6
BYLAYER
  0
ACDBPLACEHOLDER
  5
F
102
{ACAD_REACTORS
330
E
102
}
330
E
  0
SCALE
  5
26E
102
{ACAD_REACTORS
330
26D
102
}
330
26D
100
AcDbScale
 70
     0
300
1:1
140
1.0
141
1.0
290
     1
  0
SCALE
  5
26F
102
{ACAD_REACTORS
330
26D
102
}
330
26D
100
AcDbScale
 70
     0
300
1:2
140
1.0
141
2.0
290
     0
  0
SCALE
  5
270
102
{ACAD_REACTORS
330
26D
102
}
330
26D
100
AcDbScale
 70
     0
300
1:4
140
1.0
141
4.0
290
     0
  0
SCALE
  5
271
102
{ACAD_REACTORS
330
26D
102
}
330
26D
100
AcDbScale
 70
     0
300
1:5
140
1.0
141
5.0
290
     0
  0
SCALE
  5
272
102
{ACAD_REACTORS
330
26D
102
}
330
26D
100
AcDbScale
 70
     0
300
1:8
140
1.0
141
8.0
290
     0
  0
SCALE
  5
273
102
{ACAD_REACTORS
330
26D
102
}
330
26D
100
AcDbScale
 70
     0
300
1:10
140
1.0
141
10.0
290
     0
  0
SCALE
  5
274
102
{ACAD_REACTORS
330
26D
102
}
330
26D
100
AcDbScale
 70
     0
300
1:16
140
1.0
141
16.0
290
     0
  0
SCALE
  5
275
102
{ACAD_REACTORS
330
26D
102
}
330
26D
100
AcDbScale
 70
     0
300
1:20
140
1.0
141
20.0
290
     0
  0
SCALE
  5
276
102
{ACAD_REACTORS
330
26D
102
}
330
26D
100
AcDbScale
 70
     0
300
1:30
140
1.0
141
30.0
290
     0
  0
SCALE
  5
277
102
{ACAD_REACTORS
330
26D
102
}
330
26D
100
AcDbScale
 70
     0
300
1:40
140
1.0
141
40.0
290
     0
  0
SCALE
  5
278
102
{ACAD_REACTORS
330
26D
102
}
330
26D
100
AcDbScale
 70
     0
300
1:50
140
1.0
141
50.0
290
     0
  0
SCALE
  5
279
102
{ACAD_REACTORS
330
26D
102
}
330
26D
100
AcDbScale
 70
     0
300
1:100
140
1.0
141
100.0
290
     0
  0
SCALE
  5
27A
102
{ACAD_REACTORS
330
26D
102
}
330
26D
100
AcDbScale
 70
     0
300
2:1
140
2.0
141
1.0
290
     0
  0
SCALE
  5
27B
102
{ACAD_REACTORS
330
26D
102
}
330
26D
100
AcDbScale
 70
     0
300
4:1
140
4.0
141
1.0
290
     0
  0
SCALE
  5
27C
102
{ACAD_REACTORS
330
26D
102
}
330
26D
100
AcDbScale
 70
     0
300
8:1
140
8.0
141
1.0
290
     0
  0
SCALE
  5
27D
102
{ACAD_REACTORS
330
26D
102
}
330
26D
100
AcDbScale
 70
     0
300
10:1
140
10.0
141
1.0
290
     0
  0
SCALE
  5
27E
102
{ACAD_REACTORS
330
26D
102
}
330
26D
100
AcDbScale
 70
     0
300
100:1
140
100.0
141
1.0
290
     0
  0
SCALE
  5
27F
102
{ACAD_REACTORS
330
26D
102
}
330
26D
100
AcDbScale
 70
     0
300
1/128" = 1'-0"
140
0.0078125
141
12.0
290
     0
  0
SCALE
  5
280
102
{ACAD_REACTORS
330
26D
102
}
330
26D
100
AcDbScale
 70
     0
300
1/64" = 1'-0"
140
0.015625
141
12.0
290
     0
  0
SCALE
  5
281
102
{ACAD_REACTORS
330
26D
102
}
330
26D
100
AcDbScale
 70
     0
300
1/32" = 1'-0"
140
0.03125
141
12.0
290
     0
  0
SCALE
  5
282
102
{ACAD_REACTORS
330
26D
102
}
330
26D
100
AcDbScale
 70
     0
300
1/16" = 1'-0"
140
0.0625
141
12.0
290
     0
  0
SCALE
  5
283
102
{ACAD_REACTORS
330
26D
102
}
330
26D
100
AcDbScale
 70
     0
300
3/32" = 1'-0"
140
0.09375
141
12.0
290
     0
  0
SCALE
  5
284
102
{ACAD_REACTORS
330
26D
102
}
330
26D
100
AcDbScale
 70
     0
300
1/8" = 1'-0"
140
0.125
141
12.0
290
     0
  0
SCALE
  5
285
102
{ACAD_REACTORS
330
26D
102
}
330
26D
100
AcDbScale
 70
     0
300
3/16" = 1'-0"
140
0.1875
141
12.0
290
     0
  0
SCALE
  5
286
102
{ACAD_REACTORS
330
26D
102
}
330
26D
100
AcDbScale
 70
     0
300
1/4" = 1'-0"
140
0.25
141
12.0
290
     0
  0
SCALE
  5
287
102
{ACAD_REACTORS
330
26D
102
}
330
26D
100
AcDbScale
 70
     0
300
3/8" = 1'-0"
140
0.375
141
12.0
290
     0
  0
SCALE
  5
288
102
{ACAD_REACTORS
330
26D
102
}
330
26D
100
AcDbScale
 70
     0
300
1/2" = 1'-0"
140
0.5
141
12.0
290
     0
  0
SCALE
  5
289
102
{ACAD_REACTORS
330
26D
102
}
330
26D
100
AcDbScale
 70
     0
300
3/4" = 1'-0"
140
0.75
141
12.0
290
     0
  0
SCALE
  5
28A
102
{ACAD_REACTORS
330
26D
102
}
330
26D
100
AcDbScale
 70
     0
300
1" = 1'-0"
140
1.0
141
12.0
290
     0
  0
SCALE
  5
28B
102
{ACAD_REACTORS
330
26D
102
}
330
26D
100
AcDbScale
 70
     0
300
1-1/2" = 1'-0"
140
1.5
141
12.0
290
     0
  0
SCALE
  5
28C
102
{ACAD_REACTORS
330
26D
102
}
330
26D
100
AcDbScale
 70
     0
300
3" = 1'-0"
140
3.0
141
12.0
290
     0
  0
SCALE
  5
28D
102
{ACAD_REACTORS
330
26D
102
}
330
26D
100
AcDbScale
 70
     0
300
6" = 1'-0"
140
6.0
141
12.0
290
     0
  0
SCALE
  5
28E
102
{ACAD_REACTORS
330
26D
102
}
330
26D
100
AcDbScale
 70
     0
300
1'-0" = 1'-0"
140
12.0
141
12.0
290
     0
  0
VISUALSTYLE
  5
2F
102
{ACAD_REACTORS
330
2A
102
}
102
{ACAD_XDICTIONARY
360
87A
102
}
330
2A
100
AcDbVisualStyle
  2
2dWireframe
 70
     4
 71
     0
 72
     2
 73
     0
 90
        0
 40
-0.6
 41
-30.0
 62
     5
 63
     7
 74
     1
 91
        4
 64
     7
 65
   257
 75
     1
175
     1
 42
1.0
 92
        0
 66
   257
 43
1.0
 76
     1
 77
     6
 78
     2
 67
     7
 79
     5
170
     0
171
     0
290
     0
174
     0
 93
        1
 44
0.0
173
     0
291
     0
 45
0.0
1001
ACAD
1000
AcDbSavedByObjectVersion
1070
     0
  0
VISUALSTYLE
  5
31
102
{ACAD_REACTORS
330
2A
102
}
102
{ACAD_XDICTIONARY
360
87E
102
}
330
2A
100
AcDbVisualStyle
  2
3D Hidden
 70
     6
 71
     1
 72
     2
 73
     2
 90
        0
 40
-0.6
 41
-30.0
 62
     5
 63
     7
 74
     2
 91
        2
 64
     7
 65
   257
 75
     2
175
     1
 42
40.0
 92
        0
 66
   257
 43
1.0
 76
     1
 77
     6
 78
     2
 67
     7
 79
     3
170
     0
171
     0
290
     0
174
     0
 93
        1
 44
0.0
173
     0
291
     0
 45
0.0
1001
ACAD
1000
AcDbSavedByObjectVersion
1070
     0
  0
VISUALSTYLE
  5
30
102
{ACAD_REACTORS
330
2A
102
}
102
{ACAD_XDICTIONARY
360
87C
102
}
330
2A
100
AcDbVisualStyle
  2
3dWireframe
 70
     5
 71
     0
 72
     2
 73
     0
 90
        0
 40
-0.6
 41
-30.0
 62
     5
 63
     7
 74
     1
 91
        4
 64
     7
 65
   257
 75
     1
175
     1
 42
1.0
 92
        0
 66
   257
 43
1.0
 76
     1
 77
     6
 78
     2
 67
     7
 79
     5
170
     0
171
     0
290
     0
174
     0
 93
        1
 44
0.0
173
     0
291
     0
 45
0.0
1001
ACAD
1000
AcDbSavedByObjectVersion
1070
     0
  0
VISUALSTYLE
  5
32
102
{ACAD_REACTORS
330
2A
102
}
102
{ACAD_XDICTIONARY
360
880
102
}
330
2A
100
AcDbVisualStyle
  2
Basic
 70
     7
 71
     1
 72
     0
 73
     1
 90
        0
 40
-0.6
 41
-30.0
 62
     5
 63
     7
 74
     0
 91
        4
 64
     7
 65
   257
 75
     1
175
     1
 42
1.0
 92
        8
 66
     7
 43
1.0
 76
     1
 77
     6
 78
     2
 67
     7
 79
     5
170
     0
171
     0
290
     0
174
     0
 93
        1
 44
0.0
173
     0
291
     1
 45
0.0
1001
ACAD
1000
AcDbSavedByObjectVersion
1070
     0
  0
VISUALSTYLE
  5
36
102
{ACAD_REACTORS
330
2A
102
}
102
{ACAD_XDICTIONARY
360
888
102
}
330
2A
100
AcDbVisualStyle
  2
Brighten
 70
    12
 71
     2
 72
     2
 73
     0
 90
        0
 40
-0.6
 41
-30.0
 62
     5
 63
     7
 74
     1
 91
        4
 64
     7
 65
   257
 75
     1
175
     1
 42
1.0
 92
        8
 66
     7
 43
1.0
 76
     1
 77
     6
 78
     2
 67
     7
 79
     5
170
     0
171
     0
290
     0
174
     0
 93
        1
 44
50.0
173
     0
291
     1
 45
0.0
1001
ACAD
1000
AcDbSavedByObjectVersion
1070
     0
  0
VISUALSTYLE
  5
3A
102
{ACAD_REACTORS
330
2A
102
}
102
{ACAD_XDICTIONARY
360
890
102
}
330
2A
100
AcDbVisualStyle
  2
ColorChange
 70
    16
 71
     2
 72
     2
 73
     3
 90
        0
 40
-0.6
 41
-30.0
 62
     5
 63
     8
 74
     1
 91
        4
 64
     7
 65
   257
 75
     1
175
     1
 42
1.0
 92
        8
 66
     8
 43
1.0
 76
     1
 77
     6
 78
     2
 67
     7
 79
     5
170
     0
171
     0
290
     0
174
     0
 93
        1
 44
0.0
173
     0
291
     1
 45
0.0
1001
ACAD
1000
AcDbSavedByObjectVersion
1070
     0
  0
VISUALSTYLE
  5
34
102
{ACAD_REACTORS
330
2A
102
}
102
{ACAD_XDICTIONARY
360
884
102
}
330
2A
100
AcDbVisualStyle
  2
Conceptual
 70
     9
 71
     3
 72
     2
 73
     0
 90
        0
 40
-0.6
 41
-30.0
 62
     5
 63
     7
 74
     2
 91
        2
 64
     7
 65
   257
 75
     1
175
     1
 42
40.0
 92
        8
 66
     7
 43
1.0
 76
     1
 77
     6
 78
     2
 67
     7
 79
     3
170
     0
171
     0
290
     0
174
     0
 93
        1
 44
0.0
173
     0
291
     0
 45
0.0
1001
ACAD
1000
AcDbSavedByObjectVersion
1070
     0
  0
VISUALSTYLE
  5
35
102
{ACAD_REACTORS
330
2A
102
}
102
{ACAD_XDICTIONARY
360
886
102
}
330
2A
100
AcDbVisualStyle
  2
Dim
 70
    11
 71
     2
 72
     2
 73
     0
 90
        0
 40
-0.6
 41
-30.0
 62
     5
 63
     7
 74
     1
 91
        4
 64
     7
 65
   257
 75
     1
175
     1
 42
1.0
 92
        8
 66
     7
 43
1.0
 76
     1
 77
     6
 78
     2
 67
     7
 79
     5
170
     0
171
     0
290
     0
174
     0
 93
        1
 44
-50.0
173
     0
291
     1
 45
0.0
1001
ACAD
1000
AcDbSavedByObjectVersion
1070
     0
  0
VISUALSTYLE
  5
39
102
{ACAD_REACTORS
330
2A
102
}
102
{ACAD_XDICTIONARY
360
88E
102
}
330
2A
100
AcDbVisualStyle
  2
Facepattern
 70
    15
 71
     2
 72
     2
 73
     0
 90
        0
 40
-0.6
 41
-30.0
 62
     5
 63
     7
 74
     1
 91
        4
 64
     7
 65
   257
 75
     1
175
     1
 42
1.0
 92
        8
 66
     7
 43
1.0
 76
     1
 77
     6
 78
     2
 67
     7
 79
     5
170
     0
171
     0
290
     0
174
     0
 93
        1
 44
0.0
173
     0
291
     1
 45
0.0
1001
ACAD
1000
AcDbSavedByObjectVersion
1070
     0
  0
VISUALSTYLE
  5
2B
102
{ACAD_REACTORS
330
2A
102
}
102
{ACAD_XDICTIONARY
360
872
102
}
330
2A
100
AcDbVisualStyle
  2
Flat
 70
     0
 71
     2
 72
     1
 73
     1
 90
        2
 40
-0.6
 41
30.0
 62
     5
 63
     7
 74
     0
 91
        4
 64
     7
 65
   257
 75
     1
175
     1
 42
1.0
 92
        8
 66
     7
 43
1.0
 76
     1
 77
     6
 78
     2
 67
     7
 79
     5
170
     0
171
     0
290
     0
174
     0
 93
       13
 44
0.0
173
     0
291
     1
 45
0.0
1001
ACAD
1000
AcDbSavedByObjectVersion
1070
     0
  0
VISUALSTYLE
  5
2C
102
{ACAD_REACTORS
330
2A
102
}
102
{ACAD_XDICTIONARY
360
874
102
}
330
2A
100
AcDbVisualStyle
  2
FlatWithEdges
 70
     1
 71
     2
 72
     1
 73
     1
 90
        2
 40
-0.6
 41
30.0
 62
     5
 63
     7
 74
     1
 91
        4
 64
     7
 65
   257
 75
     1
175
     1
 42
1.0
 92
        0
 66
   257
 43
1.0
 76
     1
 77
     6
 78
     2
 67
     7
 79
     5
170
     0
171
     0
290
     0
174
     0
 93
       13
 44
0.0
173
     0
291
     1
 45
0.0
1001
ACAD
1000
AcDbSavedByObjectVersion
1070
     0
  0
VISUALSTYLE
  5
2D
102
{ACAD_REACTORS
330
2A
102
}
102
{ACAD_XDICTIONARY
360
876
102
}
330
2A
100
AcDbVisualStyle
  2
Gouraud
 70
     2
 71
     2
 72
     2
 73
     1
 90
        2
 40
-0.6
 41
30.0
 62
     5
 63
     7
 74
     0
 91
        4
 64
     7
 65
   257
 75
     1
175
     1
 42
1.0
 92
        0
 66
     7
 43
1.0
 76
     1
 77
     6
 78
     2
 67
     7
 79
     5
170
     0
171
     0
290
     0
174
     0
 93
       13
 44
0.0
173
     0
291
     1
 45
0.0
1001
ACAD
1000
AcDbSavedByObjectVersion
1070
     0
  0
VISUALSTYLE
  5
2E
102
{ACAD_REACTORS
330
2A
102
}
102
{ACAD_XDICTIONARY
360
878
102
}
330
2A
100
AcDbVisualStyle
  2
GouraudWithEdges
 70
     3
 71
     2
 72
     2
 73
     1
 90
        2
 40
-0.6
 41
30.0
 62
     5
 63
     7
 74
     1
 91
        4
 64
     7
 65
   257
 75
     1
175
     1
 42
1.0
 92
        0
 66
   257
 43
1.0
 76
     1
 77
     6
 78
     2
 67
     7
 79
     5
170
     0
171
     0
290
     0
174
     0
 93
       13
 44
0.0
173
     0
291
     1
 45
0.0
1001
ACAD
1000
AcDbSavedByObjectVersion
1070
     0
  0
VISUALSTYLE
  5
38
102
{ACAD_REACTORS
330
2A
102
}
102
{ACAD_XDICTIONARY
360
88C
102
}
330
2A
100
AcDbVisualStyle
  2
Linepattern
 70
    14
 71
     2
 72
     2
 73
     0
 90
        0
 40
-0.6
 41
-30.0
 62
     5
 63
     7
 74
     1
 91
        4
 64
     7
 65
   257
 75
     7
175
     7
 42
1.0
 92
        8
 66
     7
 43
1.0
 76
     1
 77
     6
 78
     2
 67
     7
 79
     5
170
     0
171
     0
290
     0
174
     0
 93
        1
 44
0.0
173
     0
291
     1
 45
0.0
1001
ACAD
1000
AcDbSavedByObjectVersion
1070
     0
  0
VISUALSTYLE
  5
33
102
{ACAD_REACTORS
330
2A
102
}
102
{ACAD_XDICTIONARY
360
882
102
}
330
2A
100
AcDbVisualStyle
  2
Realistic
 70
     8
 71
     2
 72
     2
 73
     0
 90
        0
 40
-0.6
 41
-30.0
 62
     5
 63
     7
 74
     1
 91
        0
 64
     7
 65
   257
 75
     1
175
     1
 42
1.0
 92
        8
 66
     8
 43
1.0
 76
     1
 77
     6
 78
     2
 67
     7
 79
     5
170
     0
171
     0
290
     0
174
     0
 93
       13
 44
0.0
173
     0
291
     0
 45
0.0
1001
ACAD
1000
AcDbSavedByObjectVersion
1070
     0
  0
VISUALSTYLE
  5
37
102
{ACAD_REACTORS
330
2A
102
}
102
{ACAD_XDICTIONARY
360
88A
102
}
330
2A
100
AcDbVisualStyle
  2
Thicken
 70
    13
 71
     2
 72
     2
 73
     0
 90
        0
 40
-0.6
 41
-30.0
 62
     5
 63
     7
 74
     1
 91
        4
 64
     7
 65
   257
 75
     1
175
     1
 42
1.0
 92
       12
 66
     7
 43
1.0
 76
     1
 77
     6
 78
     2
 67
     7
 79
     5
170
     0
171
     0
290
     0
174
     0
 93
        1
 44
0.0
173
     0
291
     1
 45
0.0
1001
ACAD
1000
AcDbSavedByObjectVersion
1070
     0
  0
DICTIONARYVAR
  5
86F
102
{ACAD_REACTORS
330
86A
102
}
330
86A
100
DictionaryVariables
280
     0
  1
1:1
  0
DICTIONARYVAR
  5
870
102
{ACAD_REACTORS
330
86A
102
}
330
86A
100
DictionaryVariables
280
     0
  1
2
  0
DICTIONARYVAR
  5
871
102
{ACAD_REACTORS
330
86A
102
}
330
86A
100
DictionaryVariables
280
     0
  1
1
  0
DICTIONARYVAR
  5
86E
102
{ACAD_REACTORS
330
86A
102
}
330
86A
100
DictionaryVariables
280
     0
  1
80.000000
  0
DICTIONARYVAR
  5
86D
102
{ACAD_REACTORS
330
86A
102
}
330
86A
100
DictionaryVariables
280
     0
  1
5.000000
  0
DICTIONARY
  5
894
330
3D
100
AcDbDictionary
280
     1
281
     1
  3
ACAD_XREC_ROUNDTRIP
360
895
  0
DICTIONARY
  5
892
330
3C
100
AcDbDictionary
280
     1
281
     1
  3
ACAD_XREC_ROUNDTRIP
360
893
  0
DICTIONARY
  5
896
330
3E
100
AcDbDictionary
280
     1
281
     1
  3
ACAD_XREC_ROUNDTRIP
360
897
  0
DICTIONARY
  5
87A
330
2F
100
AcDbDictionary
280
     1
281
     1
  3
ACAD_XREC_ROUNDTRIP
360
87B
  0
DICTIONARY
  5
87E
330
31
100
AcDbDictionary
280
     1
281
     1
  3
ACAD_XREC_ROUNDTRIP
360
87F
  0
DICTIONARY
  5
87C
330
30
100
AcDbDictionary
280
     1
281
     1
  3
ACAD_XREC_ROUNDTRIP
360
87D
  0
DICTIONARY
  5
880
330
32
100
AcDbDictionary
280
     1
281
     1
  3
ACAD_XREC_ROUNDTRIP
360
881
  0
DICTIONARY
  5
888
330
36
100
AcDbDictionary
280
     1
281
     1
  3
ACAD_XREC_ROUNDTRIP
360
889
  0
DICTIONARY
  5
890
330
3A
100
AcDbDictionary
280
     1
281
     1
  3
ACAD_XREC_ROUNDTRIP
360
891
  0
DICTIONARY
  5
884
330
34
100
AcDbDictionary
280
     1
281
     1
  3
ACAD_XREC_ROUNDTRIP
360
885
  0
DICTIONARY
  5
886
330
35
100
AcDbDictionary
280
     1
281
     1
  3
ACAD_XREC_ROUNDTRIP
360
887
  0
DICTIONARY
  5
88E
330
39
100
AcDbDictionary
280
     1
281
     1
  3
ACAD_XREC_ROUNDTRIP
360
88F
  0
DICTIONARY
  5
872
330
2B
100
AcDbDictionary
280
     1
281
     1
  3
ACAD_XREC_ROUNDTRIP
360
873
  0
DICTIONARY
  5
874
330
2C
100
AcDbDictionary
280
     1
281
     1
  3
ACAD_XREC_ROUNDTRIP
360
875
  0
DICTIONARY
  5
876
330
2D
100
AcDbDictionary
280
     1
281
     1
  3
ACAD_XREC_ROUNDTRIP
360
877
  0
DICTIONARY
  5
878
330
2E
100
AcDbDictionary
280
     1
281
     1
  3
ACAD_XREC_ROUNDTRIP
360
879
  0
DICTIONARY
  5
88C
330
38
100
AcDbDictionary
280
     1
281
     1
  3
ACAD_XREC_ROUNDTRIP
360
88D
  0
DICTIONARY
  5
882
330
33
100
AcDbDictionary
280
     1
281
     1
  3
ACAD_XREC_ROUNDTRIP
360
883
  0
DICTIONARY
  5
88A
330
37
100
AcDbDictionary
280
     1
281
     1
  3
ACAD_XREC_ROUNDTRIP
360
88B
  0
XRECORD
  5
895
102
{ACAD_REACTORS
330
894
102
}
330
894
100
AcDbXrecord
280
     1
102
MATERIAL
148
0.0
149
0.0
149
0.0
 93
        0
 94
      127
282
     0
 72
     1
 77
     1
171
     1
175
     1
179
     1
273
     0
  0
XRECORD
  5
893
102
{ACAD_REACTORS
330
892
102
}
330
892
100
AcDbXrecord
280
     1
102
MATERIAL
148
0.0
149
0.0
149
0.0
 93
        0
 94
      127
282
     0
 72
     1
 77
     1
171
     1
175
     1
179
     1
273
     0
  0
XRECORD
  5
897
102
{ACAD_REACTORS
330
896
102
}
330
896
100
AcDbXrecord
280
     1
102
MATERIAL
148
0.0
149
0.0
149
0.0
 93
        0
 94
      127
282
     0
 72
     1
 77
     1
171
     1
175
     1
179
     1
273
     0
  0
XRECORD
  5
87B
102
{ACAD_REACTORS
330
87A
102
}
330
87A
100
AcDbXrecord
280
     1
102
RTVSPropertyOp0
 70
     1
102
RTVSPropertyOp1
 70
     1
102
RTVSPropertyOp2
 70
     1
102
RTVSPropertyOp3
 70
     1
102
RTVSPropertyOp4
 70
     1
102
RTVSPropertyOp5
 70
     1
102
RTVSPropertyOp6
 70
     1
102
RTVSPropertyOp7
 70
     1
102
RTVSPropertyOp8
 70
     1
102
RTVSPropertyOp9
 70
     1
102
RTVSPropertyOp10
 70
     1
102
RTVSPropertyOp11
 70
     1
102
RTVSPropertyOp12
 70
     1
102
RTVSPropertyOp13
 70
     1
102
RTVSPropertyOp14
 70
     1
102
RTVSPropertyOp15
 70
     1
102
RTVSPropertyOp16
 70
     1
102
RTVSPropertyOp17
 70
     1
102
RTVSPropertyOp18
 70
     1
102
RTVSPropertyOp19
 70
     1
102
RTVSPropertyOp20
 70
     1
102
RTVSPropertyOp21
 70
     1
102
RTVSPropertyOp22
 70
     1
102
RTVSPropertyOp23
 70
     1
102
RTVSPropertyOp24
 70
     1
102
RTVSPropertyOp25
 70
     1
102
RTVSPropertyOp26
 70
     1
102
RTVSPropertyOp27
 70
     1
  0
XRECORD
  5
87F
102
{ACAD_REACTORS
330
87E
102
}
330
87E
100
AcDbXrecord
280
     1
102
RTVSPropertyOp0
 70
     1
102
RTVSPropertyOp1
 70
     1
102
RTVSPropertyOp2
 70
     1
102
RTVSPropertyOp3
 70
     1
102
RTVSPropertyOp4
 70
     1
102
RTVSPropertyOp5
 70
     1
102
RTVSPropertyOp6
 70
     1
102
RTVSPropertyOp7
 70
     1
102
RTVSPropertyOp8
 70
     1
102
RTVSPropertyOp9
 70
     1
102
RTVSPropertyOp10
 70
     1
102
RTVSPropertyOp11
 70
     1
102
RTVSPropertyOp12
 70
     1
102
RTVSPropertyOp13
 70
     1
102
RTVSPropertyOp14
 70
     1
102
RTVSPropertyOp15
 70
     1
102
RTVSPropertyOp16
 70
     1
102
RTVSPropertyOp17
 70
     1
102
RTVSPropertyOp18
 70
     1
102
RTVSPropertyOp19
 70
     1
102
RTVSPropertyOp20
 70
     1
102
RTVSPropertyOp21
 70
     1
102
RTVSPropertyOp22
 70
     1
102
RTVSPropertyOp23
 70
     1
102
RTVSPropertyOp24
 70
     1
102
RTVSPropertyOp25
 70
     1
102
RTVSPropertyOp26
 70
     1
102
RTVSPropertyOp27
 70
     1
  0
XRECORD
  5
87D
102
{ACAD_REACTORS
330
87C
102
}
330
87C
100
AcDbXrecord
280
     1
102
RTVSPropertyOp0
 70
     1
102
RTVSPropertyOp1
 70
     1
102
RTVSPropertyOp2
 70
     1
102
RTVSPropertyOp3
 70
     1
102
RTVSPropertyOp4
 70
     1
102
RTVSPropertyOp5
 70
     1
102
RTVSPropertyOp6
 70
     1
102
RTVSPropertyOp7
 70
     1
102
RTVSPropertyOp8
 70
     1
102
RTVSPropertyOp9
 70
     1
102
RTVSPropertyOp10
 70
     1
102
RTVSPropertyOp11
 70
     1
102
RTVSPropertyOp12
 70
     1
102
RTVSPropertyOp13
 70
     1
102
RTVSPropertyOp14
 70
     1
102
RTVSPropertyOp15
 70
     1
102
RTVSPropertyOp16
 70
     1
102
RTVSPropertyOp17
 70
     1
102
RTVSPropertyOp18
 70
     1
102
RTVSPropertyOp19
 70
     1
102
RTVSPropertyOp20
 70
     1
102
RTVSPropertyOp21
 70
     1
102
RTVSPropertyOp22
 70
     1
102
RTVSPropertyOp23
 70
     1
102
RTVSPropertyOp24
 70
     1
102
RTVSPropertyOp25
 70
     1
102
RTVSPropertyOp26
 70
     1
102
RTVSPropertyOp27
 70
     1
  0
XRECORD
  5
881
102
{ACAD_REACTORS
330
880
102
}
330
880
100
AcDbXrecord
280
     1
102
RTVSPropertyOp0
 70
     1
102
RTVSPropertyOp1
 70
     1
102
RTVSPropertyOp2
 70
     1
102
RTVSPropertyOp3
 70
     1
102
RTVSPropertyOp4
 70
     1
102
RTVSPropertyOp5
 70
     1
102
RTVSPropertyOp6
 70
     1
102
RTVSPropertyOp7
 70
     1
102
RTVSPropertyOp8
 70
     1
102
RTVSPropertyOp9
 70
     1
102
RTVSPropertyOp10
 70
     1
102
RTVSPropertyOp11
 70
     1
102
RTVSPropertyOp12
 70
     1
102
RTVSPropertyOp13
 70
     1
102
RTVSPropertyOp14
 70
     1
102
RTVSPropertyOp15
 70
     1
102
RTVSPropertyOp16
 70
     1
102
RTVSPropertyOp17
 70
     1
102
RTVSPropertyOp18
 70
     1
102
RTVSPropertyOp19
 70
     1
102
RTVSPropertyOp20
 70
     1
102
RTVSPropertyOp21
 70
     1
102
RTVSPropertyOp22
 70
     1
102
RTVSPropertyOp23
 70
     1
102
RTVSPropertyOp24
 70
     1
102
RTVSPropertyOp25
 70
     1
102
RTVSPropertyOp26
 70
     1
102
RTVSPropertyOp27
 70
     1
  0
XRECORD
  5
889
102
{ACAD_REACTORS
330
888
102
}
330
888
100
AcDbXrecord
280
     1
102
RTVSPropertyOp0
 70
     1
102
RTVSPropertyOp1
 70
     1
102
RTVSPropertyOp2
 70
     1
102
RTVSPropertyOp3
 70
     1
102
RTVSPropertyOp4
 70
     1
102
RTVSPropertyOp5
 70
     1
102
RTVSPropertyOp6
 70
     1
102
RTVSPropertyOp7
 70
     1
102
RTVSPropertyOp8
 70
     1
102
RTVSPropertyOp9
 70
     1
102
RTVSPropertyOp10
 70
     1
102
RTVSPropertyOp11
 70
     1
102
RTVSPropertyOp12
 70
     1
102
RTVSPropertyOp13
 70
     1
102
RTVSPropertyOp14
 70
     1
102
RTVSPropertyOp15
 70
     1
102
RTVSPropertyOp16
 70
     1
102
RTVSPropertyOp17
 70
     1
102
RTVSPropertyOp18
 70
     1
102
RTVSPropertyOp19
 70
     1
102
RTVSPropertyOp20
 70
     1
102
RTVSPropertyOp21
 70
     1
102
RTVSPropertyOp22
 70
     1
102
RTVSPropertyOp23
 70
     1
102
RTVSPropertyOp24
 70
     1
102
RTVSPropertyOp25
 70
     1
102
RTVSPropertyOp26
 70
     1
102
RTVSPropertyOp27
 70
     1
  0
XRECORD
  5
891
102
{ACAD_REACTORS
330
890
102
}
330
890
100
AcDbXrecord
280
     1
102
RTVSPropertyOp0
 70
     1
102
RTVSPropertyOp1
 70
     1
102
RTVSPropertyOp2
 70
     1
102
RTVSPropertyOp3
 70
     1
102
RTVSPropertyOp4
 70
     1
102
RTVSPropertyOp5
 70
     1
102
RTVSPropertyOp6
 70
     1
102
RTVSPropertyOp7
 70
     1
102
RTVSPropertyOp8
 70
     1
102
RTVSPropertyOp9
 70
     1
102
RTVSPropertyOp10
 70
     1
102
RTVSPropertyOp11
 70
     1
102
RTVSPropertyOp12
 70
     1
102
RTVSPropertyOp13
 70
     1
102
RTVSPropertyOp14
 70
     1
102
RTVSPropertyOp15
 70
     1
102
RTVSPropertyOp16
 70
     1
102
RTVSPropertyOp17
 70
     1
102
RTVSPropertyOp18
 70
     1
102
RTVSPropertyOp19
 70
     1
102
RTVSPropertyOp20
 70
     1
102
RTVSPropertyOp21
 70
     1
102
RTVSPropertyOp22
 70
     1
102
RTVSPropertyOp23
 70
     1
102
RTVSPropertyOp24
 70
     1
102
RTVSPropertyOp25
 70
     1
102
RTVSPropertyOp26
 70
     1
102
RTVSPropertyOp27
 70
     1
  0
XRECORD
  5
885
102
{ACAD_REACTORS
330
884
102
}
330
884
100
AcDbXrecord
280
     1
102
RTVSPropertyOp0
 70
     1
102
RTVSPropertyOp1
 70
     1
102
RTVSPropertyOp2
 70
     1
102
RTVSPropertyOp3
 70
     1
102
RTVSPropertyOp4
 70
     1
102
RTVSPropertyOp5
 70
     1
102
RTVSPropertyOp6
 70
     1
102
RTVSPropertyOp7
 70
     1
102
RTVSPropertyOp8
 70
     1
102
RTVSPropertyOp9
 70
     1
102
RTVSPropertyOp10
 70
     1
102
RTVSPropertyOp11
 70
     1
102
RTVSPropertyOp12
 70
     1
102
RTVSPropertyOp13
 70
     1
102
RTVSPropertyOp14
 70
     1
102
RTVSPropertyOp15
 70
     1
102
RTVSPropertyOp16
 70
     1
102
RTVSPropertyOp17
 70
     1
102
RTVSPropertyOp18
 70
     1
102
RTVSPropertyOp19
 70
     1
102
RTVSPropertyOp20
 70
     1
102
RTVSPropertyOp21
 70
     1
102
RTVSPropertyOp22
 70
     1
102
RTVSPropertyOp23
 70
     1
102
RTVSPropertyOp24
 70
     1
102
RTVSPropertyOp25
 70
     1
102
RTVSPropertyOp26
 70
     1
102
RTVSPropertyOp27
 70
     1
  0
XRECORD
  5
887
102
{ACAD_REACTORS
330
886
102
}
330
886
100
AcDbXrecord
280
     1
102
RTVSPropertyOp0
 70
     1
102
RTVSPropertyOp1
 70
     1
102
RTVSPropertyOp2
 70
     1
102
RTVSPropertyOp3
 70
     1
102
RTVSPropertyOp4
 70
     1
102
RTVSPropertyOp5
 70
     1
102
RTVSPropertyOp6
 70
     1
102
RTVSPropertyOp7
 70
     1
102
RTVSPropertyOp8
 70
     1
102
RTVSPropertyOp9
 70
     1
102
RTVSPropertyOp10
 70
     1
102
RTVSPropertyOp11
 70
     1
102
RTVSPropertyOp12
 70
     1
102
RTVSPropertyOp13
 70
     1
102
RTVSPropertyOp14
 70
     1
102
RTVSPropertyOp15
 70
     1
102
RTVSPropertyOp16
 70
     1
102
RTVSPropertyOp17
 70
     1
102
RTVSPropertyOp18
 70
     1
102
RTVSPropertyOp19
 70
     1
102
RTVSPropertyOp20
 70
     1
102
RTVSPropertyOp21
 70
     1
102
RTVSPropertyOp22
 70
     1
102
RTVSPropertyOp23
 70
     1
102
RTVSPropertyOp24
 70
     1
102
RTVSPropertyOp25
 70
     1
102
RTVSPropertyOp26
 70
     1
102
RTVSPropertyOp27
 70
     1
  0
XRECORD
  5
88F
102
{ACAD_REACTORS
330
88E
102
}
330
88E
100
AcDbXrecord
280
     1
102
RTVSPropertyOp0
 70
     1
102
RTVSPropertyOp1
 70
     1
102
RTVSPropertyOp2
 70
     1
102
RTVSPropertyOp3
 70
     1
102
RTVSPropertyOp4
 70
     1
102
RTVSPropertyOp5
 70
     1
102
RTVSPropertyOp6
 70
     1
102
RTVSPropertyOp7
 70
     1
102
RTVSPropertyOp8
 70
     1
102
RTVSPropertyOp9
 70
     1
102
RTVSPropertyOp10
 70
     1
102
RTVSPropertyOp11
 70
     1
102
RTVSPropertyOp12
 70
     1
102
RTVSPropertyOp13
 70
     1
102
RTVSPropertyOp14
 70
     1
102
RTVSPropertyOp15
 70
     1
102
RTVSPropertyOp16
 70
     1
102
RTVSPropertyOp17
 70
     1
102
RTVSPropertyOp18
 70
     1
102
RTVSPropertyOp19
 70
     1
102
RTVSPropertyOp20
 70
     1
102
RTVSPropertyOp21
 70
     1
102
RTVSPropertyOp22
 70
     1
102
RTVSPropertyOp23
 70
     1
102
RTVSPropertyOp24
 70
     1
102
RTVSPropertyOp25
 70
     1
102
RTVSPropertyOp26
 70
     1
102
RTVSPropertyOp27
 70
     1
  0
XRECORD
  5
873
102
{ACAD_REACTORS
330
872
102
}
330
872
100
AcDbXrecord
280
     1
102
RTVSPropertyOp0
 70
     1
102
RTVSPropertyOp1
 70
     1
102
RTVSPropertyOp2
 70
     1
102
RTVSPropertyOp3
 70
     1
102
RTVSPropertyOp4
 70
     1
102
RTVSPropertyOp5
 70
     1
102
RTVSPropertyOp6
 70
     1
102
RTVSPropertyOp7
 70
     1
102
RTVSPropertyOp8
 70
     1
102
RTVSPropertyOp9
 70
     1
102
RTVSPropertyOp10
 70
     1
102
RTVSPropertyOp11
 70
     1
102
RTVSPropertyOp12
 70
     1
102
RTVSPropertyOp13
 70
     1
102
RTVSPropertyOp14
 70
     1
102
RTVSPropertyOp15
 70
     1
102
RTVSPropertyOp16
 70
     1
102
RTVSPropertyOp17
 70
     1
102
RTVSPropertyOp18
 70
     1
102
RTVSPropertyOp19
 70
     1
102
RTVSPropertyOp20
 70
     1
102
RTVSPropertyOp21
 70
     1
102
RTVSPropertyOp22
 70
     1
102
RTVSPropertyOp23
 70
     1
102
RTVSPropertyOp24
 70
     1
102
RTVSPropertyOp25
 70
     1
102
RTVSPropertyOp26
 70
     1
102
RTVSPropertyOp27
 70
     1
  0
XRECORD
  5
875
102
{ACAD_REACTORS
330
874
102
}
330
874
100
AcDbXrecord
280
     1
102
RTVSPropertyOp0
 70
     1
102
RTVSPropertyOp1
 70
     1
102
RTVSPropertyOp2
 70
     1
102
RTVSPropertyOp3
 70
     1
102
RTVSPropertyOp4
 70
     1
102
RTVSPropertyOp5
 70
     1
102
RTVSPropertyOp6
 70
     1
102
RTVSPropertyOp7
 70
     1
102
RTVSPropertyOp8
 70
     1
102
RTVSPropertyOp9
 70
     1
102
RTVSPropertyOp10
 70
     1
102
RTVSPropertyOp11
 70
     1
102
RTVSPropertyOp12
 70
     1
102
RTVSPropertyOp13
 70
     1
102
RTVSPropertyOp14
 70
     1
102
RTVSPropertyOp15
 70
     1
102
RTVSPropertyOp16
 70
     1
102
RTVSPropertyOp17
 70
     1
102
RTVSPropertyOp18
 70
     1
102
RTVSPropertyOp19
 70
     1
102
RTVSPropertyOp20
 70
     1
102
RTVSPropertyOp21
 70
     1
102
RTVSPropertyOp22
 70
     1
102
RTVSPropertyOp23
 70
     1
102
RTVSPropertyOp24
 70
     1
102
RTVSPropertyOp25
 70
     1
102
RTVSPropertyOp26
 70
     1
102
RTVSPropertyOp27
 70
     1
  0
XRECORD
  5
877
102
{ACAD_REACTORS
330
876
102
}
330
876
100
AcDbXrecord
280
     1
102
RTVSPropertyOp0
 70
     1
102
RTVSPropertyOp1
 70
     1
102
RTVSPropertyOp2
 70
     1
102
RTVSPropertyOp3
 70
     1
102
RTVSPropertyOp4
 70
     1
102
RTVSPropertyOp5
 70
     1
102
RTVSPropertyOp6
 70
     1
102
RTVSPropertyOp7
 70
     1
102
RTVSPropertyOp8
 70
     1
102
RTVSPropertyOp9
 70
     1
102
RTVSPropertyOp10
 70
     1
102
RTVSPropertyOp11
 70
     1
102
RTVSPropertyOp12
 70
     1
102
RTVSPropertyOp13
 70
     1
102
RTVSPropertyOp14
 70
     1
102
RTVSPropertyOp15
 70
     1
102
RTVSPropertyOp16
 70
     1
102
RTVSPropertyOp17
 70
     1
102
RTVSPropertyOp18
 70
     1
102
RTVSPropertyOp19
 70
     1
102
RTVSPropertyOp20
 70
     1
102
RTVSPropertyOp21
 70
     1
102
RTVSPropertyOp22
 70
     1
102
RTVSPropertyOp23
 70
     1
102
RTVSPropertyOp24
 70
     1
102
RTVSPropertyOp25
 70
     1
102
RTVSPropertyOp26
 70
     1
102
RTVSPropertyOp27
 70
     1
  0
XRECORD
  5
879
102
{ACAD_REACTORS
330
878
102
}
330
878
100
AcDbXrecord
280
     1
102
RTVSPropertyOp0
 70
     1
102
RTVSPropertyOp1
 70
     1
102
RTVSPropertyOp2
 70
     1
102
RTVSPropertyOp3
 70
     1
102
RTVSPropertyOp4
 70
     1
102
RTVSPropertyOp5
 70
     1
102
RTVSPropertyOp6
 70
     1
102
RTVSPropertyOp7
 70
     1
102
RTVSPropertyOp8
 70
     1
102
RTVSPropertyOp9
 70
     1
102
RTVSPropertyOp10
 70
     1
102
RTVSPropertyOp11
 70
     1
102
RTVSPropertyOp12
 70
     1
102
RTVSPropertyOp13
 70
     1
102
RTVSPropertyOp14
 70
     1
102
RTVSPropertyOp15
 70
     1
102
RTVSPropertyOp16
 70
     1
102
RTVSPropertyOp17
 70
     1
102
RTVSPropertyOp18
 70
     1
102
RTVSPropertyOp19
 70
     1
102
RTVSPropertyOp20
 70
     1
102
RTVSPropertyOp21
 70
     1
102
RTVSPropertyOp22
 70
     1
102
RTVSPropertyOp23
 70
     1
102
RTVSPropertyOp24
 70
     1
102
RTVSPropertyOp25
 70
     1
102
RTVSPropertyOp26
 70
     1
102
RTVSPropertyOp27
 70
     1
  0
XRECORD
  5
88D
102
{ACAD_REACTORS
330
88C
102
}
330
88C
100
AcDbXrecord
280
     1
102
RTVSPropertyOp0
 70
     1
102
RTVSPropertyOp1
 70
     1
102
RTVSPropertyOp2
 70
     1
102
RTVSPropertyOp3
 70
     1
102
RTVSPropertyOp4
 70
     1
102
RTVSPropertyOp5
 70
     1
102
RTVSPropertyOp6
 70
     1
102
RTVSPropertyOp7
 70
     1
102
RTVSPropertyOp8
 70
     1
102
RTVSPropertyOp9
 70
     1
102
RTVSPropertyOp10
 70
     1
102
RTVSPropertyOp11
 70
     1
102
RTVSPropertyOp12
 70
     1
102
RTVSPropertyOp13
 70
     1
102
RTVSPropertyOp14
 70
     1
102
RTVSPropertyOp15
 70
     1
102
RTVSPropertyOp16
 70
     1
102
RTVSPropertyOp17
 70
     1
102
RTVSPropertyOp18
 70
     1
102
RTVSPropertyOp19
 70
     1
102
RTVSPropertyOp20
 70
     1
102
RTVSPropertyOp21
 70
     1
102
RTVSPropertyOp22
 70
     1
102
RTVSPropertyOp23
 70
     1
102
RTVSPropertyOp24
 70
     1
102
RTVSPropertyOp25
 70
     1
102
RTVSPropertyOp26
 70
     1
102
RTVSPropertyOp27
 70
     1
  0
XRECORD
  5
883
102
{ACAD_REACTORS
330
882
102
}
330
882
100
AcDbXrecord
280
     1
102
RTVSPropertyOp0
 70
     1
102
RTVSPropertyOp1
 70
     1
102
RTVSPropertyOp2
 70
     1
102
RTVSPropertyOp3
 70
     1
102
RTVSPropertyOp4
 70
     1
102
RTVSPropertyOp5
 70
     1
102
RTVSPropertyOp6
 70
     1
102
RTVSPropertyOp7
 70
     1
102
RTVSPropertyOp8
 70
     1
102
RTVSPropertyOp9
 70
     1
102
RTVSPropertyOp10
 70
     1
102
RTVSPropertyOp11
 70
     1
102
RTVSPropertyOp12
 70
     1
102
RTVSPropertyOp13
 70
     1
102
RTVSPropertyOp14
 70
     1
102
RTVSPropertyOp15
 70
     1
102
RTVSPropertyOp16
 70
     1
102
RTVSPropertyOp17
 70
     1
102
RTVSPropertyOp18
 70
     1
102
RTVSPropertyOp19
 70
     1
102
RTVSPropertyOp20
 70
     1
102
RTVSPropertyOp21
 70
     1
102
RTVSPropertyOp22
 70
     1
102
RTVSPropertyOp23
 70
     1
102
RTVSPropertyOp24
 70
     1
102
RTVSPropertyOp25
 70
     1
102
RTVSPropertyOp26
 70
     1
102
RTVSPropertyOp27
 70
     1
  0
XRECORD
  5
88B
102
{ACAD_REACTORS
330
88A
102
}
330
88A
100
AcDbXrecord
280
     1
102
RTVSPropertyOp0
 70
     1
102
RTVSPropertyOp1
 70
     1
102
RTVSPropertyOp2
 70
     1
102
RTVSPropertyOp3
 70
     1
102
RTVSPropertyOp4
 70
     1
102
RTVSPropertyOp5
 70
     1
102
RTVSPropertyOp6
 70
     1
102
RTVSPropertyOp7
 70
     1
102
RTVSPropertyOp8
 70
     1
102
RTVSPropertyOp9
 70
     1
102
RTVSPropertyOp10
 70
     1
102
RTVSPropertyOp11
 70
     1
102
RTVSPropertyOp12
 70
     1
102
RTVSPropertyOp13
 70
     1
102
RTVSPropertyOp14
 70
     1
102
RTVSPropertyOp15
 70
     1
102
RTVSPropertyOp16
 70
     1
102
RTVSPropertyOp17
 70
     1
102
RTVSPropertyOp18
 70
     1
102
RTVSPropertyOp19
 70
     1
102
RTVSPropertyOp20
 70
     1
102
RTVSPropertyOp21
 70
     1
102
RTVSPropertyOp22
 70
     1
102
RTVSPropertyOp23
 70
     1
102
RTVSPropertyOp24
 70
     1
102
RTVSPropertyOp25
 70
     1
102
RTVSPropertyOp26
 70
     1
102
RTVSPropertyOp27
 70
     1
  0
ENDSEC
  0
EOF
