  0
SECTION
  2
HEADER
  9
$ACADVER
  1
AC1015
  9
$ACADMAINTVER
 70
     6
  9
$DWGCODEPAGE
  3
ANSI_1252
  9
$INSBASE
 10
0.0
 20
0.0
 30
0.0
  9
$EXTMIN
 10
0.0
 20
0.0
 30
0.0
  9
$EXTMAX
 10
25.0
 20
35.0
 30
0.0
  9
$LIMMIN
 10
0.0
 20
0.0
  9
$LIMMAX
 10
420.0
 20
297.0
  9
$ORTHOMODE
 70
     0
  9
$REGENMODE
 70
     1
  9
$FILLMODE
 70
     1
  9
$QTEXTMODE
 70
     0
  9
$MIRRTEXT
 70
     1
  9
$LTSCALE
 40
5.65
  9
$ATTMODE
 70
     1
  9
$TEXTSIZE
 40
2.5
  9
$TRACEWID
 40
1.0
  9
$TEXTSTYLE
  7
Standard
  9
$CLAYER
  8
0
  9
$CELTYPE
  6
ByLayer
  9
$CECOLOR
 62
   256
  9
$CELTSCALE
 40
1.0
  9
$DISPSILH
 70
     0
  9
$DIMSCALE
 40
1.0
  9
$DIMASZ
 40
2.5
  9
$DIMEXO
 40
0.625
  9
$DIMDLI
 40
3.75
  9
$DIMRND
 40
0.0
  9
$DIMDLE
 40
0.0
  9
$DIMEXE
 40
1.25
  9
$DIMTP
 40
0.0
  9
$DIMTM
 40
0.0
  9
$DIMTXT
 40
2.5
  9
$DIMCEN
 40
2.5
  9
$DIMTSZ
 40
0.0
  9
$DIMTOL
 70
     0
  9
$DIMLIM
 70
     0
  9
$DIMTIH
 70
     0
  9
$DIMTOH
 70
     0
  9
$DIMSE1
 70
     0
  9
$DIMSE2
 70
     0
  9
$DIMTAD
 70
     1
  9
$DIMZIN
 70
     8
  9
$DIMBLK
  1

  9
$DIMASO
 70
     1
  9
$DIMSHO
 70
     1
  9
$DIMPOST
  1

  9
$DIMAPOST
  1

  9
$DIMALT
 70
     0
  9
$DIMALTD
 70
     3
  9
$DIMALTF
 40
0.03937007874016
  9
$DIMLFAC
 40
1.0
  9
$DIMTOFL
 70
     1
  9
$DIMTVP
 40
0.0
  9
$DIMTIX
 70
     0
  9
$DIMSOXD
 70
     0
  9
$DIMSAH
 70
     0
  9
$DIMBLK1
  1

  9
$DIMBLK2
  1

  9
$DIMSTYLE
  2
ISO-25
  9
$DIMCLRD
 70
     0
  9
$DIMCLRE
 70
     0
  9
$DIMCLRT
 70
     0
  9
$DIMTFAC
 40
1.0
  9
$DIMGAP
 40
0.625
  9
$DIMJUST
 70
     0
  9
$DIMSD1
 70
     0
  9
$DIMSD2
 70
     0
  9
$DIMTOLJ
 70
     0
  9
$DIMTZIN
 70
     8
  9
$DIMALTZ
 70
     0
  9
$DIMALTTZ
 70
     0
  9
$DIMUPT
 70
     0
  9
$DIMDEC
 70
     2
  9
$DIMTDEC
 70
     2
  9
$DIMALTU
 70
     2
  9
$DIMALTTD
 70
     3
  9
$DIMTXSTY
  7
Standard
  9
$DIMAUNIT
 70
     0
  9
$DIMADEC
 70
     0
  9
$DIMALTRND
 40
0.0
  9
$DIMAZIN
 70
     0
  9
$DIMDSEP
 70
    44
  9
$DIMATFIT
 70
     3
  9
$DIMFRAC
 70
     0
  9
$DIMLDRBLK
  1

  9
$DIMLUNIT
 70
     2
  9
$DIMLWD
 70
    -2
  9
$DIMLWE
 70
    -2
  9
$DIMTMOVE
 70
     0
  9
$LUNITS
 70
     2
  9
$LUPREC
 70
     4
  9
$SKETCHINC
 40
1.0
  9
$FILLETRAD
 40
10.0
  9
$AUNITS
 70
     0
  9
$AUPREC
 70
     0
  9
$MENU
  1
.
  9
$ELEVATION
 40
0.0
  9
$PELEVATION
 40
0.0
  9
$THICKNESS
 40
0.0
  9
$LIMCHECK
 70
     0
  9
$CHAMFERA
 40
10.0
  9
$CHAMFERB
 40
10.0
  9
$CHAMFERC
 40
20.0
  9
$CHAMFERD
 40
0.0
  9
$SKPOLY
 70
     0
  9
$TDCREATE
 40
2460185.838194444
  9
$TDUCREATE
 40
2460185.754861111
  9
$TDUPDATE
 40
2460185.841666667
  9
$TDUUPDATE
 40
2460185.758333333
  9
$TDINDWG
 40
0.0000000116
  9
$TDUSRTIMER
 40
0.0000000116
  9
$USRTIMER
 70
     1
  9
$ANGBASE
 50
0.0
  9
$ANGDIR
 70
     0
  9
$PDMODE
 70
     0
  9
$PDSIZE
 40
0.0
  9
$PLINEWID
 40
0.0
  9
$SPLFRAME
 70
     0
  9
$SPLINETYPE
 70
     6
  9
$SPLINESEGS
 70
     8
  9
$HANDSEED
  5
860
  9
$SURFTAB1
 70
     6
  9
$SURFTAB2
 70
     6
  9
$SURFTYPE
 70
     6
  9
$SURFU
 70
     6
  9
$SURFV
 70
     6
  9
$UCSBASE
  2

  9
$UCSNAME
  2

  9
$UCSORG
 10
0.0
 20
0.0
 30
0.0
  9
$UCSXDIR
 10
1.0
 20
0.0
 30
0.0
  9
$UCSYDIR
 10
0.0
 20
1.0
 30
0.0
  9
$UCSORTHOREF
  2

  9
$UCSORTHOVIEW
 70
     0
  9
$UCSORGTOP
 10
0.0
 20
0.0
 30
0.0
  9
$UCSORGBOTTOM
 10
0.0
 20
0.0
 30
0.0
  9
$UCSORGLEFT
 10
0.0
 20
0.0
 30
0.0
  9
$UCSORGRIGHT
 10
0.0
 20
0.0
 30
0.0
  9
$UCSORGFRONT
 10
0.0
 20
0.0
 30
0.0
  9
$UCSORGBACK
 10
0.0
 20
0.0
 30
0.0
  9
$PUCSBASE
  2

  9
$PUCSNAME
  2

  9
$PUCSORG
 10
0.0
 20
0.0
 30
0.0
  9
$PUCSXDIR
 10
1.0
 20
0.0
 30
0.0
  9
$PUCSYDIR
 10
0.0
 20
1.0
 30
0.0
  9
$PUCSORTHOREF
  2

  9
$PUCSORTHOVIEW
 70
     0
  9
$PUCSORGTOP
 10
0.0
 20
0.0
 30
0.0
  9
$PUCSORGBOTTOM
 10
0.0
 20
0.0
 30
0.0
  9
$PUCSORGLEFT
 10
0.0
 20
0.0
 30
0.0
  9
$PUCSORGRIGHT
 10
0.0
 20
0.0
 30
0.0
  9
$PUCSORGFRONT
 10
0.0
 20
0.0
 30
0.0
  9
$PUCSORGBACK
 10
0.0
 20
0.0
 30
0.0
  9
$USERI1
 70
     0
  9
$USERI2
 70
     0
  9
$USERI3
 70
     0
  9
$USERI4
 70
     0
  9
$USERI5
 70
     0
  9
$USERR1
 40
0.0
  9
$USERR2
 40
0.0
  9
$USERR3
 40
0.0
  9
$USERR4
 40
0.0
  9
$USERR5
 40
0.0
  9
$WORLDVIEW
 70
     1
  9
$SHADEDGE
 70
     3
  9
$SHADEDIF
 70
    70
  9
$TILEMODE
 70
     1
  9
$MAXACTVP
 70
    64
  9
$PINSBASE
 10
0.0
 20
0.0
 30
0.0
  9
$PLIMCHECK
 70
     0
  9
$PEXTMIN
 10
1.000000000000000E+20
 20
1.000000000000000E+20
 30
1.000000000000000E+20
  9
$PEXTMAX
 10
-1.000000000000000E+20
 20
-1.000000000000000E+20
 30
-1.000000000000000E+20
  9
$PLIMMIN
 10
0.0
 20
0.0
  9
$PLIMMAX
 10
420.0
 20
297.0
  9
$UNITMODE
 70
     0
  9
$VISRETAIN
 70
     1
  9
$PLINEGEN
 70
     0
  9
$PSLTSCALE
 70
     1
  9
$TREEDEPTH
 70
  3020
  9
$CMLSTYLE
  2
Standard
  9
$CMLJUST
 70
     0
  9
$CMLSCALE
 40
20.0
  9
$PROXYGRAPHICS
 70
     1
  9
$MEASUREMENT
 70
     1
  9
$CELWEIGHT
370
    -1
  9
$ENDCAPS
280
     0
  9
$JOINSTYLE
280
     0
  9
$LWDISPLAY
290
     0
  9
$INSUNITS
 70
     4
  9
$HYPERLINKBASE
  1

  9
$STYLESHEET
  1

  9
$XEDIT
290
     1
  9
$CEPSNTYPE
380
     0
  9
$PSTYLEMODE
290
     1
  9
$FINGERPRINTGUID
  2
{AE5909AC-2B48-4E15-B500-F61FE7D02231}
  9
$VERSIONGUID
  2
{FAEB1C32-E019-11D5-929B-00C0DF256EC4}
  9
$EXTNAMES
290
     1
  9
$PSVPSCALE
 40
0.0
  9
$OLESTARTUP
290
     0
  0
ENDSEC
  0
SECTION
  2
CLASSES
  0
CLASS
  1
ACDBDICTIONARYWDFLT
  2
AcDbDictionaryWithDefault
  3
ObjectDBX Classes
 90
        0
280
     0
281
     0
  0
CLASS
  1
VISUALSTYLE
  2
AcDbVisualStyle
  3
ObjectDBX Classes
 90
     4095
280
     0
281
     0
  0
CLASS
  1
MATERIAL
  2
AcDbMaterial
  3
ObjectDBX Classes
 90
     1153
280
     0
281
     0
  0
CLASS
  1
SCALE
  2
AcDbScale
  3
ObjectDBX Classes
 90
     1153
280
     0
281
     0
  0
CLASS
  1
DICTIONARYVAR
  2
AcDbDictionaryVar
  3
ObjectDBX Classes
 90
        0
280
     0
281
     0
  0
CLASS
  1
ACDBPLACEHOLDER
  2
AcDbPlaceHolder
  3
ObjectDBX Classes
 90
        0
280
     0
281
     0
  0
CLASS
  1
LAYOUT
  2
AcDbLayout
  3
ObjectDBX Classes
 90
        0
280
     0
281
     0
  0
ENDSEC
  0
SECTION
  2
TABLES
  0
TABLE
  2
VPORT
  5
8
330
0
100
AcDbSymbolTable
 70
     1
  0
VPORT
  5
29
330
8
100
AcDbSymbolTableRecord
100
AcDbViewportTableRecord
  2
*Active
 70
     0
 10
0.0
 20
0.0
 11
1.0
 21
1.0
 12
11.26
 22
4.5
 13
0.0
 23
0.0
 14
10.0
 24
10.0
 15
10.0
 25
10.0
 16
0.0
 26
0.0
 36
1.0
 17
0.0
 27
0.0
 37
0.0
 40
9.0
 41
2.503333333333333
 42
50.0
 43
0.0
 44
0.0
 50
0.0
 51
0.0
 71
     0
 72
   100
 73
     1
 74
     3
 75
     0
 76
     0
 77
     0
 78
     0
281
     0
 65
     1
110
0.0
120
0.0
130
0.0
111
1.0
121
0.0
131
0.0
112
0.0
122
1.0
132
0.0
 79
     0
146
0.0
  0
ENDTAB
  0
TABLE
  2
LTYPE
  5
5
330
0
100
AcDbSymbolTable
 70
    10
  0
LTYPE
  5
14
330
5
100
AcDbSymbolTableRecord
100
AcDbLinetypeTableRecord
  2
ByBlock
 70
     0
  3

 72
    65
 73
     0
 40
0.0
  0
LTYPE
  5
15
330
5
100
AcDbSymbolTableRecord
100
AcDbLinetypeTableRecord
  2
ByLayer
 70
     0
  3

 72
    65
 73
     0
 40
0.0
  0
LTYPE
  5
16
330
5
100
AcDbSymbolTableRecord
100
AcDbLinetypeTableRecord
  2
Continuous
 70
     0
  3
Solid line
 72
    65
 73
     0
 40
0.0
  0
LTYPE
  5
45
330
5
100
AcDbSymbolTableRecord
100
AcDbLinetypeTableRecord
  2
phl_thick
 70
     0
  3
THICK
 72
    65
 73
     0
 40
0.0
  0
LTYPE
  5
1BB
330
5
100
AcDbSymbolTableRecord
100
AcDbLinetypeTableRecord
  2
ls_CUT
 70
     0
  3
THICK
 72
    65
 73
     0
 40
0.0
  0
LTYPE
  5
1C1
330
5
100
AcDbSymbolTableRecord
100
AcDbLinetypeTableRecord
  2
ls1
 70
     0
  3
THICK
 72
    65
 73
     0
 40
0.0
  0
LTYPE
  5
1C8
330
5
100
AcDbSymbolTableRecord
100
AcDbLinetypeTableRecord
  2
SK1
 70
     0
  3
THICK
 72
    65
 73
     0
 40
0.0
  0
LTYPE
  5
1D0
330
5
100
AcDbSymbolTableRecord
100
AcDbLinetypeTableRecord
  2
ls_SK2
 70
     0
  3
THIN
 72
    65
 73
     0
 40
0.0
  0
LTYPE
  5
27B
330
5
100
AcDbSymbolTableRecord
100
AcDbLinetypeTableRecord
  2
ls_2
 70
     0
  3
THIN
 72
    65
 73
     0
 40
0.0
  0
LTYPE
  5
3CB
330
5
100
AcDbSymbolTableRecord
100
AcDbLinetypeTableRecord
  2
LONGDASH_DASH
 70
     0
  3
THIN_DASHDOT
 72
    65
 73
     4
 40
0.85
 49
0.4
 74
     0
 49
-0.2
 74
     0
 49
0.05
 74
     0
 49
-0.2
 74
     0
  0
LTYPE
  5
40C
330
5
100
AcDbSymbolTableRecord
100
AcDbLinetypeTableRecord
  2
ls_SK1
 70
     0
  3
THICK
 72
    65
 73
     0
 40
0.0
  0
LTYPE
  5
451
330
5
100
AcDbSymbolTableRecord
100
AcDbLinetypeTableRecord
  2
INFTOTAL
 70
     0
  3
THIN
 72
    65
 73
     0
 40
0.0
  0
ENDTAB
  0
TABLE
  2
LAYER
  5
2
330
0
100
AcDbSymbolTable
 70
    11
  0
LAYER
  5
10
330
2
100
AcDbSymbolTableRecord
100
AcDbLayerTableRecord
  2
0
 70
     0
 62
     7
  6
Continuous
370
    -3
390
F
  0
LAYER
  5
44
330
2
100
AcDbSymbolTableRecord
100
AcDbLayerTableRecord
  2
1
 70
     0
 62
4
  6
CONTINUOUS
370
50
370
    -3
390
F
  0
LAYER
  5
1BA
330
2
100
AcDbSymbolTableRecord
100
AcDbLayerTableRecord
  2
CUT
 70
     0
 62
1
  6
CONTINUOUS
370
25
370
    -3
390
F
  0
LAYER
  5
1C0
330
2
100
AcDbSymbolTableRecord
100
AcDbLayerTableRecord
  2
NOCUT
 70
     0
 62
7
  6
CONTINUOUS
370
25
370
    -3
390
F
  0
LAYER
  5
1C7
330
2
100
AcDbSymbolTableRecord
100
AcDbLayerTableRecord
  2
SK1
 70
     0
 62
4
  6
CONTINUOUS
370
50
370
    -3
390
F
  0
LAYER
  5
1CF
330
2
100
AcDbSymbolTableRecord
100
AcDbLayerTableRecord
  2
SK2
 70
     0
 62
7
  6
CONTINUOUS
370
25
370
    -3
390
F
  0
LAYER
  5
27A
330
2
100
AcDbSymbolTableRecord
100
AcDbLayerTableRecord
  2
2
 70
     0
 62
7
  6
CONTINUOUS
370
25
370
    -3
390
F
  0
LAYER
  5
3CA
330
2
100
AcDbSymbolTableRecord
100
AcDbLayerTableRecord
  2
4
 70
     0
 62
2
  6
LONGDASH_DASH
370
25
370
    -3
390
F
  0
LAYER
  5
3CD
330
2
100
AcDbSymbolTableRecord
100
AcDbLayerTableRecord
  2
SK4
 70
     0
 62
2
  6
LONGDASH_DASH
370
25
370
    -3
390
F
  0
LAYER
  5
445
330
2
100
AcDbSymbolTableRecord
100
AcDbLayerTableRecord
  2
SK6
 70
     0
 62
5
  6
CONTINUOUS
370
25
370
    -3
390
F
  0
LAYER
  5
450
330
2
100
AcDbSymbolTableRecord
100
AcDbLayerTableRecord
  2
INFTOTAL
 70
     0
 62
9
  6
CONTINUOUS
370
18
370
    -3
390
F
  0
ENDTAB
  0
TABLE
  2
STYLE
  5
3
330
0
100
AcDbSymbolTable
 70
     1
  0
STYLE
  5
11
330
3
100
AcDbSymbolTableRecord
100
AcDbTextStyleTableRecord
  2
Standard
 70
     0
 40
0.0
 41
1.0
 50
0.0
 71
     0
 42
2.5
  3
Monospac821 BT
  4

  0
ENDTAB
  0
TABLE
  2
VIEW
  5
6
330
0
100
AcDbSymbolTable
 70
     0
  0
ENDTAB
  0
TABLE
  2
UCS
  5
7
330
0
100
AcDbSymbolTable
 70
     0
  0
ENDTAB
  0
TABLE
  2
APPID
  5
9
330
0
100
AcDbSymbolTable
 70
     2
  0
APPID
  5
12
330
9
100
AcDbSymbolTableRecord
100
AcDbRegAppTableRecord
  2
ACAD
 70
     0
  0
APPID
  5
3F
330
9
100
AcDbSymbolTableRecord
100
AcDbRegAppTableRecord
  2
ccLab
 70
     0
  0
ENDTAB
  0
TABLE
  2
DIMSTYLE
  5
A
330
0
100
AcDbSymbolTable
 70
     1
100
AcDbDimStyleTable
  0
DIMSTYLE
105
27
330
A
100
AcDbSymbolTableRecord
100
AcDbDimStyleTableRecord
  2
ISO-25
 70
     0
 41
2.5
 42
0.625
 43
3.75
 44
1.25
 73
     0
 74
     0
 77
     1
 78
     8
140
2.5
141
2.5
143
0.03937007874016
147
0.625
171
     3
172
     1
271
     2
272
     2
274
     3
278
    44
283
     0
284
     8
340
11
  0
ENDTAB
  0
TABLE
  2
BLOCK_RECORD
  5
1
330
0
100
AcDbSymbolTable
 70
     2
  0
BLOCK_RECORD
  5
1F
330
1
100
AcDbSymbolTableRecord
100
AcDbBlockTableRecord
  2
*Model_Space
340
22
  0
BLOCK_RECORD
  5
1B
330
1
100
AcDbSymbolTableRecord
100
AcDbBlockTableRecord
  2
*Paper_Space
340
1E
  0
BLOCK_RECORD
  5
23
330
1
100
AcDbSymbolTableRecord
100
AcDbBlockTableRecord
  2
*Paper_Space0
340
26
  0
ENDTAB
  0
ENDSEC
  0
SECTION
  2
BLOCKS
  0
BLOCK
  5
20
330
1F
100
AcDbEntity
  8
0
100
AcDbBlockBegin
  2
*Model_Space
 70
     0
 10
0.0
 20
0.0
 30
0.0
  3
*Model_Space
  1

  0
ENDBLK
  5
21
330
1F
100
AcDbEntity
  8
0
100
AcDbBlockEnd
  0
BLOCK
  5
1C
330
1B
100
AcDbEntity
 67
     1
  8
0
100
AcDbBlockBegin
  2
*Paper_Space
 70
     0
 10
0.0
 20
0.0
 30
0.0
  3
*Paper_Space
  1

  0
ENDBLK
  5
1D
330
1B
100
AcDbEntity
 67
     1
  8
0
100
AcDbBlockEnd
  0
BLOCK
  5
24
330
23
100
AcDbEntity
  8
0
100
AcDbBlockBegin
  2
*Paper_Space0
 70
     0
 10
0.0
 20
0.0
 30
0.0
  3
*Paper_Space0
  1

  0
ENDBLK
  5
25
330
23
100
AcDbEntity
  8
0
100
AcDbBlockEnd
  0
ENDSEC
  0
SECTION
  2
ENTITIES
  0
LINE
  5
455
330
1F
100
AcDbEntity
  8
1
  6
CONTINUOUS
370
50
 62
4
100
AcDbLine
 10
14.292984
 20
-0.434126
 30
0.0
 11
14.292916
 21
-0.38964
 31
0.0
  0
LINE
  5
456
330
1F
100
AcDbEntity
  8
1
  6
CONTINUOUS
370
50
 62
4
100
AcDbLine
 10
14.29312
 20
-0.477445
 30
0.0
 11
14.292984
 21
-0.434126
 31
0.0
  0
LINE
  5
457
330
1F
100
AcDbEntity
  8
1
  6
CONTINUOUS
370
50
 62
4
100
AcDbLine
 10
14.293325
 20
-0.519197
 30
0.0
 11
14.29312
 21
-0.477445
 31
0.0
  0
LINE
  5
458
330
1F
100
AcDbEntity
  8
1
  6
CONTINUOUS
370
50
 62
4
100
AcDbLine
 10
14.293601
 20
-0.558983
 30
0.0
 11
14.293325
 21
-0.519197
 31
0.0
  0
LINE
  5
459
330
1F
100
AcDbEntity
  8
1
  6
CONTINUOUS
370
50
 62
4
100
AcDbLine
 10
14.293946
 20
-0.5964039999999999
 30
0.0
 11
14.293601
 21
-0.558983
 31
0.0
  0
LINE
  5
45A
330
1F
100
AcDbEntity
  8
1
  6
CONTINUOUS
370
50
 62
4
100
AcDbLine
 10
14.294363
 20
-0.631068
 30
0.0
 11
14.293946
 21
-0.5964039999999999
 31
0.0
  0
LINE
  5
45B
330
1F
100
AcDbEntity
  8
1
  6
CONTINUOUS
370
50
 62
4
100
AcDbLine
 10
14.294846
 20
-0.662725
 30
0.0
 11
14.294363
 21
-0.631068
 31
0.0
  0
LINE
  5
45C
330
1F
100
AcDbEntity
  8
1
  6
CONTINUOUS
370
50
 62
4
100
AcDbLine
 10
14.295389
 20
-0.691256
 30
0.0
 11
14.294846
 21
-0.662725
 31
0.0
  0
LINE
  5
45D
330
1F
100
AcDbEntity
  8
1
  6
CONTINUOUS
370
50
 62
4
100
AcDbLine
 10
14.295987
 20
-0.716548
 30
0.0
 11
14.295389
 21
-0.691256
 31
0.0
  0
LINE
  5
45E
330
1F
100
AcDbEntity
  8
1
  6
CONTINUOUS
370
50
 62
4
100
AcDbLine
 10
14.296633
 20
-0.738487
 30
0.0
 11
14.295987
 21
-0.716548
 31
0.0
  0
LINE
  5
45F
330
1F
100
AcDbEntity
  8
1
  6
CONTINUOUS
370
50
 62
4
100
AcDbLine
 10
14.297319
 20
-0.75696
 30
0.0
 11
14.296633
 21
-0.738487
 31
0.0
  0
LINE
  5
460
330
1F
100
AcDbEntity
  8
1
  6
CONTINUOUS
370
50
 62
4
100
AcDbLine
 10
14.308824
 20
0.709092
 30
0.0
 11
14.30809
 21
0.725474
 31
0.0
  0
LINE
  5
461
330
1F
100
AcDbEntity
  8
1
  6
CONTINUOUS
370
50
 62
4
100
AcDbLine
 10
14.298046
 20
-0.7719659999999999
 30
0.0
 11
14.297319
 21
-0.75696
 31
0.0
  0
LINE
  5
462
330
1F
100
AcDbEntity
  8
1
  6
CONTINUOUS
370
50
 62
4
100
AcDbLine
 10
14.30809
 20
0.725474
 30
0.0
 11
14.307347
 21
0.740455
 31
0.0
  0
LINE
  5
463
330
1F
100
AcDbEntity
  8
1
  6
CONTINUOUS
370
50
 62
4
100
AcDbLine
 10
14.307347
 20
0.740455
 30
0.0
 11
14.3066
 21
0.753949
 31
0.0
  0
LINE
  5
464
330
1F
100
AcDbEntity
  8
1
  6
CONTINUOUS
370
50
 62
4
100
AcDbLine
 10
14.3066
 20
0.753949
 30
0.0
 11
14.305849
 21
0.7658729999999999
 31
0.0
  0
LINE
  5
465
330
1F
100
AcDbEntity
  8
1
  6
CONTINUOUS
370
50
 62
4
100
AcDbLine
 10
14.29883
 20
-0.783876
 30
0.0
 11
14.298046
 21
-0.7719659999999999
 31
0.0
  0
LINE
  5
466
330
1F
100
AcDbEntity
  8
1
  6
CONTINUOUS
370
50
 62
4
100
AcDbLine
 10
14.322306
 20
0.550976
 30
0.0
 11
14.321186
 21
0.567276
 31
0.0
  0
LINE
  5
467
330
1F
100
AcDbEntity
  8
1
  6
CONTINUOUS
370
50
 62
4
100
AcDbLine
 10
14.305849
 20
0.7658729999999999
 30
0.0
 11
14.305099
 21
0.7761429999999999
 31
0.0
  0
LINE
  5
468
330
1F
100
AcDbEntity
  8
1
  6
CONTINUOUS
370
50
 62
4
100
AcDbLine
 10
14.305099
 20
0.7761429999999999
 30
0.0
 11
14.304356
 21
0.784675
 31
0.0
  0
LINE
  5
469
330
1F
100
AcDbEntity
  8
1
  6
CONTINUOUS
370
50
 62
4
100
AcDbLine
 10
14.299669
 20
-0.792601
 30
0.0
 11
14.29883
 21
-0.783876
 31
0.0
  0
LINE
  5
46A
330
1F
100
AcDbEntity
  8
1
  6
CONTINUOUS
370
50
 62
4
100
AcDbLine
 10
14.304356
 20
0.784675
 30
0.0
 11
14.303618
 21
0.791385
 31
0.0
  0
LINE
  5
46B
330
1F
100
AcDbEntity
  8
1
  6
CONTINUOUS
370
50
 62
4
100
AcDbLine
 10
14.558777
 20
-0.033149
 30
0.0
 11
14.558064
 21
-0.026714
 31
0.0
  0
LINE
  5
46C
330
1F
100
AcDbEntity
  8
1
  6
CONTINUOUS
370
50
 62
4
100
AcDbLine
 10
14.558064
 20
-0.026714
 30
0.0
 11
14.557152
 21
-0.020079
 31
0.0
  0
LINE
  5
46D
330
1F
100
AcDbEntity
  8
1
  6
CONTINUOUS
370
50
 62
4
100
AcDbLine
 10
14.303618
 20
0.791385
 30
0.0
 11
14.302893
 21
0.7961889999999999
 31
0.0
  0
LINE
  5
46E
330
1F
100
AcDbEntity
  8
1
  6
CONTINUOUS
370
50
 62
4
100
AcDbLine
 10
14.321186
 20
0.567276
 30
0.0
 11
14.318722
 21
0.5836009999999999
 31
0.0
  0
LINE
  5
46F
330
1F
100
AcDbEntity
  8
1
  6
CONTINUOUS
370
50
 62
4
100
AcDbLine
 10
14.350335
 20
-0.200765
 30
0.0
 11
14.344548
 21
-0.163838
 31
0.0
  0
LINE
  5
470
330
1F
100
AcDbEntity
  8
1
  6
CONTINUOUS
370
50
 62
4
100
AcDbLine
 10
14.557152
 20
-0.020079
 30
0.0
 11
14.55603
 21
-0.01319
 31
0.0
  0
LINE
  5
471
330
1F
100
AcDbEntity
  8
1
  6
CONTINUOUS
370
50
 62
4
100
AcDbLine
 10
14.300556
 20
-0.79799
 30
0.0
 11
14.299669
 21
-0.792601
 31
0.0
  0
LINE
  5
472
330
1F
100
AcDbEntity
  8
1
  6
CONTINUOUS
370
50
 62
4
100
AcDbLine
 10
14.55603
 20
-0.01319
 30
0.0
 11
14.554681
 21
-0.005989
 31
0.0
  0
LINE
  5
473
330
1F
100
AcDbEntity
  8
1
  6
CONTINUOUS
370
50
 62
4
100
AcDbLine
 10
14.554681
 20
-0.005989
 30
0.0
 11
14.553082
 21
0.001594
 31
0.0
  0
LINE
  5
474
330
1F
100
AcDbEntity
  8
1
  6
CONTINUOUS
370
50
 62
4
100
AcDbLine
 10
14.318722
 20
0.5836009999999999
 30
0.0
 11
14.315044
 21
0.5999129999999999
 31
0.0
  0
LINE
  5
475
330
1F
100
AcDbEntity
  8
1
  6
CONTINUOUS
370
50
 62
4
100
AcDbLine
 10
14.553082
 20
0.001594
 30
0.0
 11
14.551208
 21
0.009637
 31
0.0
  0
LINE
  5
476
330
1F
100
AcDbEntity
  8
1
  6
CONTINUOUS
370
50
 62
4
100
AcDbLine
 10
4.574564
 20
0.674647
 30
0.0
 11
4.570114999999999
 21
0.6935669999999999
 31
0.0
  0
LINE
  5
477
330
1F
100
AcDbEntity
  8
1
  6
CONTINUOUS
370
50
 62
4
100
AcDbLine
 10
14.302893
 20
0.7961889999999999
 30
0.0
 11
14.302181
 21
0.799018
 31
0.0
  0
LINE
  5
478
330
1F
100
AcDbEntity
  8
1
  6
CONTINUOUS
370
50
 62
4
100
AcDbLine
 10
14.551208
 20
0.009637
 30
0.0
 11
14.549026
 21
0.018232
 31
0.0
  0
LINE
  5
479
330
1F
100
AcDbEntity
  8
1
  6
CONTINUOUS
370
50
 62
4
100
AcDbLine
 10
14.551157
 20
0.018228
 30
0.0
 11
14.544902
 21
0.040251
 31
0.0
  0
LINE
  5
47A
330
1F
100
AcDbEntity
  8
1
  6
CONTINUOUS
370
50
 62
4
100
AcDbLine
 10
14.315044
 20
0.5999129999999999
 30
0.0
 11
14.310288
 21
0.616138
 31
0.0
  0
LINE
  5
47B
330
1F
100
AcDbEntity
  8
1
  6
CONTINUOUS
370
50
 62
4
100
AcDbLine
 10
14.544902
 20
0.040251
 30
0.0
 11
14.536159
 21
0.067465
 31
0.0
  0
LINE
  5
47C
330
1F
100
AcDbEntity
  8
1
  6
CONTINUOUS
370
50
 62
4
100
AcDbLine
 10
14.536159
 20
0.067465
 30
0.0
 11
14.523716
 21
0.102854
 31
0.0
  0
LINE
  5
47D
330
1F
100
AcDbEntity
  8
1
  6
CONTINUOUS
370
50
 62
4
100
AcDbLine
 10
14.310288
 20
0.616138
 30
0.0
 11
14.304589
 21
0.6321979999999999
 31
0.0
  0
LINE
  5
47E
330
1F
100
AcDbEntity
  8
1
  6
CONTINUOUS
370
50
 62
4
100
AcDbLine
 10
14.6
 20
0.0
 30
0.0
 11
14.302172
 21
0.799074
 31
0.0
  0
LINE
  5
47F
330
1F
100
AcDbEntity
  8
1
  6
CONTINUOUS
370
50
 62
4
100
AcDbLine
 10
14.523716
 20
0.102854
 30
0.0
 11
14.505297
 21
0.151913
 31
0.0
  0
LINE
  5
480
330
1F
100
AcDbEntity
  8
1
  6
CONTINUOUS
370
50
 62
4
100
AcDbLine
 10
14.505297
 20
0.151913
 30
0.0
 11
14.476119
 21
0.22607
 31
0.0
  0
LINE
  5
481
330
1F
100
AcDbEntity
  8
1
  6
CONTINUOUS
370
50
 62
4
100
AcDbLine
 10
14.476119
 20
0.22607
 30
0.0
 11
14.424207
 21
0.353838
 31
0.0
  0
LINE
  5
482
330
1F
100
AcDbEntity
  8
1
  6
CONTINUOUS
370
50
 62
4
100
AcDbLine
 10
14.6
 20
0.0
 30
0.0
 11
14.308824
 21
0.709092
 31
0.0
  0
LINE
  5
483
330
1F
100
AcDbEntity
  8
1
  6
CONTINUOUS
370
50
 62
4
100
AcDbLine
 10
14.424207
 20
0.353838
 30
0.0
 11
14.308824
 21
0.632056
 31
0.0
  0
LINE
  5
484
330
1F
100
AcDbEntity
  8
1
  6
CONTINUOUS
370
50
 62
4
100
AcDbLine
 10
14.302181
 20
0.799018
 30
0.0
 11
14.302064
 21
0.799298
 31
0.0
  0
LINE
  5
485
330
1F
100
AcDbEntity
  8
1
  6
CONTINUOUS
370
50
 62
4
100
AcDbLine
 10
14.301486
 20
-0.7999999999999999
 30
0.0
 11
14.300556
 21
-0.79799
 31
0.0
  0
LINE
  5
486
330
1F
100
AcDbEntity
  8
1
  6
CONTINUOUS
370
50
 62
4
100
AcDbLine
 10
14.344548
 20
-0.163838
 30
0.0
 11
14.322586
 21
-0.119383
 31
0.0
  0
LINE
  5
487
330
1F
100
AcDbEntity
  8
1
  6
CONTINUOUS
370
50
 62
4
100
AcDbLine
 10
4.584741999999999
 20
0.654663
 30
0.0
 11
4.574564
 21
0.674647
 31
0.0
  0
LINE
  5
488
330
1F
100
AcDbEntity
  8
1
  6
CONTINUOUS
370
50
 62
4
100
AcDbLine
 10
14.302064
 20
0.799298
 30
0.0
 11
14.301948
 21
0.799524
 31
0.0
  0
LINE
  5
489
330
1F
100
AcDbEntity
  8
1
  6
CONTINUOUS
370
50
 62
4
100
AcDbLine
 10
14.322586
 20
-0.119383
 30
0.0
 11
14.287023
 21
-0.063461
 31
0.0
  0
LINE
  5
48A
330
1F
100
AcDbEntity
  8
1
  6
CONTINUOUS
370
50
 62
4
100
AcDbLine
 10
14.301948
 20
0.799524
 30
0.0
 11
14.301831
 21
0.799697
 31
0.0
  0
LINE
  5
48B
330
1F
100
AcDbEntity
  8
1
  6
CONTINUOUS
370
50
 62
4
100
AcDbLine
 10
4.599324
 20
0.634081
 30
0.0
 11
4.584741999999999
 21
0.654663
 31
0.0
  0
LINE
  5
48C
330
1F
100
AcDbEntity
  8
1
  6
CONTINUOUS
370
50
 62
4
100
AcDbLine
 10
14.287023
 20
-0.063461
 30
0.0
 11
14.236117
 21
0.007366
 31
0.0
  0
LINE
  5
48D
330
1F
100
AcDbEntity
  8
1
  6
CONTINUOUS
370
50
 62
4
100
AcDbLine
 10
14.236117
 20
0.007366
 30
0.0
 11
14.169036
 21
0.094213
 31
0.0
  0
LINE
  5
48E
330
1F
100
AcDbEntity
  8
1
  6
CONTINUOUS
370
50
 62
4
100
AcDbLine
 10
14.169036
 20
0.094213
 30
0.0
 11
14.084356
 21
0.198912
 31
0.0
  0
LINE
  5
48F
330
1F
100
AcDbEntity
  8
1
  6
CONTINUOUS
370
50
 62
4
100
AcDbLine
 10
14.084356
 20
0.198912
 30
0.0
 11
13.971209
 21
0.334528
 31
0.0
  0
LINE
  5
490
330
1F
100
AcDbEntity
  8
1
  6
CONTINUOUS
370
50
 62
4
100
AcDbLine
 10
4.617017
 20
0.613337
 30
0.0
 11
4.599324
 21
0.634081
 31
0.0
  0
LINE
  5
491
330
1F
100
AcDbEntity
  8
1
  6
CONTINUOUS
370
50
 62
4
100
AcDbLine
 10
4.637257
 20
0.592185
 30
0.0
 11
4.617017
 21
0.613337
 31
0.0
  0
LINE
  5
492
330
1F
100
AcDbEntity
  8
1
  6
CONTINUOUS
370
50
 62
4
100
AcDbLine
 10
14.301831
 20
0.799697
 30
0.0
 11
14.301716
 21
0.799816
 31
0.0
  0
LINE
  5
493
330
1F
100
AcDbEntity
  8
1
  6
CONTINUOUS
370
50
 62
4
100
AcDbLine
 10
4.660493
 20
0.569754
 30
0.0
 11
4.637257
 21
0.592185
 31
0.0
  0
LINE
  5
494
330
1F
100
AcDbEntity
  8
1
  6
CONTINUOUS
370
50
 62
4
100
AcDbLine
 10
5.2656
 20
0.031898
 30
0.0
 11
5.231481
 21
0.064524
 31
0.0
  0
LINE
  5
495
330
1F
100
AcDbEntity
  8
1
  6
CONTINUOUS
370
50
 62
4
100
AcDbLine
 10
5.299030999999999
 20
0.0
 30
0.0
 11
5.2656
 21
0.031898
 31
0.0
  0
LINE
  5
496
330
1F
100
AcDbEntity
  8
1
  6
CONTINUOUS
370
50
 62
4
100
AcDbLine
 10
5.231481
 20
0.064524
 30
0.0
 11
5.196744
 21
0.097633
 31
0.0
  0
LINE
  5
497
330
1F
100
AcDbEntity
  8
1
  6
CONTINUOUS
370
50
 62
4
100
AcDbLine
 10
5.309188
 20
-0.009679
 30
0.0
 11
5.299030999999999
 21
0.0
 31
0.0
  0
LINE
  5
498
330
1F
100
AcDbEntity
  8
1
  6
CONTINUOUS
370
50
 62
4
100
AcDbLine
 10
5.319304
 20
-0.019275
 30
0.0
 11
5.309188
 21
-0.009679
 31
0.0
  0
LINE
  5
499
330
1F
100
AcDbEntity
  8
1
  6
CONTINUOUS
370
50
 62
4
100
AcDbLine
 10
5.196744
 20
0.097633
 30
0.0
 11
5.161963999999999
 21
0.13055
 31
0.0
  0
LINE
  5
49A
330
1F
100
AcDbEntity
  8
1
  6
CONTINUOUS
370
50
 62
4
100
AcDbLine
 10
5.329371999999999
 20
-0.028796
 30
0.0
 11
5.319304
 21
-0.019275
 31
0.0
  0
LINE
  5
49B
330
1F
100
AcDbEntity
  8
1
  6
CONTINUOUS
370
50
 62
4
100
AcDbLine
 10
5.339397
 20
-0.038241
 30
0.0
 11
5.329371999999999
 21
-0.028796
 31
0.0
  0
LINE
  5
49C
330
1F
100
AcDbEntity
  8
1
  6
CONTINUOUS
370
50
 62
4
100
AcDbLine
 10
5.349381999999999
 20
-0.047609
 30
0.0
 11
5.339397
 21
-0.038241
 31
0.0
  0
LINE
  5
49D
330
1F
100
AcDbEntity
  8
1
  6
CONTINUOUS
370
50
 62
4
100
AcDbLine
 10
5.161963999999999
 20
0.13055
 30
0.0
 11
5.127135
 21
0.163191
 31
0.0
  0
LINE
  5
49E
330
1F
100
AcDbEntity
  8
1
  6
CONTINUOUS
370
50
 62
4
100
AcDbLine
 10
5.359331
 20
-0.056898
 30
0.0
 11
5.349381999999999
 21
-0.047609
 31
0.0
  0
LINE
  5
49F
330
1F
100
AcDbEntity
  8
1
  6
CONTINUOUS
370
50
 62
4
100
AcDbLine
 10
5.377439
 20
-0.073676
 30
0.0
 11
5.359331
 21
-0.056898
 31
0.0
  0
LINE
  5
4A0
330
1F
100
AcDbEntity
  8
1
  6
CONTINUOUS
370
50
 62
4
100
AcDbLine
 10
5.127135
 20
0.163191
 30
0.0
 11
5.092201999999999
 21
0.195523
 31
0.0
  0
LINE
  5
4A1
330
1F
100
AcDbEntity
  8
1
  6
CONTINUOUS
370
50
 62
4
100
AcDbLine
 10
5.395461999999999
 20
-0.090179
 30
0.0
 11
5.377439
 21
-0.073676
 31
0.0
  0
LINE
  5
4A2
330
1F
100
AcDbEntity
  8
1
  6
CONTINUOUS
370
50
 62
4
100
AcDbLine
 10
4.686484999999999
 20
0.54603
 30
0.0
 11
4.660493
 21
0.569754
 31
0.0
  0
LINE
  5
4A3
330
1F
100
AcDbEntity
  8
1
  6
CONTINUOUS
370
50
 62
4
100
AcDbLine
 10
5.092201999999999
 20
0.195523
 30
0.0
 11
5.057159
 21
0.227484
 31
0.0
  0
LINE
  5
4A4
330
1F
100
AcDbEntity
  8
1
  6
CONTINUOUS
370
50
 62
4
100
AcDbLine
 10
5.413418
 20
-0.1064
 30
0.0
 11
5.395461999999999
 21
-0.090179
 31
0.0
  0
LINE
  5
4A5
330
1F
100
AcDbEntity
  8
1
  6
CONTINUOUS
370
50
 62
4
100
AcDbLine
 10
5.057159
 20
0.227484
 30
0.0
 11
5.022068
 21
0.259006
 31
0.0
  0
LINE
  5
4A6
330
1F
100
AcDbEntity
  8
1
  6
CONTINUOUS
370
50
 62
4
100
AcDbLine
 10
5.431331999999999
 20
-0.122331
 30
0.0
 11
5.413418
 21
-0.1064
 31
0.0
  0
LINE
  5
4A7
330
1F
100
AcDbEntity
  8
1
  6
CONTINUOUS
370
50
 62
4
100
AcDbLine
 10
5.022068
 20
0.259006
 30
0.0
 11
4.986971
 21
0.29005
 31
0.0
  0
LINE
  5
4A8
330
1F
100
AcDbEntity
  8
1
  6
CONTINUOUS
370
50
 62
4
100
AcDbLine
 10
4.714983999999999
 20
0.521012
 30
0.0
 11
4.686484999999999
 21
0.54603
 31
0.0
  0
LINE
  5
4A9
330
1F
100
AcDbEntity
  8
1
  6
CONTINUOUS
370
50
 62
4
100
AcDbLine
 10
5.449224999999999
 20
-0.137964
 30
0.0
 11
5.431331999999999
 21
-0.122331
 31
0.0
  0
LINE
  5
4AA
330
1F
100
AcDbEntity
  8
1
  6
CONTINUOUS
370
50
 62
4
100
AcDbLine
 10
4.986971
 20
0.29005
 30
0.0
 11
4.951868999999999
 21
0.320625
 31
0.0
  0
LINE
  5
4AB
330
1F
100
AcDbEntity
  8
1
  6
CONTINUOUS
370
50
 62
4
100
AcDbLine
 10
4.951868999999999
 20
0.320625
 30
0.0
 11
4.916834
 21
0.350727
 31
0.0
  0
LINE
  5
4AC
330
1F
100
AcDbEntity
  8
1
  6
CONTINUOUS
370
50
 62
4
100
AcDbLine
 10
5.46712
 20
-0.153291
 30
0.0
 11
5.449224999999999
 21
-0.137964
 31
0.0
  0
LINE
  5
4AD
330
1F
100
AcDbEntity
  8
1
  6
CONTINUOUS
370
50
 62
4
100
AcDbLine
 10
4.746112
 20
0.494383
 30
0.0
 11
4.714983999999999
 21
0.521012
 31
0.0
  0
LINE
  5
4AE
330
1F
100
AcDbEntity
  8
1
  6
CONTINUOUS
370
50
 62
4
100
AcDbLine
 10
4.916834
 20
0.350727
 30
0.0
 11
4.881996
 21
0.38031
 31
0.0
  0
LINE
  5
4AF
330
1F
100
AcDbEntity
  8
1
  6
CONTINUOUS
370
50
 62
4
100
AcDbLine
 10
4.779049
 20
0.466622
 30
0.0
 11
4.746112
 21
0.494383
 31
0.0
  0
LINE
  5
4B0
330
1F
100
AcDbEntity
  8
1
  6
CONTINUOUS
370
50
 62
4
100
AcDbLine
 10
4.881996
 20
0.38031
 30
0.0
 11
4.847322
 21
0.409473
 31
0.0
  0
LINE
  5
4B1
330
1F
100
AcDbEntity
  8
1
  6
CONTINUOUS
370
50
 62
4
100
AcDbLine
 10
4.812901
 20
0.438277
 30
0.0
 11
4.779049
 21
0.466622
 31
0.0
  0
LINE
  5
4B2
330
1F
100
AcDbEntity
  8
1
  6
CONTINUOUS
370
50
 62
4
100
AcDbLine
 10
4.847322
 20
0.409473
 30
0.0
 11
4.812901
 21
0.438277
 31
0.0
  0
LINE
  5
4B3
330
1F
100
AcDbEntity
  8
1
  6
CONTINUOUS
370
50
 62
4
100
AcDbLine
 10
14.558777
 20
-0.033149
 30
0.0
 11
13.971105
 21
0.334511
 31
0.0
  0
LINE
  5
4B4
330
1F
100
AcDbEntity
  8
1
  6
CONTINUOUS
370
50
 62
4
100
AcDbLine
 10
11.24995
 20
-0.029856
 30
0.0
 11
11.116508
 21
0.047335
 31
0.0
  0
LINE
  5
4B5
330
1F
100
AcDbEntity
  8
1
  6
CONTINUOUS
370
50
 62
4
100
AcDbLine
 10
13.96759
 20
-0.047321
 30
0.0
 11
13.833773
 21
0.030014
 31
0.0
  0
LINE
  5
4B6
330
1F
100
AcDbEntity
  8
1
  6
CONTINUOUS
370
50
 62
4
100
AcDbLine
 10
13.833773
 20
0.030014
 30
0.0
 11
13.69968
 21
0.107296
 31
0.0
  0
LINE
  5
4B7
330
1F
100
AcDbEntity
  8
1
  6
CONTINUOUS
370
50
 62
4
100
AcDbLine
 10
14.003536
 20
-0.067957
 30
0.0
 11
13.96759
 21
-0.047321
 31
0.0
  0
LINE
  5
4B8
330
1F
100
AcDbEntity
  8
1
  6
CONTINUOUS
370
50
 62
4
100
AcDbLine
 10
14.301716
 20
0.799816
 30
0.0
 11
14.301601
 21
0.799882
 31
0.0
  0
LINE
  5
4B9
330
1F
100
AcDbEntity
  8
1
  6
CONTINUOUS
370
50
 62
4
100
AcDbLine
 10
11.383645
 20
-0.106583
 30
0.0
 11
11.24995
 21
-0.029856
 31
0.0
  0
LINE
  5
4BA
330
1F
100
AcDbEntity
  8
1
  6
CONTINUOUS
370
50
 62
4
100
AcDbLine
 10
11.116508
 20
0.047335
 30
0.0
 11
10.984531
 21
0.123037
 31
0.0
  0
LINE
  5
4BB
330
1F
100
AcDbEntity
  8
1
  6
CONTINUOUS
370
50
 62
4
100
AcDbLine
 10
6.964632
 20
-0.080055
 30
0.0
 11
6.824688
 21
0.0
 31
0.0
  0
LINE
  5
4BC
330
1F
100
AcDbEntity
  8
1
  6
CONTINUOUS
370
50
 62
4
100
AcDbLine
 10
9.833252
 20
-0.182785
 30
0.0
 11
9.595695
 21
-0.047023
 31
0.0
  0
LINE
  5
4BD
330
1F
100
AcDbEntity
  8
1
  6
CONTINUOUS
370
50
 62
4
100
AcDbLine
 10
14.03959
 20
-0.088546
 30
0.0
 11
14.003536
 21
-0.067957
 31
0.0
  0
LINE
  5
4BE
330
1F
100
AcDbEntity
  8
1
  6
CONTINUOUS
370
50
 62
4
100
AcDbLine
 10
7.103026
 20
-0.159056
 30
0.0
 11
6.964632
 21
-0.080055
 31
0.0
  0
LINE
  5
4BF
330
1F
100
AcDbEntity
  8
1
  6
CONTINUOUS
370
50
 62
4
100
AcDbLine
 10
6.811688999999999
 20
0.007401
 30
0.0
 11
6.798686999999999
 21
0.014808
 31
0.0
  0
LINE
  5
4C0
330
1F
100
AcDbEntity
  8
1
  6
CONTINUOUS
370
50
 62
4
100
AcDbLine
 10
9.595695
 20
-0.047023
 30
0.0
 11
9.368670999999999
 21
0.082263
 31
0.0
  0
LINE
  5
4C1
330
1F
100
AcDbEntity
  8
1
  6
CONTINUOUS
370
50
 62
4
100
AcDbLine
 10
6.798686999999999
 20
0.014808
 30
0.0
 11
6.785679
 21
0.022215
 31
0.0
  0
LINE
  5
4C2
330
1F
100
AcDbEntity
  8
1
  6
CONTINUOUS
370
50
 62
4
100
AcDbLine
 10
6.824688
 20
0.0
 30
0.0
 11
6.811688999999999
 21
0.007401
 31
0.0
  0
LINE
  5
4C3
330
1F
100
AcDbEntity
  8
1
  6
CONTINUOUS
370
50
 62
4
100
AcDbLine
 10
6.785679
 20
0.022215
 30
0.0
 11
6.772666999999999
 21
0.029621
 31
0.0
  0
LINE
  5
4C4
330
1F
100
AcDbEntity
  8
1
  6
CONTINUOUS
370
50
 62
4
100
AcDbLine
 10
6.772666999999999
 20
0.029621
 30
0.0
 11
6.759652
 21
0.037027
 31
0.0
  0
LINE
  5
4C5
330
1F
100
AcDbEntity
  8
1
  6
CONTINUOUS
370
50
 62
4
100
AcDbLine
 10
6.759652
 20
0.037027
 30
0.0
 11
6.746634999999999
 21
0.044431
 31
0.0
  0
LINE
  5
4C6
330
1F
100
AcDbEntity
  8
1
  6
CONTINUOUS
370
50
 62
4
100
AcDbLine
 10
6.746634999999999
 20
0.044431
 30
0.0
 11
6.618517
 21
0.117259
 31
0.0
  0
LINE
  5
4C7
330
1F
100
AcDbEntity
  8
1
  6
CONTINUOUS
370
50
 62
4
100
AcDbLine
 10
14.075754
 20
-0.109045
 30
0.0
 11
14.03959
 21
-0.088546
 31
0.0
  0
LINE
  5
4C8
330
1F
100
AcDbEntity
  8
1
  6
CONTINUOUS
370
50
 62
4
100
AcDbLine
 10
6.618517
 20
0.117259
 30
0.0
 11
6.491130999999999
 21
0.189392
 31
0.0
  0
LINE
  5
4C9
330
1F
100
AcDbEntity
  8
1
  6
CONTINUOUS
370
50
 62
4
100
AcDbLine
 10
9.368670999999999
 20
0.082263
 30
0.0
 11
9.143313
 21
0.20968
 31
0.0
  0
LINE
  5
4CA
330
1F
100
AcDbEntity
  8
1
  6
CONTINUOUS
370
50
 62
4
100
AcDbLine
 10
13.69968
 20
0.107296
 30
0.0
 11
13.564616
 21
0.183338
 31
0.0
  0
LINE
  5
4CB
330
1F
100
AcDbEntity
  8
1
  6
CONTINUOUS
370
50
 62
4
100
AcDbLine
 10
14.112001
 20
-0.129441
 30
0.0
 11
14.075754
 21
-0.109045
 31
0.0
  0
LINE
  5
4CC
330
1F
100
AcDbEntity
  8
1
  6
CONTINUOUS
370
50
 62
4
100
AcDbLine
 10
11.517982
 20
-0.181837
 30
0.0
 11
11.383645
 21
-0.106583
 31
0.0
  0
LINE
  5
4CD
330
1F
100
AcDbEntity
  8
1
  6
CONTINUOUS
370
50
 62
4
100
AcDbLine
 10
7.241137999999999
 20
-0.23637
 30
0.0
 11
7.103026
 21
-0.159056
 31
0.0
  0
LINE
  5
4CE
330
1F
100
AcDbEntity
  8
1
  6
CONTINUOUS
370
50
 62
4
100
AcDbLine
 10
10.984531
 20
0.123037
 30
0.0
 11
10.85166
 21
0.1974
 31
0.0
  0
LINE
  5
4CF
330
1F
100
AcDbEntity
  8
1
  6
CONTINUOUS
370
50
 62
4
100
AcDbLine
 10
14.148298
 20
-0.149735
 30
0.0
 11
14.112001
 21
-0.129441
 31
0.0
  0
LINE
  5
4D0
330
1F
100
AcDbEntity
  8
1
  6
CONTINUOUS
370
50
 62
4
100
AcDbLine
 10
5.598691
 20
-0.25797
 30
0.0
 11
5.46712
 21
-0.184672
 31
0.0
  0
LINE
  5
4D1
330
1F
100
AcDbEntity
  8
1
  6
CONTINUOUS
370
50
 62
4
100
AcDbLine
 10
14.184613
 20
-0.169923
 30
0.0
 11
14.148298
 21
-0.149735
 31
0.0
  0
LINE
  5
4D2
330
1F
100
AcDbEntity
  8
1
  6
CONTINUOUS
370
50
 62
4
100
AcDbLine
 10
6.491130999999999
 20
0.189392
 30
0.0
 11
6.363619
 21
0.260004
 31
0.0
  0
LINE
  5
4D3
330
1F
100
AcDbEntity
  8
1
  6
CONTINUOUS
370
50
 62
4
100
AcDbLine
 10
11.651915
 20
-0.255458
 30
0.0
 11
11.517982
 21
-0.181837
 31
0.0
  0
LINE
  5
4D4
330
1F
100
AcDbEntity
  8
1
  6
CONTINUOUS
370
50
 62
4
100
AcDbLine
 10
13.564616
 20
0.183338
 30
0.0
 11
13.429731
 21
0.25723
 31
0.0
  0
LINE
  5
4D5
330
1F
100
AcDbEntity
  8
1
  6
CONTINUOUS
370
50
 62
4
100
AcDbLine
 10
10.070412
 20
-0.312299
 30
0.0
 11
9.833252
 21
-0.182785
 31
0.0
  0
LINE
  5
4D6
330
1F
100
AcDbEntity
  8
1
  6
CONTINUOUS
370
50
 62
4
100
AcDbLine
 10
10.85166
 20
0.1974
 30
0.0
 11
10.718727
 21
0.269831
 31
0.0
  0
LINE
  5
4D7
330
1F
100
AcDbEntity
  8
1
  6
CONTINUOUS
370
50
 62
4
100
AcDbLine
 10
9.143313
 20
0.20968
 30
0.0
 11
8.918659
 21
0.331672
 31
0.0
  0
LINE
  5
4D8
330
1F
100
AcDbEntity
  8
1
  6
CONTINUOUS
370
50
 62
4
100
AcDbLine
 10
5.729049
 20
-0.328492
 30
0.0
 11
5.598691
 21
-0.25797
 31
0.0
  0
LINE
  5
4D9
330
1F
100
AcDbEntity
  8
1
  6
CONTINUOUS
370
50
 62
4
100
AcDbLine
 10
7.380375
 20
-0.311417
 30
0.0
 11
7.241137999999999
 21
-0.23637
 31
0.0
  0
LINE
  5
4DA
330
1F
100
AcDbEntity
  8
1
  6
CONTINUOUS
370
50
 62
4
100
AcDbLine
 10
11.784907
 20
-0.326884
 30
0.0
 11
11.651915
 21
-0.255458
 31
0.0
  0
LINE
  5
4DB
330
1F
100
AcDbEntity
  8
1
  6
CONTINUOUS
370
50
 62
4
100
AcDbLine
 10
13.429731
 20
0.25723
 30
0.0
 11
13.29618
 21
0.328508
 31
0.0
  0
LINE
  5
4DC
330
1F
100
AcDbEntity
  8
1
  6
CONTINUOUS
370
50
 62
4
100
AcDbLine
 10
6.363619
 20
0.260004
 30
0.0
 11
6.235485
 21
0.328232
 31
0.0
  0
LINE
  5
4DD
330
1F
100
AcDbEntity
  8
1
  6
CONTINUOUS
370
50
 62
4
100
AcDbLine
 10
10.718727
 20
0.269831
 30
0.0
 11
10.586658
 21
0.340099
 31
0.0
  0
LINE
  5
4DE
330
1F
100
AcDbEntity
  8
1
  6
CONTINUOUS
370
50
 62
4
100
AcDbLine
 10
5.859416
 20
-0.395844
 30
0.0
 11
5.729049
 21
-0.328492
 31
0.0
  0
LINE
  5
4DF
330
1F
100
AcDbEntity
  8
1
  6
CONTINUOUS
370
50
 62
4
100
AcDbLine
 10
11.91805
 20
-0.395577
 30
0.0
 11
11.784907
 21
-0.326884
 31
0.0
  0
LINE
  5
4E0
330
1F
100
AcDbEntity
  8
1
  6
CONTINUOUS
370
50
 62
4
100
AcDbLine
 10
13.29618
 20
0.328508
 30
0.0
 11
13.163326
 21
0.396937
 31
0.0
  0
LINE
  5
4E1
330
1F
100
AcDbEntity
  8
1
  6
CONTINUOUS
370
50
 62
4
100
AcDbLine
 10
7.520751
 20
-0.383275
 30
0.0
 11
7.380375
 21
-0.311417
 31
0.0
  0
LINE
  5
4E2
330
1F
100
AcDbEntity
  8
1
  6
CONTINUOUS
370
50
 62
4
100
AcDbLine
 10
10.586658
 20
0.340099
 30
0.0
 11
10.45477
 21
0.407525
 31
0.0
  0
LINE
  5
4E3
330
1F
100
AcDbEntity
  8
1
  6
CONTINUOUS
370
50
 62
4
100
AcDbLine
 10
6.235485
 20
0.328232
 30
0.0
 11
6.10703
 21
0.393604
 31
0.0
  0
LINE
  5
4E4
330
1F
100
AcDbEntity
  8
1
  6
CONTINUOUS
370
50
 62
4
100
AcDbLine
 10
10.304868
 20
-0.430527
 30
0.0
 11
10.070412
 21
-0.312299
 31
0.0
  0
LINE
  5
4E5
330
1F
100
AcDbEntity
  8
1
  6
CONTINUOUS
370
50
 62
4
100
AcDbLine
 10
8.918659
 20
0.331672
 30
0.0
 11
8.692224999999999
 21
0.4443
 31
0.0
  0
LINE
  5
4E6
330
1F
100
AcDbEntity
  8
1
  6
CONTINUOUS
370
50
 62
4
100
AcDbLine
 10
7.660609
 20
-0.451598
 30
0.0
 11
7.520751
 21
-0.383275
 31
0.0
  0
LINE
  5
4E7
330
1F
100
AcDbEntity
  8
1
  6
CONTINUOUS
370
50
 62
4
100
AcDbLine
 10
13.163326
 20
0.396937
 30
0.0
 11
13.030105
 21
0.461939
 31
0.0
  0
LINE
  5
4E8
330
1F
100
AcDbEntity
  8
1
  6
CONTINUOUS
370
50
 62
4
100
AcDbLine
 10
12.05153
 20
-0.460521
 30
0.0
 11
11.91805
 21
-0.395577
 31
0.0
  0
LINE
  5
4E9
330
1F
100
AcDbEntity
  8
1
  6
CONTINUOUS
370
50
 62
4
100
AcDbLine
 10
5.991007
 20
-0.459634
 30
0.0
 11
5.859416
 21
-0.395844
 31
0.0
  0
LINE
  5
4EA
330
1F
100
AcDbEntity
  8
1
  6
CONTINUOUS
370
50
 62
4
100
AcDbLine
 10
6.10703
 20
0.393604
 30
0.0
 11
5.9786
 21
0.455723
 31
0.0
  0
LINE
  5
4EB
330
1F
100
AcDbEntity
  8
1
  6
CONTINUOUS
370
50
 62
4
100
AcDbLine
 10
14.204747
 20
-0.179633
 30
0.0
 11
14.184613
 21
-0.169923
 31
0.0
  0
LINE
  5
4EC
330
1F
100
AcDbEntity
  8
1
  6
CONTINUOUS
370
50
 62
4
100
AcDbLine
 10
10.45477
 20
0.407525
 30
0.0
 11
10.323275
 21
0.47091
 31
0.0
  0
LINE
  5
4ED
330
1F
100
AcDbEntity
  8
1
  6
CONTINUOUS
370
50
 62
4
100
AcDbLine
 10
10.535837
 20
-0.536671
 30
0.0
 11
10.304868
 21
-0.430527
 31
0.0
  0
LINE
  5
4EE
330
1F
100
AcDbEntity
  8
1
  6
CONTINUOUS
370
50
 62
4
100
AcDbLine
 10
7.8
 20
-0.515648
 30
0.0
 11
7.660609
 21
-0.451598
 31
0.0
  0
LINE
  5
4EF
330
1F
100
AcDbEntity
  8
1
  6
CONTINUOUS
370
50
 62
4
100
AcDbLine
 10
5.9786
 20
0.455723
 30
0.0
 11
5.85054
 21
0.514189
 31
0.0
  0
LINE
  5
4F0
330
1F
100
AcDbEntity
  8
1
  6
CONTINUOUS
370
50
 62
4
100
AcDbLine
 10
14.222141
 20
-0.187502
 30
0.0
 11
14.204747
 21
-0.179633
 31
0.0
  0
LINE
  5
4F1
330
1F
100
AcDbEntity
  8
1
  6
CONTINUOUS
370
50
 62
4
100
AcDbLine
 10
13.030105
 20
0.461939
 30
0.0
 11
12.896465
 21
0.5223949999999999
 31
0.0
  0
LINE
  5
4F2
330
1F
100
AcDbEntity
  8
1
  6
CONTINUOUS
370
50
 62
4
100
AcDbLine
 10
8.692224999999999
 20
0.4443
 30
0.0
 11
8.469336
 21
0.5449379999999999
 31
0.0
  0
LINE
  5
4F3
330
1F
100
AcDbEntity
  8
1
  6
CONTINUOUS
370
50
 62
4
100
AcDbLine
 10
12.185773
 20
-0.5209469999999999
 30
0.0
 11
12.05153
 21
-0.460521
 31
0.0
  0
LINE
  5
4F4
330
1F
100
AcDbEntity
  8
1
  6
CONTINUOUS
370
50
 62
4
100
AcDbLine
 10
6.123919
 20
-0.519065
 30
0.0
 11
5.991007
 21
-0.459634
 31
0.0
  0
LINE
  5
4F5
330
1F
100
AcDbEntity
  8
1
  6
CONTINUOUS
370
50
 62
4
100
AcDbLine
 10
10.323275
 20
0.47091
 30
0.0
 11
10.191388
 21
0.5297999999999999
 31
0.0
  0
LINE
  5
4F6
330
1F
100
AcDbEntity
  8
1
  6
CONTINUOUS
370
50
 62
4
100
AcDbLine
 10
5.467452
 20
0.130193
 30
0.0
 11
5.46712
 21
0.130337
 31
0.0
  0
LINE
  5
4F7
330
1F
100
AcDbEntity
  8
1
  6
CONTINUOUS
370
50
 62
4
100
AcDbLine
 10
5.467784
 20
0.130051
 30
0.0
 11
5.467452
 21
0.130193
 31
0.0
  0
LINE
  5
4F8
330
1F
100
AcDbEntity
  8
1
  6
CONTINUOUS
370
50
 62
4
100
AcDbLine
 10
7.910221
 20
-0.5626059999999999
 30
0.0
 11
7.8
 21
-0.515532
 31
0.0
  0
LINE
  5
4F9
330
1F
100
AcDbEntity
  8
1
  6
CONTINUOUS
370
50
 62
4
100
AcDbLine
 10
5.85054
 20
0.514189
 30
0.0
 11
5.723197
 21
0.5685049999999999
 31
0.0
  0
LINE
  5
4FA
330
1F
100
AcDbEntity
  8
1
  6
CONTINUOUS
370
50
 62
4
100
AcDbLine
 10
14.236907
 20
-0.193796
 30
0.0
 11
14.222141
 21
-0.187502
 31
0.0
  0
LINE
  5
4FB
330
1F
100
AcDbEntity
  8
1
  6
CONTINUOUS
370
50
 62
4
100
AcDbLine
 10
5.468116999999999
 20
0.12991
 30
0.0
 11
5.467784
 21
0.130051
 31
0.0
  0
LINE
  5
4FC
330
1F
100
AcDbEntity
  8
1
  6
CONTINUOUS
370
50
 62
4
100
AcDbLine
 10
5.468451
 20
0.12977
 30
0.0
 11
5.468116999999999
 21
0.12991
 31
0.0
  0
LINE
  5
4FD
330
1F
100
AcDbEntity
  8
1
  6
CONTINUOUS
370
50
 62
4
100
AcDbLine
 10
6.254207999999999
 20
-0.573249
 30
0.0
 11
6.123919
 21
-0.519065
 31
0.0
  0
LINE
  5
4FE
330
1F
100
AcDbEntity
  8
1
  6
CONTINUOUS
370
50
 62
4
100
AcDbLine
 10
12.320399
 20
-0.57677
 30
0.0
 11
12.185773
 21
-0.5209469999999999
 31
0.0
  0
LINE
  5
4FF
330
1F
100
AcDbEntity
  8
1
  6
CONTINUOUS
370
50
 62
4
100
AcDbLine
 10
5.468785
 20
0.129632
 30
0.0
 11
5.468451
 21
0.12977
 31
0.0
  0
LINE
  5
500
330
1F
100
AcDbEntity
  8
1
  6
CONTINUOUS
370
50
 62
4
100
AcDbLine
 10
12.896465
 20
0.5223949999999999
 30
0.0
 11
12.762053
 21
0.5778249999999999
 31
0.0
  0
LINE
  5
501
330
1F
100
AcDbEntity
  8
1
  6
CONTINUOUS
370
50
 62
4
100
AcDbLine
 10
5.469119999999999
 20
0.129495
 30
0.0
 11
5.468785
 21
0.129632
 31
0.0
  0
LINE
  5
502
330
1F
100
AcDbEntity
  8
1
  6
CONTINUOUS
370
50
 62
4
100
AcDbLine
 10
10.191388
 20
0.5297999999999999
 30
0.0
 11
10.059741
 21
0.583513
 31
0.0
  0
LINE
  5
503
330
1F
100
AcDbEntity
  8
1
  6
CONTINUOUS
370
50
 62
4
100
AcDbLine
 10
14.249143
 20
-0.198699
 30
0.0
 11
14.236907
 21
-0.193796
 31
0.0
  0
LINE
  5
504
330
1F
100
AcDbEntity
  8
1
  6
CONTINUOUS
370
50
 62
4
100
AcDbLine
 10
8.020691
 20
-0.6059749999999999
 30
0.0
 11
7.910221
 21
-0.5626059999999999
 31
0.0
  0
LINE
  5
505
330
1F
100
AcDbEntity
  8
1
  6
CONTINUOUS
370
50
 62
4
100
AcDbLine
 10
10.769914
 20
-0.6282449999999999
 30
0.0
 11
10.535837
 21
-0.536671
 31
0.0
  0
LINE
  5
506
330
1F
100
AcDbEntity
  8
1
  6
CONTINUOUS
370
50
 62
4
100
AcDbLine
 10
8.469336
 20
0.5449379999999999
 30
0.0
 11
8.247174
 21
0.631545
 31
0.0
  0
LINE
  5
507
330
1F
100
AcDbEntity
  8
1
  6
CONTINUOUS
370
50
 62
4
100
AcDbLine
 10
5.723197
 20
0.5685049999999999
 30
0.0
 11
5.596386
 21
0.6178089999999999
 31
0.0
  0
LINE
  5
508
330
1F
100
AcDbEntity
  8
1
  6
CONTINUOUS
370
50
 62
4
100
AcDbLine
 10
6.382867
 20
-0.6224299999999999
 30
0.0
 11
6.254207999999999
 21
-0.573249
 31
0.0
  0
LINE
  5
509
330
1F
100
AcDbEntity
  8
1
  6
CONTINUOUS
370
50
 62
4
100
AcDbLine
 10
12.453844
 20
-0.6273679999999999
 30
0.0
 11
12.320399
 21
-0.57677
 31
0.0
  0
LINE
  5
50A
330
1F
100
AcDbEntity
  8
1
  6
CONTINUOUS
370
50
 62
4
100
AcDbLine
 10
14.258945
 20
-0.202396
 30
0.0
 11
14.249143
 21
-0.198699
 31
0.0
  0
LINE
  5
50B
330
1F
100
AcDbEntity
  8
1
  6
CONTINUOUS
370
50
 62
4
100
AcDbLine
 10
12.762053
 20
0.5778249999999999
 30
0.0
 11
12.628227
 21
0.6281169999999999
 31
0.0
  0
LINE
  5
50C
330
1F
100
AcDbEntity
  8
1
  6
CONTINUOUS
370
50
 62
4
100
AcDbLine
 10
10.059741
 20
0.583513
 30
0.0
 11
9.930091
 21
0.631903
 31
0.0
  0
LINE
  5
50D
330
1F
100
AcDbEntity
  8
1
  6
CONTINUOUS
370
50
 62
4
100
AcDbLine
 10
14.6
 20
0.0
 30
0.0
 11
14.551157
 21
0.018228
 31
0.0
  0
LINE
  5
50E
330
1F
100
AcDbEntity
  8
1
  6
CONTINUOUS
370
50
 62
4
100
AcDbLine
 10
5.469119999999999
 20
0.6801889999999999
 30
0.0
 11
5.425682
 21
0.696091
 31
0.0
  0
LINE
  5
50F
330
1F
100
AcDbEntity
  8
1
  6
CONTINUOUS
370
50
 62
4
100
AcDbLine
 10
14.6
 20
0.0
 30
0.0
 11
14.549026
 21
0.018232
 31
0.0
  0
LINE
  5
510
330
1F
100
AcDbEntity
  8
1
  6
CONTINUOUS
370
50
 62
4
100
AcDbLine
 10
14.266878
 20
-0.205225
 30
0.0
 11
14.258945
 21
-0.202396
 31
0.0
  0
LINE
  5
511
330
1F
100
AcDbEntity
  8
1
  6
CONTINUOUS
370
50
 62
4
100
AcDbLine
 10
8.131694
 20
-0.645335
 30
0.0
 11
8.020691
 21
-0.6059749999999999
 31
0.0
  0
LINE
  5
512
330
1F
100
AcDbEntity
  8
1
  6
CONTINUOUS
370
50
 62
4
100
AcDbLine
 10
5.596386
 20
0.6178089999999999
 30
0.0
 11
5.469119999999999
 21
0.661777
 31
0.0
  0
LINE
  5
513
330
1F
100
AcDbEntity
  8
1
  6
CONTINUOUS
370
50
 62
4
100
AcDbLine
 10
6.511212
 20
-0.6662969999999999
 30
0.0
 11
6.382867
 21
-0.6224299999999999
 31
0.0
  0
LINE
  5
514
330
1F
100
AcDbEntity
  8
1
  6
CONTINUOUS
370
50
 62
4
100
AcDbLine
 10
12.586227
 20
-0.67197
 30
0.0
 11
12.453844
 21
-0.6273679999999999
 31
0.0
  0
LINE
  5
515
330
1F
100
AcDbEntity
  8
1
  6
CONTINUOUS
370
50
 62
4
100
AcDbLine
 10
12.628227
 20
0.6281169999999999
 30
0.0
 11
12.495486
 21
0.672694
 31
0.0
  0
LINE
  5
516
330
1F
100
AcDbEntity
  8
1
  6
CONTINUOUS
370
50
 62
4
100
AcDbLine
 10
14.274681
 20
-0.207831
 30
0.0
 11
14.266878
 21
-0.205225
 31
0.0
  0
LINE
  5
517
330
1F
100
AcDbEntity
  8
1
  6
CONTINUOUS
370
50
 62
4
100
AcDbLine
 10
9.930091
 20
0.631903
 30
0.0
 11
9.801086
 21
0.674863
 31
0.0
  0
LINE
  5
518
330
1F
100
AcDbEntity
  8
1
  6
CONTINUOUS
370
50
 62
4
100
AcDbLine
 10
14.304589
 20
0.6321979999999999
 30
0.0
 11
14.172911
 21
0.675292
 31
0.0
  0
LINE
  5
519
330
1F
100
AcDbEntity
  8
1
  6
CONTINUOUS
370
50
 62
4
100
AcDbLine
 10
5.425682
 20
0.696091
 30
0.0
 11
5.382235
 21
0.710066
 31
0.0
  0
LINE
  5
51A
330
1F
100
AcDbEntity
  8
1
  6
CONTINUOUS
370
50
 62
4
100
AcDbLine
 10
8.242331
 20
-0.680592
 30
0.0
 11
8.131694
 21
-0.645335
 31
0.0
  0
LINE
  5
51B
330
1F
100
AcDbEntity
  8
1
  6
CONTINUOUS
370
50
 62
4
100
AcDbLine
 10
11.003448
 20
-0.701827
 30
0.0
 11
10.769914
 21
-0.6282449999999999
 31
0.0
  0
LINE
  5
51C
330
1F
100
AcDbEntity
  8
1
  6
CONTINUOUS
370
50
 62
4
100
AcDbLine
 10
8.247174
 20
0.631545
 30
0.0
 11
8.022532
 21
0.701718
 31
0.0
  0
LINE
  5
51D
330
1F
100
AcDbEntity
  8
1
  6
CONTINUOUS
370
50
 62
4
100
AcDbLine
 10
14.282448
 20
-0.210221
 30
0.0
 11
14.274681
 21
-0.207831
 31
0.0
  0
LINE
  5
51E
330
1F
100
AcDbEntity
  8
1
  6
CONTINUOUS
370
50
 62
4
100
AcDbLine
 10
6.640556
 20
-0.704537
 30
0.0
 11
6.511212
 21
-0.6662969999999999
 31
0.0
  0
LINE
  5
51F
330
1F
100
AcDbEntity
  8
1
  6
CONTINUOUS
370
50
 62
4
100
AcDbLine
 10
12.495486
 20
0.672694
 30
0.0
 11
12.362626
 21
0.7111529999999999
 31
0.0
  0
LINE
  5
520
330
1F
100
AcDbEntity
  8
1
  6
CONTINUOUS
370
50
 62
4
100
AcDbLine
 10
12.718817
 20
-0.7103229999999999
 30
0.0
 11
12.586227
 21
-0.67197
 31
0.0
  0
LINE
  5
521
330
1F
100
AcDbEntity
  8
1
  6
CONTINUOUS
370
50
 62
4
100
AcDbLine
 10
9.801086
 20
0.674863
 30
0.0
 11
9.671508
 21
0.712074
 31
0.0
  0
LINE
  5
522
330
1F
100
AcDbEntity
  8
1
  6
CONTINUOUS
370
50
 62
4
100
AcDbLine
 10
14.172911
 20
0.675292
 30
0.0
 11
14.041226
 21
0.7125549999999999
 31
0.0
  0
LINE
  5
523
330
1F
100
AcDbEntity
  8
1
  6
CONTINUOUS
370
50
 62
4
100
AcDbLine
 10
8.352087
 20
-0.71163
 30
0.0
 11
8.242331
 21
-0.680592
 31
0.0
  0
LINE
  5
524
330
1F
100
AcDbEntity
  8
1
  6
CONTINUOUS
370
50
 62
4
100
AcDbLine
 10
5.382235
 20
0.710066
 30
0.0
 11
5.338728
 21
0.722244
 31
0.0
  0
LINE
  5
525
330
1F
100
AcDbEntity
  8
1
  6
CONTINUOUS
370
50
 62
4
100
AcDbLine
 10
14.290112
 20
-0.212347
 30
0.0
 11
14.282448
 21
-0.210221
 31
0.0
  0
LINE
  5
526
330
1F
100
AcDbEntity
  8
1
  6
CONTINUOUS
370
50
 62
4
100
AcDbLine
 10
2.6
 20
0.7995
 30
0.0
 11
0.0
 21
1.5
 31
0.0
  0
LINE
  5
527
330
1F
100
AcDbEntity
  8
1
  6
CONTINUOUS
370
50
 62
4
100
AcDbLine
 10
6.771845
 20
-0.73676
 30
0.0
 11
6.640556
 21
-0.704537
 31
0.0
  0
LINE
  5
528
330
1F
100
AcDbEntity
  8
1
  6
CONTINUOUS
370
50
 62
4
100
AcDbLine
 10
8.461508
 20
-0.738279
 30
0.0
 11
8.352087
 21
-0.71163
 31
0.0
  0
LINE
  5
529
330
1F
100
AcDbEntity
  8
1
  6
CONTINUOUS
370
50
 62
4
100
AcDbLine
 10
14.297609
 20
-0.21416
 30
0.0
 11
14.290112
 21
-0.212347
 31
0.0
  0
LINE
  5
52A
330
1F
100
AcDbEntity
  8
1
  6
CONTINUOUS
370
50
 62
4
100
AcDbLine
 10
5.338728
 20
0.722244
 30
0.0
 11
5.295114
 21
0.7327589999999999
 31
0.0
  0
LINE
  5
52B
330
1F
100
AcDbEntity
  8
1
  6
CONTINUOUS
370
50
 62
4
100
AcDbLine
 10
12.362626
 20
0.7111529999999999
 30
0.0
 11
12.228735
 21
0.742991
 31
0.0
  0
LINE
  5
52C
330
1F
100
AcDbEntity
  8
1
  6
CONTINUOUS
370
50
 62
4
100
AcDbLine
 10
14.041226
 20
0.7125549999999999
 30
0.0
 11
13.910484
 21
0.743644
 31
0.0
  0
LINE
  5
52D
330
1F
100
AcDbEntity
  8
1
  6
CONTINUOUS
370
50
 62
4
100
AcDbLine
 10
12.852689
 20
-0.742147
 30
0.0
 11
12.718817
 21
-0.7103229999999999
 31
0.0
  0
LINE
  5
52E
330
1F
100
AcDbEntity
  8
1
  6
CONTINUOUS
370
50
 62
4
100
AcDbLine
 10
9.671508
 20
0.712074
 30
0.0
 11
9.540265
 21
0.7431949999999999
 31
0.0
  0
LINE
  5
52F
330
1F
100
AcDbEntity
  8
1
  6
CONTINUOUS
370
50
 62
4
100
AcDbLine
 10
8.022532
 20
0.701718
 30
0.0
 11
7.8
 21
0.754023
 31
0.0
  0
LINE
  5
530
330
1F
100
AcDbEntity
  8
1
  6
CONTINUOUS
370
50
 62
4
100
AcDbLine
 10
11.235294
 20
-0.756083
 30
0.0
 11
11.003448
 21
-0.701827
 31
0.0
  0
LINE
  5
531
330
1F
100
AcDbEntity
  8
1
  6
CONTINUOUS
370
50
 62
4
100
AcDbLine
 10
5.295114
 20
0.7327589999999999
 30
0.0
 11
5.251341
 21
0.7417429999999999
 31
0.0
  0
LINE
  5
532
330
1F
100
AcDbEntity
  8
1
  6
CONTINUOUS
370
50
 62
4
100
AcDbLine
 10
8.571218
 20
-0.7603789999999999
 30
0.0
 11
8.461508
 21
-0.738279
 31
0.0
  0
LINE
  5
533
330
1F
100
AcDbEntity
  8
1
  6
CONTINUOUS
370
50
 62
4
100
AcDbLine
 10
14.304871
 20
-0.215609
 30
0.0
 11
14.297609
 21
-0.21416
 31
0.0
  0
LINE
  5
534
330
1F
100
AcDbEntity
  8
1
  6
CONTINUOUS
370
50
 62
4
100
AcDbLine
 10
6.901559
 20
-0.762313
 30
0.0
 11
6.771845
 21
-0.73676
 31
0.0
  0
LINE
  5
535
330
1F
100
AcDbEntity
  8
1
  6
CONTINUOUS
370
50
 62
4
100
AcDbLine
 10
12.985968
 20
-0.7671819999999999
 30
0.0
 11
12.852689
 21
-0.742147
 31
0.0
  0
LINE
  5
536
330
1F
100
AcDbEntity
  8
1
  6
CONTINUOUS
370
50
 62
4
100
AcDbLine
 10
13.910484
 20
0.743644
 30
0.0
 11
13.779724
 21
0.768181
 31
0.0
  0
LINE
  5
537
330
1F
100
AcDbEntity
  8
1
  6
CONTINUOUS
370
50
 62
4
100
AcDbLine
 10
9.540265
 20
0.7431949999999999
 30
0.0
 11
9.40794
 21
0.767776
 31
0.0
  0
LINE
  5
538
330
1F
100
AcDbEntity
  8
1
  6
CONTINUOUS
370
50
 62
4
100
AcDbLine
 10
12.228735
 20
0.742991
 30
0.0
 11
12.095078
 21
0.767813
 31
0.0
  0
LINE
  5
539
330
1F
100
AcDbEntity
  8
1
  6
CONTINUOUS
370
50
 62
4
100
AcDbLine
 10
7.8
 20
0.7536879999999999
 30
0.0
 11
7.714658999999999
 21
0.768726
 31
0.0
  0
LINE
  5
53A
330
1F
100
AcDbEntity
  8
1
  6
CONTINUOUS
370
50
 62
4
100
AcDbLine
 10
5.251341
 20
0.7417429999999999
 30
0.0
 11
5.207363
 21
0.749327
 31
0.0
  0
LINE
  5
53B
330
1F
100
AcDbEntity
  8
1
  6
CONTINUOUS
370
50
 62
4
100
AcDbLine
 10
8.681101
 20
-0.777654
 30
0.0
 11
8.571218
 21
-0.7603789999999999
 31
0.0
  0
LINE
  5
53C
330
1F
100
AcDbEntity
  8
1
  6
CONTINUOUS
370
50
 62
4
100
AcDbLine
 10
14.311831
 20
-0.216645
 30
0.0
 11
14.304871
 21
-0.215609
 31
0.0
  0
LINE
  5
53D
330
1F
100
AcDbEntity
  8
1
  6
CONTINUOUS
370
50
 62
4
100
AcDbLine
 10
7.030198
 20
-0.781373
 30
0.0
 11
6.901559
 21
-0.762313
 31
0.0
  0
LINE
  5
53E
330
1F
100
AcDbEntity
  8
1
  6
CONTINUOUS
370
50
 62
4
100
AcDbLine
 10
5.207363
 20
0.749327
 30
0.0
 11
5.163129
 21
0.755644
 31
0.0
  0
LINE
  5
53F
330
1F
100
AcDbEntity
  8
1
  6
CONTINUOUS
370
50
 62
4
100
AcDbLine
 10
7.714658999999999
 20
0.768726
 30
0.0
 11
7.629556999999999
 21
0.7807799999999999
 31
0.0
  0
LINE
  5
540
330
1F
100
AcDbEntity
  8
1
  6
CONTINUOUS
370
50
 62
4
100
AcDbLine
 10
11.468159
 20
-0.7889879999999999
 30
0.0
 11
11.235294
 21
-0.756083
 31
0.0
  0
LINE
  5
541
330
1F
100
AcDbEntity
  8
1
  6
CONTINUOUS
370
50
 62
4
100
AcDbLine
 10
13.118553
 20
-0.785315
 30
0.0
 11
12.985968
 21
-0.7671819999999999
 31
0.0
  0
LINE
  5
542
330
1F
100
AcDbEntity
  8
1
  6
CONTINUOUS
370
50
 62
4
100
AcDbLine
 10
12.095078
 20
0.767813
 30
0.0
 11
11.963045
 21
0.7855989999999999
 31
0.0
  0
LINE
  5
543
330
1F
100
AcDbEntity
  8
1
  6
CONTINUOUS
370
50
 62
4
100
AcDbLine
 10
9.40794
 20
0.767776
 30
0.0
 11
9.275749
 21
0.785582
 31
0.0
  0
LINE
  5
544
330
1F
100
AcDbEntity
  8
1
  6
CONTINUOUS
370
50
 62
4
100
AcDbLine
 10
13.779724
 20
0.768181
 30
0.0
 11
13.648193
 21
0.785839
 31
0.0
  0
LINE
  5
545
330
1F
100
AcDbEntity
  8
1
  6
CONTINUOUS
370
50
 62
4
100
AcDbLine
 10
5.163129
 20
0.755644
 30
0.0
 11
5.118590999999999
 21
0.760826
 31
0.0
  0
LINE
  5
546
330
1F
100
AcDbEntity
  8
1
  6
CONTINUOUS
370
50
 62
4
100
AcDbLine
 10
14.301601
 20
0.799882
 30
0.0
 11
14.301487
 21
0.7998949999999999
 31
0.0
  0
LINE
  5
547
330
1F
100
AcDbEntity
  8
1
  6
CONTINUOUS
370
50
 62
4
100
AcDbLine
 10
8.791532
 20
-0.790026
 30
0.0
 11
8.681101
 21
-0.777654
 31
0.0
  0
LINE
  5
548
330
1F
100
AcDbEntity
  8
1
  6
CONTINUOUS
370
50
 62
4
100
AcDbLine
 10
7.629556999999999
 20
0.7807799999999999
 30
0.0
 11
7.544312
 21
0.7898529999999999
 31
0.0
  0
LINE
  5
549
330
1F
100
AcDbEntity
  8
1
  6
CONTINUOUS
370
50
 62
4
100
AcDbLine
 10
7.159027999999999
 20
-0.793744
 30
0.0
 11
7.030198
 21
-0.781373
 31
0.0
  0
LINE
  5
54A
330
1F
100
AcDbEntity
  8
1
  6
CONTINUOUS
370
50
 62
4
100
AcDbLine
 10
5.118590999999999
 20
0.760826
 30
0.0
 11
5.073699
 21
0.7650049999999999
 31
0.0
  0
LINE
  5
54B
330
1F
100
AcDbEntity
  8
1
  6
CONTINUOUS
370
50
 62
4
100
AcDbLine
 10
14.318435
 20
-0.21722
 30
0.0
 11
14.311831
 21
-0.216645
 31
0.0
  0
LINE
  5
54C
330
1F
100
AcDbEntity
  8
1
  6
CONTINUOUS
370
50
 62
4
100
AcDbLine
 10
13.251455
 20
-0.796331
 30
0.0
 11
13.118553
 21
-0.785315
 31
0.0
  0
LINE
  5
54D
330
1F
100
AcDbEntity
  8
1
  6
CONTINUOUS
370
50
 62
4
100
AcDbLine
 10
9.275749
 20
0.785582
 30
0.0
 11
9.144314
 21
0.796383
 31
0.0
  0
LINE
  5
54E
330
1F
100
AcDbEntity
  8
1
  6
CONTINUOUS
370
50
 62
4
100
AcDbLine
 10
11.963045
 20
0.7855989999999999
 30
0.0
 11
11.831826
 21
0.796376
 31
0.0
  0
LINE
  5
54F
330
1F
100
AcDbEntity
  8
1
  6
CONTINUOUS
370
50
 62
4
100
AcDbLine
 10
13.648193
 20
0.785839
 30
0.0
 11
13.516248
 21
0.796462
 31
0.0
  0
LINE
  5
550
330
1F
100
AcDbEntity
  8
1
  6
CONTINUOUS
370
50
 62
4
100
AcDbLine
 10
5.073699
 20
0.7650049999999999
 30
0.0
 11
5.028236
 21
0.7682939999999999
 31
0.0
  0
LINE
  5
551
330
1F
100
AcDbEntity
  8
1
  6
CONTINUOUS
370
50
 62
4
100
AcDbLine
 10
7.544312
 20
0.7898529999999999
 30
0.0
 11
7.458572999999999
 21
0.795943
 31
0.0
  0
LINE
  5
552
330
1F
100
AcDbEntity
  8
1
  6
CONTINUOUS
370
50
 62
4
100
AcDbLine
 10
8.902324
 20
-0.797491
 30
0.0
 11
8.791532
 21
-0.790026
 31
0.0
  0
LINE
  5
553
330
1F
100
AcDbEntity
  8
1
  6
CONTINUOUS
370
50
 62
4
100
AcDbLine
 10
5.028236
 20
0.7682939999999999
 30
0.0
 11
4.982149
 21
0.770713
 31
0.0
  0
LINE
  5
554
330
1F
100
AcDbEntity
  8
1
  6
CONTINUOUS
370
50
 62
4
100
AcDbLine
 10
11.700233
 20
-0.7999999999999999
 30
0.0
 11
11.468159
 21
-0.7889879999999999
 31
0.0
  0
LINE
  5
555
330
1F
100
AcDbEntity
  8
1
  6
CONTINUOUS
370
50
 62
4
100
AcDbLine
 10
7.289149999999999
 20
-0.799226
 30
0.0
 11
7.159027999999999
 21
-0.793744
 31
0.0
  0
LINE
  5
556
330
1F
100
AcDbEntity
  8
1
  6
CONTINUOUS
370
50
 62
4
100
AcDbLine
 10
7.458572999999999
 20
0.795943
 30
0.0
 11
7.373118
 21
0.7990459999999999
 31
0.0
  0
LINE
  5
557
330
1F
100
AcDbEntity
  8
1
  6
CONTINUOUS
370
50
 62
4
100
AcDbLine
 10
4.982149
 20
0.770713
 30
0.0
 11
4.935677999999999
 21
0.772257
 31
0.0
  0
LINE
  5
558
330
1F
100
AcDbEntity
  8
1
  6
CONTINUOUS
370
50
 62
4
100
AcDbLine
 10
13.384325
 20
-0.7999999999999999
 30
0.0
 11
13.251455
 21
-0.796331
 31
0.0
  0
LINE
  5
559
330
1F
100
AcDbEntity
  8
1
  6
CONTINUOUS
370
50
 62
4
100
AcDbLine
 10
11.831826
 20
0.796376
 30
0.0
 11
11.700233
 21
0.7999999999999999
 31
0.0
  0
LINE
  5
55A
330
1F
100
AcDbEntity
  8
1
  6
CONTINUOUS
370
50
 62
4
100
AcDbLine
 10
9.144314
 20
0.796383
 30
0.0
 11
9.012678
 21
0.7999999999999999
 31
0.0
  0
LINE
  5
55B
330
1F
100
AcDbEntity
  8
1
  6
CONTINUOUS
370
50
 62
4
100
AcDbLine
 10
13.516248
 20
0.796462
 30
0.0
 11
13.384325
 21
0.7999999999999999
 31
0.0
  0
LINE
  5
55C
330
1F
100
AcDbEntity
  8
1
  6
CONTINUOUS
370
50
 62
4
100
AcDbLine
 10
9.012678
 20
-0.7999999999999999
 30
0.0
 11
8.902324
 21
-0.797491
 31
0.0
  0
LINE
  5
55D
330
1F
100
AcDbEntity
  8
1
  6
CONTINUOUS
370
50
 62
4
100
AcDbLine
 10
4.935677999999999
 20
0.772257
 30
0.0
 11
4.889061
 21
0.7729199999999999
 31
0.0
  0
LINE
  5
55E
330
1F
100
AcDbEntity
  8
1
  6
CONTINUOUS
370
50
 62
4
100
AcDbLine
 10
14.324662
 20
-0.217282
 30
0.0
 11
14.318435
 21
-0.21722
 31
0.0
  0
LINE
  5
55F
330
1F
100
AcDbEntity
  8
1
  6
CONTINUOUS
370
50
 62
4
100
AcDbLine
 10
7.373118
 20
0.7990459999999999
 30
0.0
 11
7.288613
 21
0.799219
 31
0.0
  0
LINE
  5
560
330
1F
100
AcDbEntity
  8
1
  6
CONTINUOUS
370
50
 62
4
100
AcDbLine
 10
14.551157
 20
0.018228
 30
0.0
 11
14.549026
 21
0.018232
 31
0.0
  0
LINE
  5
561
330
1F
100
AcDbEntity
  8
1
  6
CONTINUOUS
370
50
 62
4
100
AcDbLine
 10
13.384325
 20
-0.7999999999999999
 30
0.0
 11
14.301486
 21
-0.7999999999999999
 31
0.0
  0
LINE
  5
562
330
1F
100
AcDbEntity
  8
1
  6
CONTINUOUS
370
50
 62
4
100
AcDbLine
 10
9.012678
 20
-0.7999999999999999
 30
0.0
 11
11.700233
 21
-0.7999999999999999
 31
0.0
  0
LINE
  5
563
330
1F
100
AcDbEntity
  8
1
  6
CONTINUOUS
370
50
 62
4
100
AcDbLine
 10
2.6
 20
-0.7995
 30
0.0
 11
7.326041999999999
 21
-0.7995
 31
0.0
  0
LINE
  5
564
330
1F
100
AcDbEntity
  8
1
  6
CONTINUOUS
370
50
 62
4
100
AcDbLine
 10
2.6
 20
0.7995
 30
0.0
 11
7.325939999999999
 21
0.7995
 31
0.0
  0
LINE
  5
565
330
1F
100
AcDbEntity
  8
1
  6
CONTINUOUS
370
50
 62
4
100
AcDbLine
 10
9.012678
 20
0.7999999999999999
 30
0.0
 11
11.700233
 21
0.7999999999999999
 31
0.0
  0
LINE
  5
566
330
1F
100
AcDbEntity
  8
1
  6
CONTINUOUS
370
50
 62
4
100
AcDbLine
 10
13.384325
 20
0.7999999999999999
 30
0.0
 11
14.301486
 21
0.7999999999999999
 31
0.0
  0
LINE
  5
567
330
1F
100
AcDbEntity
  8
1
  6
CONTINUOUS
370
50
 62
4
100
AcDbLine
 10
7.289149999999999
 20
-0.799226
 30
0.0
 11
7.374633999999999
 21
-0.799032
 31
0.0
  0
LINE
  5
568
330
1F
100
AcDbEntity
  8
1
  6
CONTINUOUS
370
50
 62
4
100
AcDbLine
 10
4.843069
 20
0.772694
 30
0.0
 11
4.889061
 21
0.7729199999999999
 31
0.0
  0
LINE
  5
569
330
1F
100
AcDbEntity
  8
1
  6
CONTINUOUS
370
50
 62
4
100
AcDbLine
 10
8.891846
 20
0.7970229999999999
 30
0.0
 11
9.012678
 21
0.7999999999999999
 31
0.0
  0
LINE
  5
56A
330
1F
100
AcDbEntity
  8
1
  6
CONTINUOUS
370
50
 62
4
100
AcDbLine
 10
4.799783
 20
0.7715639999999999
 30
0.0
 11
4.843069
 21
0.772694
 31
0.0
  0
LINE
  5
56B
330
1F
100
AcDbEntity
  8
1
  6
CONTINUOUS
370
50
 62
4
100
AcDbLine
 10
11.700233
 20
-0.7999999999999999
 30
0.0
 11
11.838291
 21
-0.796025
 31
0.0
  0
LINE
  5
56C
330
1F
100
AcDbEntity
  8
1
  6
CONTINUOUS
370
50
 62
4
100
AcDbLine
 10
13.244199
 20
0.7959189999999999
 30
0.0
 11
13.384325
 21
0.7999999999999999
 31
0.0
  0
LINE
  5
56D
330
1F
100
AcDbEntity
  8
1
  6
CONTINUOUS
370
50
 62
4
100
AcDbLine
 10
7.374633999999999
 20
-0.799032
 30
0.0
 11
7.460221
 21
-0.7958649999999999
 31
0.0
  0
LINE
  5
56E
330
1F
100
AcDbEntity
  8
1
  6
CONTINUOUS
370
50
 62
4
100
AcDbLine
 10
4.759577999999999
 20
0.7695139999999999
 30
0.0
 11
4.799783
 21
0.7715639999999999
 31
0.0
  0
LINE
  5
56F
330
1F
100
AcDbEntity
  8
1
  6
CONTINUOUS
370
50
 62
4
100
AcDbLine
 10
7.460221
 20
-0.7958649999999999
 30
0.0
 11
7.545647
 21
-0.789732
 31
0.0
  0
LINE
  5
570
330
1F
100
AcDbEntity
  8
1
  6
CONTINUOUS
370
50
 62
4
100
AcDbLine
 10
8.770866999999999
 20
0.788091
 30
0.0
 11
8.891846
 21
0.7970229999999999
 31
0.0
  0
LINE
  5
571
330
1F
100
AcDbEntity
  8
1
  6
CONTINUOUS
370
50
 62
4
100
AcDbLine
 10
4.722667
 20
0.766528
 30
0.0
 11
4.759577999999999
 21
0.7695139999999999
 31
0.0
  0
LINE
  5
572
330
1F
100
AcDbEntity
  8
1
  6
CONTINUOUS
370
50
 62
4
100
AcDbLine
 10
11.838291
 20
-0.796025
 30
0.0
 11
11.976604
 21
-0.784095
 31
0.0
  0
LINE
  5
573
330
1F
100
AcDbEntity
  8
1
  6
CONTINUOUS
370
50
 62
4
100
AcDbLine
 10
13.104895
 20
0.7837689999999999
 30
0.0
 11
13.244199
 21
0.7959189999999999
 31
0.0
  0
LINE
  5
574
330
1F
100
AcDbEntity
  8
1
  6
CONTINUOUS
370
50
 62
4
100
AcDbLine
 10
14.324662
 20
-0.217282
 30
0.0
 11
14.330436
 21
-0.216767
 31
0.0
  0
LINE
  5
575
330
1F
100
AcDbEntity
  8
1
  6
CONTINUOUS
370
50
 62
4
100
AcDbLine
 10
7.545647
 20
-0.789732
 30
0.0
 11
7.630657999999999
 21
-0.780643
 31
0.0
  0
LINE
  5
576
330
1F
100
AcDbEntity
  8
1
  6
CONTINUOUS
370
50
 62
4
100
AcDbLine
 10
4.688094
 20
0.762409
 30
0.0
 11
4.722667
 21
0.766528
 31
0.0
  0
LINE
  5
577
330
1F
100
AcDbEntity
  8
1
  6
CONTINUOUS
370
50
 62
4
100
AcDbLine
 10
8.650027
 20
0.773254
 30
0.0
 11
8.770866999999999
 21
0.788091
 31
0.0
  0
LINE
  5
578
330
1F
100
AcDbEntity
  8
1
  6
CONTINUOUS
370
50
 62
4
100
AcDbLine
 10
13.971105
 20
0.334511
 30
0.0
 11
13.989041
 21
0.336938
 31
0.0
  0
LINE
  5
579
330
1F
100
AcDbEntity
  8
1
  6
CONTINUOUS
370
50
 62
4
100
AcDbLine
 10
11.976604
 20
-0.784095
 30
0.0
 11
12.116736
 21
-0.764265
 31
0.0
  0
LINE
  5
57A
330
1F
100
AcDbEntity
  8
1
  6
CONTINUOUS
370
50
 62
4
100
AcDbLine
 10
7.630657999999999
 20
-0.780643
 30
0.0
 11
7.715320999999999
 21
-0.76862
 31
0.0
  0
LINE
  5
57B
330
1F
100
AcDbEntity
  8
1
  6
CONTINUOUS
370
50
 62
4
100
AcDbLine
 10
12.965337
 20
0.7637309999999999
 30
0.0
 11
13.104895
 21
0.7837689999999999
 31
0.0
  0
LINE
  5
57C
330
1F
100
AcDbEntity
  8
1
  6
CONTINUOUS
370
50
 62
4
100
AcDbLine
 10
13.989041
 20
0.336938
 30
0.0
 11
14.006628
 21
0.339568
 31
0.0
  0
LINE
  5
57D
330
1F
100
AcDbEntity
  8
1
  6
CONTINUOUS
370
50
 62
4
100
AcDbLine
 10
14.006628
 20
0.339568
 30
0.0
 11
14.023858
 21
0.342363
 31
0.0
  0
LINE
  5
57E
330
1F
100
AcDbEntity
  8
1
  6
CONTINUOUS
370
50
 62
4
100
AcDbLine
 10
8.52966
 20
0.752568
 30
0.0
 11
8.650027
 21
0.773254
 31
0.0
  0
LINE
  5
57F
330
1F
100
AcDbEntity
  8
1
  6
CONTINUOUS
370
50
 62
4
100
AcDbLine
 10
4.655559999999999
 20
0.7567229999999999
 30
0.0
 11
4.688094
 21
0.762409
 31
0.0
  0
LINE
  5
580
330
1F
100
AcDbEntity
  8
1
  6
CONTINUOUS
370
50
 62
4
100
AcDbLine
 10
14.023858
 20
0.342363
 30
0.0
 11
14.040715
 21
0.345327
 31
0.0
  0
LINE
  5
581
330
1F
100
AcDbEntity
  8
1
  6
CONTINUOUS
370
50
 62
4
100
AcDbLine
 10
7.715320999999999
 20
-0.76862
 30
0.0
 11
7.8
 21
-0.7536879999999999
 31
0.0
  0
LINE
  5
582
330
1F
100
AcDbEntity
  8
1
  6
CONTINUOUS
370
50
 62
4
100
AcDbLine
 10
14.040715
 20
0.345327
 30
0.0
 11
14.057182
 21
0.348462
 31
0.0
  0
LINE
  5
583
330
1F
100
AcDbEntity
  8
1
  6
CONTINUOUS
370
50
 62
4
100
AcDbLine
 10
12.116736
 20
-0.764265
 30
0.0
 11
12.258877
 21
-0.736506
 31
0.0
  0
LINE
  5
584
330
1F
100
AcDbEntity
  8
1
  6
CONTINUOUS
370
50
 62
4
100
AcDbLine
 10
12.824455
 20
0.735946
 30
0.0
 11
12.965337
 21
0.7637309999999999
 31
0.0
  0
LINE
  5
585
330
1F
100
AcDbEntity
  8
1
  6
CONTINUOUS
370
50
 62
4
100
AcDbLine
 10
7.8
 20
-0.754023
 30
0.0
 11
7.861275999999999
 21
-0.74144
 31
0.0
  0
LINE
  5
586
330
1F
100
AcDbEntity
  8
1
  6
CONTINUOUS
370
50
 62
4
100
AcDbLine
 10
14.057182
 20
0.348462
 30
0.0
 11
14.073282
 21
0.351779
 31
0.0
  0
LINE
  5
587
330
1F
100
AcDbEntity
  8
1
  6
CONTINUOUS
370
50
 62
4
100
AcDbLine
 10
8.409943
 20
0.726278
 30
0.0
 11
8.52966
 21
0.752568
 31
0.0
  0
LINE
  5
588
330
1F
100
AcDbEntity
  8
1
  6
CONTINUOUS
370
50
 62
4
100
AcDbLine
 10
14.073282
 20
0.351779
 30
0.0
 11
14.089746
 21
0.355446
 31
0.0
  0
LINE
  5
589
330
1F
100
AcDbEntity
  8
1
  6
CONTINUOUS
370
50
 62
4
100
AcDbLine
 10
7.861275999999999
 20
-0.74144
 30
0.0
 11
7.922512999999999
 21
-0.7274499999999999
 31
0.0
  0
LINE
  5
58A
330
1F
100
AcDbEntity
  8
1
  6
CONTINUOUS
370
50
 62
4
100
AcDbLine
 10
14.089746
 20
0.355446
 30
0.0
 11
14.106741
 21
0.359559
 31
0.0
  0
LINE
  5
58B
330
1F
100
AcDbEntity
  8
1
  6
CONTINUOUS
370
50
 62
4
100
AcDbLine
 10
12.682924
 20
0.70053
 30
0.0
 11
12.824455
 21
0.735946
 31
0.0
  0
LINE
  5
58C
330
1F
100
AcDbEntity
  8
1
  6
CONTINUOUS
370
50
 62
4
100
AcDbLine
 10
7.922512999999999
 20
-0.7274499999999999
 30
0.0
 11
7.983828
 21
-0.712086
 31
0.0
  0
LINE
  5
58D
330
1F
100
AcDbEntity
  8
1
  6
CONTINUOUS
370
50
 62
4
100
AcDbLine
 10
12.258877
 20
-0.736506
 30
0.0
 11
12.400578
 21
-0.700834
 31
0.0
  0
LINE
  5
58E
330
1F
100
AcDbEntity
  8
1
  6
CONTINUOUS
370
50
 62
4
100
AcDbLine
 10
4.626272
 20
0.7490979999999999
 30
0.0
 11
4.655559999999999
 21
0.7567229999999999
 31
0.0
  0
LINE
  5
58F
330
1F
100
AcDbEntity
  8
1
  6
CONTINUOUS
370
50
 62
4
100
AcDbLine
 10
8.290175999999999
 20
0.694628
 30
0.0
 11
8.409943
 21
0.726278
 31
0.0
  0
LINE
  5
590
330
1F
100
AcDbEntity
  8
1
  6
CONTINUOUS
370
50
 62
4
100
AcDbLine
 10
14.106741
 20
0.359559
 30
0.0
 11
14.124101
 21
0.364157
 31
0.0
  0
LINE
  5
591
330
1F
100
AcDbEntity
  8
1
  6
CONTINUOUS
370
50
 62
4
100
AcDbLine
 10
0.0
 20
-1.5
 30
0.0
 11
2.6
 21
-0.7995
 31
0.0
  0
LINE
  5
592
330
1F
100
AcDbEntity
  8
1
  6
CONTINUOUS
370
50
 62
4
100
AcDbLine
 10
7.983828
 20
-0.712086
 30
0.0
 11
8.045341
 21
-0.695375
 31
0.0
  0
LINE
  5
593
330
1F
100
AcDbEntity
  8
1
  6
CONTINUOUS
370
50
 62
4
100
AcDbLine
 10
14.124101
 20
0.364157
 30
0.0
 11
14.141662
 21
0.369275
 31
0.0
  0
LINE
  5
594
330
1F
100
AcDbEntity
  8
1
  6
CONTINUOUS
370
50
 62
4
100
AcDbLine
 10
8.045341
 20
-0.695375
 30
0.0
 11
8.107256
 21
-0.6772859999999999
 31
0.0
  0
LINE
  5
595
330
1F
100
AcDbEntity
  8
1
  6
CONTINUOUS
370
50
 62
4
100
AcDbLine
 10
12.542019
 20
0.657731
 30
0.0
 11
12.682924
 21
0.70053
 31
0.0
  0
LINE
  5
596
330
1F
100
AcDbEntity
  8
1
  6
CONTINUOUS
370
50
 62
4
100
AcDbLine
 10
12.400578
 20
-0.700834
 30
0.0
 11
12.541989
 21
-0.657737
 31
0.0
  0
LINE
  5
597
330
1F
100
AcDbEntity
  8
1
  6
CONTINUOUS
370
50
 62
4
100
AcDbLine
 10
8.16952
 20
0.65782
 30
0.0
 11
8.290175999999999
 21
0.694628
 31
0.0
  0
LINE
  5
598
330
1F
100
AcDbEntity
  8
1
  6
CONTINUOUS
370
50
 62
4
100
AcDbLine
 10
8.107256
 20
-0.6772859999999999
 30
0.0
 11
8.169457999999999
 21
-0.6578039999999999
 31
0.0
  0
LINE
  5
599
330
1F
100
AcDbEntity
  8
1
  6
CONTINUOUS
370
50
 62
4
100
AcDbLine
 10
14.141662
 20
0.369275
 30
0.0
 11
14.159261
 21
0.374953
 31
0.0
  0
LINE
  5
59A
330
1F
100
AcDbEntity
  8
1
  6
CONTINUOUS
370
50
 62
4
100
AcDbLine
 10
14.159261
 20
0.374953
 30
0.0
 11
14.176735
 21
0.381225
 31
0.0
  0
LINE
  5
59B
330
1F
100
AcDbEntity
  8
1
  6
CONTINUOUS
370
50
 62
4
100
AcDbLine
 10
14.176735
 20
0.381225
 30
0.0
 11
14.193919
 21
0.388131
 31
0.0
  0
LINE
  5
59C
330
1F
100
AcDbEntity
  8
1
  6
CONTINUOUS
370
50
 62
4
100
AcDbLine
 10
4.601643
 20
0.739095
 30
0.0
 11
4.626272
 21
0.7490979999999999
 31
0.0
  0
LINE
  5
59D
330
1F
100
AcDbEntity
  8
1
  6
CONTINUOUS
370
50
 62
4
100
AcDbLine
 10
14.193919
 20
0.388131
 30
0.0
 11
14.210649
 21
0.395707
 31
0.0
  0
LINE
  5
59E
330
1F
100
AcDbEntity
  8
1
  6
CONTINUOUS
370
50
 62
4
100
AcDbLine
 10
14.210649
 20
0.395707
 30
0.0
 11
14.22679
 21
0.404009
 31
0.0
  0
LINE
  5
59F
330
1F
100
AcDbEntity
  8
1
  6
CONTINUOUS
370
50
 62
4
100
AcDbLine
 10
14.301601
 20
-0.799882
 30
0.0
 11
14.301716
 21
-0.799816
 31
0.0
  0
LINE
  5
5A0
330
1F
100
AcDbEntity
  8
1
  6
CONTINUOUS
370
50
 62
4
100
AcDbLine
 10
14.22679
 20
0.404009
 30
0.0
 11
14.242271
 21
0.413154
 31
0.0
  0
LINE
  5
5A1
330
1F
100
AcDbEntity
  8
1
  6
CONTINUOUS
370
50
 62
4
100
AcDbLine
 10
14.330436
 20
-0.216767
 30
0.0
 11
14.33329
 21
-0.214878
 31
0.0
  0
LINE
  5
5A2
330
1F
100
AcDbEntity
  8
1
  6
CONTINUOUS
370
50
 62
4
100
AcDbLine
 10
14.242271
 20
0.413154
 30
0.0
 11
14.256916
 21
0.423208
 31
0.0
  0
LINE
  5
5A3
330
1F
100
AcDbEntity
  8
1
  6
CONTINUOUS
370
50
 62
4
100
AcDbLine
 10
4.583327
 20
0.726376
 30
0.0
 11
4.601643
 21
0.739095
 31
0.0
  0
LINE
  5
5A4
330
1F
100
AcDbEntity
  8
1
  6
CONTINUOUS
370
50
 62
4
100
AcDbLine
 10
14.33329
 20
-0.214878
 30
0.0
 11
14.336134
 21
-0.212855
 31
0.0
  0
LINE
  5
5A5
330
1F
100
AcDbEntity
  8
1
  6
CONTINUOUS
370
50
 62
4
100
AcDbLine
 10
14.336134
 20
-0.212855
 30
0.0
 11
14.338978
 21
-0.210702
 31
0.0
  0
LINE
  5
5A6
330
1F
100
AcDbEntity
  8
1
  6
CONTINUOUS
370
50
 62
4
100
AcDbLine
 10
14.338978
 20
-0.210702
 30
0.0
 11
14.341822
 21
-0.208417
 31
0.0
  0
LINE
  5
5A7
330
1F
100
AcDbEntity
  8
1
  6
CONTINUOUS
370
50
 62
4
100
AcDbLine
 10
14.293124
 20
-0.246771
 30
0.0
 11
14.330436
 21
-0.216767
 31
0.0
  0
LINE
  5
5A8
330
1F
100
AcDbEntity
  8
1
  6
CONTINUOUS
370
50
 62
4
100
AcDbLine
 10
14.350335
 20
-0.200765
 30
0.0
 11
14.558777
 21
-0.033149
 31
0.0
  0
LINE
  5
5A9
330
1F
100
AcDbEntity
  8
1
  6
CONTINUOUS
370
50
 62
4
100
AcDbLine
 10
14.256916
 20
0.423208
 30
0.0
 11
14.270539
 21
0.43423
 31
0.0
  0
LINE
  5
5AA
330
1F
100
AcDbEntity
  8
1
  6
CONTINUOUS
370
50
 62
4
100
AcDbLine
 10
14.341822
 20
-0.208417
 30
0.0
 11
14.344665
 21
-0.206
 31
0.0
  0
LINE
  5
5AB
330
1F
100
AcDbEntity
  8
1
  6
CONTINUOUS
370
50
 62
4
100
AcDbLine
 10
14.344665
 20
-0.206
 30
0.0
 11
14.347506
 21
-0.203451
 31
0.0
  0
LINE
  5
5AC
330
1F
100
AcDbEntity
  8
1
  6
CONTINUOUS
370
50
 62
4
100
AcDbLine
 10
14.347506
 20
-0.203451
 30
0.0
 11
14.350335
 21
-0.200765
 31
0.0
  0
LINE
  5
5AD
330
1F
100
AcDbEntity
  8
1
  6
CONTINUOUS
370
50
 62
4
100
AcDbLine
 10
14.270539
 20
0.43423
 30
0.0
 11
14.282957
 21
0.44628
 31
0.0
  0
LINE
  5
5AE
330
1F
100
AcDbEntity
  8
1
  6
CONTINUOUS
370
50
 62
4
100
AcDbLine
 10
14.301486
 20
-0.7999999999999999
 30
0.0
 11
14.301601
 21
-0.799882
 31
0.0
  0
LINE
  5
5AF
330
1F
100
AcDbEntity
  8
1
  6
CONTINUOUS
370
50
 62
4
100
AcDbLine
 10
14.301716
 20
-0.799816
 30
0.0
 11
14.301831
 21
-0.799697
 31
0.0
  0
LINE
  5
5B0
330
1F
100
AcDbEntity
  8
1
  6
CONTINUOUS
370
50
 62
4
100
AcDbLine
 10
14.282957
 20
0.44628
 30
0.0
 11
14.293852
 21
0.459237
 31
0.0
  0
LINE
  5
5B1
330
1F
100
AcDbEntity
  8
1
  6
CONTINUOUS
370
50
 62
4
100
AcDbLine
 10
4.572735
 20
0.7110329999999999
 30
0.0
 11
4.583327
 21
0.726376
 31
0.0
  0
LINE
  5
5B2
330
1F
100
AcDbEntity
  8
1
  6
CONTINUOUS
370
50
 62
4
100
AcDbLine
 10
14.301831
 20
-0.799697
 30
0.0
 11
14.301948
 21
-0.799524
 31
0.0
  0
LINE
  5
5B3
330
1F
100
AcDbEntity
  8
1
  6
CONTINUOUS
370
50
 62
4
100
AcDbLine
 10
14.293852
 20
0.459237
 30
0.0
 11
14.30303
 21
0.472974
 31
0.0
  0
LINE
  5
5B4
330
1F
100
AcDbEntity
  8
1
  6
CONTINUOUS
370
50
 62
4
100
AcDbLine
 10
14.301948
 20
-0.799524
 30
0.0
 11
14.302064
 21
-0.799298
 31
0.0
  0
LINE
  5
5B5
330
1F
100
AcDbEntity
  8
1
  6
CONTINUOUS
370
50
 62
4
100
AcDbLine
 10
14.30303
 20
0.472974
 30
0.0
 11
14.310464
 21
0.487511
 31
0.0
  0
LINE
  5
5B6
330
1F
100
AcDbEntity
  8
1
  6
CONTINUOUS
370
50
 62
4
100
AcDbLine
 10
14.302064
 20
-0.799298
 30
0.0
 11
14.302181
 21
-0.799018
 31
0.0
  0
LINE
  5
5B7
330
1F
100
AcDbEntity
  8
1
  6
CONTINUOUS
370
50
 62
4
100
AcDbLine
 10
14.302172
 20
-0.799074
 30
0.0
 11
14.6
 21
0.0
 31
0.0
  0
LINE
  5
5B8
330
1F
100
AcDbEntity
  8
1
  6
CONTINUOUS
370
50
 62
4
100
AcDbLine
 10
14.310464
 20
0.487511
 30
0.0
 11
14.316125
 21
0.502861
 31
0.0
  0
LINE
  5
5B9
330
1F
100
AcDbEntity
  8
1
  6
CONTINUOUS
370
50
 62
4
100
AcDbLine
 10
14.316125
 20
0.502861
 30
0.0
 11
14.319924
 21
0.5186919999999999
 31
0.0
  0
LINE
  5
5BA
330
1F
100
AcDbEntity
  8
1
  6
CONTINUOUS
370
50
 62
4
100
AcDbLine
 10
4.570114999999999
 20
0.6935669999999999
 30
0.0
 11
4.572735
 21
0.7110329999999999
 31
0.0
  0
LINE
  5
5BB
330
1F
100
AcDbEntity
  8
1
  6
CONTINUOUS
370
50
 62
4
100
AcDbLine
 10
14.319924
 20
0.5186919999999999
 30
0.0
 11
14.321935
 21
0.534755
 31
0.0
  0
LINE
  5
5BC
330
1F
100
AcDbEntity
  8
1
  6
CONTINUOUS
370
50
 62
4
100
AcDbLine
 10
14.321935
 20
0.534755
 30
0.0
 11
14.322306
 21
0.550976
 31
0.0
  0
LINE
  5
5BD
330
1F
100
AcDbEntity
  8
1
  6
CONTINUOUS
370
50
 62
4
100
AcDbLine
 10
14.292989
 20
-0.296414
 30
0.0
 11
14.293128
 21
-0.246707
 31
0.0
  0
LINE
  5
5BE
330
1F
100
AcDbEntity
  8
1
  6
CONTINUOUS
370
50
 62
4
100
AcDbLine
 10
14.292918
 20
-0.344109
 30
0.0
 11
14.292989
 21
-0.296414
 31
0.0
  0
LINE
  5
5BF
330
1F
100
AcDbEntity
  8
1
  6
CONTINUOUS
370
50
 62
4
100
AcDbLine
 10
14.292916
 20
-0.38964
 30
0.0
 11
14.292918
 21
-0.344109
 31
0.0
  0
LINE
  5
5C0
330
1F
100
AcDbEntity
  8
1
  6
CONTINUOUS
370
50
 62
4
100
AcDbLine
 10
0.0
 20
-1.5
 30
0.0
 11
0.0
 21
1.5
 31
0.0
  0
LINE
  5
5C1
330
1F
100
AcDbEntity
  8
1
  6
CONTINUOUS
370
50
 62
4
100
AcDbLine
 10
2.6
 20
-0.7995
 30
0.0
 11
2.6
 21
0.7995
 31
0.0
  0
LINE
  5
5C2
330
1F
100
AcDbEntity
  8
1
  6
CONTINUOUS
370
50
 62
4
100
AcDbLine
 10
5.46712
 20
-0.184672
 30
0.0
 11
5.46712
 21
0.130337
 31
0.0
  0
LINE
  5
5C3
330
1F
100
AcDbEntity
  8
1
  6
CONTINUOUS
370
50
 62
4
100
AcDbLine
 10
5.469119999999999
 20
0.129495
 30
0.0
 11
5.469119999999999
 21
0.6801889999999999
 31
0.0
  0
LINE
  5
5C4
330
1F
100
AcDbEntity
  8
1
  6
CONTINUOUS
370
50
 62
4
100
AcDbLine
 10
7.8
 20
-0.754023
 30
0.0
 11
7.8
 21
-0.5156459999999999
 31
0.0
  0
LINE
  5
5C5
330
1F
100
AcDbEntity
  8
1
  6
CONTINUOUS
370
50
 62
4
100
AcDbLine
 10
7.8
 20
-0.515532
 30
0.0
 11
7.8
 21
0.754023
 31
0.0
  0
LINE
  5
5C6
330
1F
100
AcDbEntity
  8
1
  6
CONTINUOUS
370
50
 62
4
100
AcDbLine
 10
14.308824
 20
0.632056
 30
0.0
 11
14.308824
 21
0.709092
 31
0.0
  0
ELLIPSE
  5
5C7
330
1F
100
AcDbEntity
  8
1
  6
CONTINUOUS
370
50
 62
4
100
AcDbEllipse
 10
12.642244
 20
0.0
 30
0.0
 11
-14.66135001386184
 21
0.4162925118020183
 31
0.0
210
0.0
220
0.0
230
1.0
 40
0.0465956400700571
 41
4.599794182350924
 42
4.600084888769294
  0
ELLIPSE
  5
5C8
330
1F
100
AcDbEntity
  8
1
  6
CONTINUOUS
370
50
 62
4
100
AcDbEllipse
 10
14.6
 20
0.0
 30
0.0
 11
-1.130504140196782
 21
0.7353857844763748
 31
0.0
210
0.0
220
0.0
230
1.0
 40
0.2786118648872803
 41
1.380161322430226
 42
1.479703914056141
  0
LINE
  5
5C9
330
1F
100
AcDbEntity
  8
CUT
  6
CONTINUOUS
370
25
 62
1
100
AcDbLine
 10
7.8
 20
0.0
 30
0.0
 11
14.6
 21
0.0
 31
0.0
  0
LINE
  5
5CA
330
1F
100
AcDbEntity
  8
CUT
  6
CONTINUOUS
370
25
 62
1
100
AcDbLine
 10
14.6
 20
0.0
 30
0.0
 11
14.30882381
 21
0.8
 31
0.0
  0
LINE
  5
5CB
330
1F
100
AcDbEntity
  8
CUT
  6
CONTINUOUS
370
25
 62
1
100
AcDbLine
 10
14.30882381
 20
0.8
 30
0.0
 11
7.8
 21
0.8
 31
0.0
  0
LINE
  5
5CC
330
1F
100
AcDbEntity
  8
CUT
  6
CONTINUOUS
370
25
 62
1
100
AcDbLine
 10
7.8
 20
0.8
 30
0.0
 11
7.8
 21
0.0
 31
0.0
  0
LINE
  5
5CD
330
1F
100
AcDbEntity
  8
NOCUT
  6
CONTINUOUS
370
25
 62
7
100
AcDbLine
 10
0.0
 20
0.0
 30
0.0
 11
7.8
 21
0.0
 31
0.0
  0
LINE
  5
5CE
330
1F
100
AcDbEntity
  8
NOCUT
  6
CONTINUOUS
370
25
 62
7
100
AcDbLine
 10
7.8
 20
0.0
 30
0.0
 11
7.8
 21
0.8
 31
0.0
  0
LINE
  5
5CF
330
1F
100
AcDbEntity
  8
NOCUT
  6
CONTINUOUS
370
25
 62
7
100
AcDbLine
 10
7.8
 20
0.8
 30
0.0
 11
2.6
 21
0.8
 31
0.0
  0
LINE
  5
5D0
330
1F
100
AcDbEntity
  8
NOCUT
  6
CONTINUOUS
370
25
 62
7
100
AcDbLine
 10
2.6
 20
0.8
 30
0.0
 11
0.0
 21
1.5
 31
0.0
  0
LINE
  5
5D1
330
1F
100
AcDbEntity
  8
NOCUT
  6
CONTINUOUS
370
25
 62
7
100
AcDbLine
 10
0.0
 20
1.5
 30
0.0
 11
0.0
 21
0.0
 31
0.0
  0
LINE
  5
5D2
330
1F
100
AcDbEntity
  8
SK1
  6
CONTINUOUS
370
50
 62
4
100
AcDbLine
 10
0.0
 20
1.5
 30
0.0
 11
-25.1
 21
1.5
 31
0.0
  0
LINE
  5
5D3
330
1F
100
AcDbEntity
  8
SK1
  6
CONTINUOUS
370
50
 62
4
100
AcDbLine
 10
-25.1
 20
1.5
 30
0.0
 11
-25.4
 21
1.2
 31
0.0
  0
LINE
  5
5D4
330
1F
100
AcDbEntity
  8
SK1
  6
CONTINUOUS
370
50
 62
4
100
AcDbLine
 10
-25.4
 20
1.2
 30
0.0
 11
-25.4
 21
-1.2
 31
0.0
  0
LINE
  5
5D5
330
1F
100
AcDbEntity
  8
SK1
  6
CONTINUOUS
370
50
 62
4
100
AcDbLine
 10
-25.4
 20
-1.2
 30
0.0
 11
-25.1
 21
-1.5
 31
0.0
  0
LINE
  5
5D6
330
1F
100
AcDbEntity
  8
SK1
  6
CONTINUOUS
370
50
 62
4
100
AcDbLine
 10
-25.1
 20
-1.5
 30
0.0
 11
0.0
 21
-1.5
 31
0.0
  0
LINE
  5
5D7
330
1F
100
AcDbEntity
  8
SK1
  6
CONTINUOUS
370
50
 62
4
100
AcDbLine
 10
-25.1
 20
1.5
 30
0.0
 11
-25.1
 21
-1.5
 31
0.0
  0
LINE
  5
5D8
330
1F
100
AcDbEntity
  8
SK2
  6
CONTINUOUS
370
25
 62
7
100
AcDbLine
 10
-37.4000002
 20
-1.500001
 30
0.0
 11
-38.40000000000008
 21
-1.500001
 31
0.0
  0
LINE
  5
5D9
330
1F
100
AcDbEntity
  8
SK2
  6
CONTINUOUS
370
25
 62
7
100
AcDbLine
 10
-25.4
 20
-1.500001
 30
0.0
 11
-37.3999998
 21
-1.500001
 31
0.0
  0
LINE
  5
5DA
330
1F
100
AcDbEntity
  8
SK2
  6
CONTINUOUS
370
25
 62
7
100
AcDbLine
 10
-38.4
 20
1.5
 30
0.0
 11
-25.4
 21
1.5
 31
0.0
  0
LINE
  5
5DB
330
1F
100
AcDbEntity
  8
SK2
  6
CONTINUOUS
370
25
 62
7
100
AcDbLine
 10
-37.4
 20
-8.5
 30
0.0
 11
-37.4
 21
14.975
 31
0.0
  0
LINE
  5
5DC
330
1F
100
AcDbEntity
  8
SK2
  6
CONTINUOUS
370
25
 62
7
100
AcDbLine
 10
-37.4
 20
-1.5
 30
0.0
 11
-36.4
 21
-6.5
 31
0.0
  0
LINE
  5
5DD
330
1F
100
AcDbEntity
  8
SK2
  6
CONTINUOUS
370
25
 62
7
100
AcDbLine
 10
-36.4
 20
-6.5
 30
0.0
 11
-38.4
 21
-6.5
 31
0.0
  0
LINE
  5
5DE
330
1F
100
AcDbEntity
  8
SK2
  6
CONTINUOUS
370
25
 62
7
100
AcDbLine
 10
-38.4
 20
-6.5
 30
0.0
 11
-37.4
 21
-1.5
 31
0.0
  0
LINE
  5
5DF
330
1F
100
AcDbEntity
  8
SK2
  6
CONTINUOUS
370
25
 62
7
100
AcDbLine
 10
-36.6227488785469
 20
-6.499999999999996
 30
0.0
 11
-36.43712481309115
 21
-6.314375934544248
 31
0.0
  0
LINE
  5
5E0
330
1F
100
AcDbEntity
  8
SK2
  6
CONTINUOUS
370
25
 62
7
100
AcDbLine
 10
-37.04701294725883
 20
-6.5
 30
0.0
 11
-36.5078354912098
 21
-5.960822543950975
 31
0.0
  0
LINE
  5
5E1
330
1F
100
AcDbEntity
  8
SK2
  6
CONTINUOUS
370
25
 62
7
100
AcDbLine
 10
-37.47127701597076
 20
-6.499999999999996
 30
0.0
 11
-36.57854616932846
 21
-5.607269153357702
 31
0.0
  0
LINE
  5
5E2
330
1F
100
AcDbEntity
  8
SK2
  6
CONTINUOUS
370
25
 62
7
100
AcDbLine
 10
-37.89554108468269
 20
-6.5
 30
0.0
 11
-36.64925684744711
 21
-5.253715762764422
 31
0.0
  0
LINE
  5
5E3
330
1F
100
AcDbEntity
  8
SK2
  6
CONTINUOUS
370
25
 62
7
100
AcDbLine
 10
-38.31980515339463
 20
-6.500000000000004
 30
0.0
 11
-36.71996752556577
 21
-4.900162372171156
 31
0.0
  0
LINE
  5
5E4
330
1F
100
AcDbEntity
  8
SK2
  6
CONTINUOUS
370
25
 62
7
100
AcDbLine
 10
-38.31398269447336
 20
-6.069913472366807
 30
0.0
 11
-36.79067820368442
 21
-4.546608981577876
 31
0.0
  0
LINE
  5
5E5
330
1F
100
AcDbEntity
  8
SK2
  6
CONTINUOUS
370
25
 62
7
100
AcDbLine
 10
-38.20791667729537
 20
-5.539583386476892
 30
0.0
 11
-36.86138888180308
 21
-4.193055590984606
 31
0.0
  0
LINE
  5
5E6
330
1F
100
AcDbEntity
  8
SK2
  6
CONTINUOUS
370
25
 62
7
100
AcDbLine
 10
-38.10185066011739
 20
-5.009253300586977
 30
0.0
 11
-36.93209955992174
 21
-3.83950220039133
 31
0.0
  0
LINE
  5
5E7
330
1F
100
AcDbEntity
  8
SK2
  6
CONTINUOUS
370
25
 62
7
100
AcDbLine
 10
-37.99578464293941
 20
-4.478923214697076
 30
0.0
 11
-37.00281023804039
 21
-3.485948809798053
 31
0.0
  0
LINE
  5
5E8
330
1F
100
AcDbEntity
  8
SK2
  6
CONTINUOUS
370
25
 62
7
100
AcDbLine
 10
-37.88971862576143
 20
-3.948593128807154
 30
0.0
 11
-37.07352091615905
 21
-3.132395419204776
 31
0.0
  0
LINE
  5
5E9
330
1F
100
AcDbEntity
  8
SK2
  6
CONTINUOUS
370
25
 62
7
100
AcDbLine
 10
-37.78365260858344
 20
-3.418263042917232
 30
0.0
 11
-37.14423159427771
 21
-2.7788420286115
 31
0.0
  0
LINE
  5
5EA
330
1F
100
AcDbEntity
  8
SK2
  6
CONTINUOUS
370
25
 62
7
100
AcDbLine
 10
-37.67758659140547
 20
-2.887932957027338
 30
0.0
 11
-37.21494227239636
 21
-2.425288638018223
 31
0.0
  0
LINE
  5
5EB
330
1F
100
AcDbEntity
  8
SK2
  6
CONTINUOUS
370
25
 62
7
100
AcDbLine
 10
-37.57152057422749
 20
-2.357602871137424
 30
0.0
 11
-37.28565295051501
 21
-2.07173524742494
 31
0.0
  0
LINE
  5
5EC
330
1F
100
AcDbEntity
  8
SK2
  6
CONTINUOUS
370
25
 62
7
100
AcDbLine
 10
-37.4654545570495
 20
-1.827272785247509
 30
0.0
 11
-37.35636362863367
 21
-1.71818185683167
 31
0.0
  0
LINE
  5
5ED
330
1F
100
AcDbEntity
  8
SK2
  6
CONTINUOUS
370
25
 62
7
100
AcDbLine
 10
-38.33471781706275
 20
-6.173589085313729
 30
0.0
 11
-38.00830690237648
 21
-6.5
 31
0.0
  0
LINE
  5
5EE
330
1F
100
AcDbEntity
  8
SK2
  6
CONTINUOUS
370
25
 62
7
100
AcDbLine
 10
-38.26400713894409
 20
-5.820035694720453
 30
0.0
 11
-37.58404283366453
 21
-6.5
 31
0.0
  0
LINE
  5
5EF
330
1F
100
AcDbEntity
  8
SK2
  6
CONTINUOUS
370
25
 62
7
100
AcDbLine
 10
-38.19329646082544
 20
-5.466482304127176
 30
0.0
 11
-37.15977876495261
 21
-6.5
 31
0.0
  0
LINE
  5
5F0
330
1F
100
AcDbEntity
  8
SK2
  6
CONTINUOUS
370
25
 62
7
100
AcDbLine
 10
-38.12258578270678
 20
-5.112928913533899
 30
0.0
 11
-36.73551469624068
 21
-6.5
 31
0.0
  0
LINE
  5
5F1
330
1F
100
AcDbEntity
  8
SK2
  6
CONTINUOUS
370
25
 62
7
100
AcDbLine
 10
-38.05187510458813
 20
-4.759375522940616
 30
0.0
 11
-36.42218734311781
 21
-6.389063284410931
 31
0.0
  0
LINE
  5
5F2
330
1F
100
AcDbEntity
  8
SK2
  6
CONTINUOUS
370
25
 62
7
100
AcDbLine
 10
-37.98116442646948
 20
-4.405822132347339
 30
0.0
 11
-36.52825336029579
 21
-5.858733198521023
 31
0.0
  0
LINE
  5
5F3
330
1F
100
AcDbEntity
  8
SK2
  6
CONTINUOUS
370
25
 62
7
100
AcDbLine
 10
-37.91045374835082
 20
-4.052268741754062
 30
0.0
 11
-36.63431937747378
 21
-5.328403112631101
 31
0.0
  0
LINE
  5
5F4
330
1F
100
AcDbEntity
  8
SK2
  6
CONTINUOUS
370
25
 62
7
100
AcDbLine
 10
-37.83974307023216
 20
-3.698715351160793
 30
0.0
 11
-36.74038539465176
 21
-4.798073026741193
 31
0.0
  0
LINE
  5
5F5
330
1F
100
AcDbEntity
  8
SK2
  6
CONTINUOUS
370
25
 62
7
100
AcDbLine
 10
-37.7690323921135
 20
-3.345161960567516
 30
0.0
 11
-36.84645141182975
 21
-4.267742940851271
 31
0.0
  0
LINE
  5
5F6
330
1F
100
AcDbEntity
  8
SK2
  6
CONTINUOUS
370
25
 62
7
100
AcDbLine
 10
-37.69832171399484
 20
-2.991608569974247
 30
0.0
 11
-36.95251742900773
 21
-3.737412854961356
 31
0.0
  0
LINE
  5
5F7
330
1F
100
AcDbEntity
  8
SK2
  6
CONTINUOUS
370
25
 62
7
100
AcDbLine
 10
-37.62761103587619
 20
-2.63805517938097
 30
0.0
 11
-37.05858344618571
 21
-3.207082769071448
 31
0.0
  0
LINE
  5
5F8
330
1F
100
AcDbEntity
  8
SK2
  6
CONTINUOUS
370
25
 62
7
100
AcDbLine
 10
-37.55690035775753
 20
-2.284501788787693
 30
0.0
 11
-37.16464946336369
 21
-2.676752683181533
 31
0.0
  0
LINE
  5
5F9
330
1F
100
AcDbEntity
  8
SK2
  6
CONTINUOUS
370
25
 62
7
100
AcDbLine
 10
-37.48618967963888
 20
-1.930948398194417
 30
0.0
 11
-37.27071548054167
 21
-2.146422597291625
 31
0.0
  0
LINE
  5
5FA
330
1F
100
AcDbEntity
  8
SK2
  6
CONTINUOUS
370
25
 62
7
100
AcDbLine
 10
-37.41547900152023
 20
-1.577395007601133
 30
0.0
 11
-37.37678149771966
 21
-1.61609251140171
 31
0.0
  0
LINE
  5
5FB
330
1F
100
AcDbEntity
  8
SK2
  6
CONTINUOUS
370
25
 62
7
100
AcDbLine
 10
-37.4
 20
1.5
 30
0.0
 11
-38.4
 21
6.5
 31
0.0
  0
LINE
  5
5FC
330
1F
100
AcDbEntity
  8
SK2
  6
CONTINUOUS
370
25
 62
7
100
AcDbLine
 10
-38.4
 20
6.5
 30
0.0
 11
-36.4
 21
6.5
 31
0.0
  0
LINE
  5
5FD
330
1F
100
AcDbEntity
  8
SK2
  6
CONTINUOUS
370
25
 62
7
100
AcDbLine
 10
-36.4
 20
6.5
 30
0.0
 11
-37.4
 21
1.5
 31
0.0
  0
LINE
  5
5FE
330
1F
100
AcDbEntity
  8
SK2
  6
CONTINUOUS
370
25
 62
7
100
AcDbLine
 10
-37.4220490535829
 20
1.610245267914493
 30
0.0
 11
-37.36692641962564
 21
1.665367901871754
 31
0.0
  0
LINE
  5
5FF
330
1F
100
AcDbEntity
  8
SK2
  6
CONTINUOUS
370
25
 62
7
100
AcDbLine
 10
-37.49275973170155
 20
1.96379865850777
 30
0.0
 11
-37.26086040244768
 21
2.195697987761648
 31
0.0
  0
LINE
  5
600
330
1F
100
AcDbEntity
  8
SK2
  6
CONTINUOUS
370
25
 62
7
100
AcDbLine
 10
-37.56347040982021
 20
2.317352049101046
 30
0.0
 11
-37.15479438526968
 21
2.726028073651577
 31
0.0
  0
LINE
  5
601
330
1F
100
AcDbEntity
  8
SK2
  6
CONTINUOUS
370
25
 62
7
100
AcDbLine
 10
-37.63418108793886
 20
2.670905439694323
 30
0.0
 11
-37.0487283680917
 21
3.256358159541485
 31
0.0
  0
LINE
  5
602
330
1F
100
AcDbEntity
  8
SK2
  6
CONTINUOUS
370
25
 62
7
100
AcDbLine
 10
-37.70489176605752
 20
3.0244588302876
 30
0.0
 11
-36.94266235091371
 21
3.786688245431407
 31
0.0
  0
LINE
  5
603
330
1F
100
AcDbEntity
  8
SK2
  6
CONTINUOUS
370
25
 62
7
100
AcDbLine
 10
-37.77560244417617
 20
3.378012220880876
 30
0.0
 11
-36.83659633373573
 21
4.317018331321314
 31
0.0
  0
LINE
  5
604
330
1F
100
AcDbEntity
  8
SK2
  6
CONTINUOUS
370
25
 62
7
100
AcDbLine
 10
-37.84631312229483
 20
3.731565611474153
 30
0.0
 11
-36.73053031655775
 21
4.847348417211229
 31
0.0
  0
LINE
  5
605
330
1F
100
AcDbEntity
  8
SK2
  6
CONTINUOUS
370
25
 62
7
100
AcDbLine
 10
-37.91702380041349
 20
4.08511900206743
 30
0.0
 11
-36.62446429937977
 21
5.377678503101151
 31
0.0
  0
LINE
  5
606
330
1F
100
AcDbEntity
  8
SK2
  6
CONTINUOUS
370
25
 62
7
100
AcDbLine
 10
-37.98773447853214
 20
4.438672392660706
 30
0.0
 11
-36.51839828220179
 21
5.908008588991052
 31
0.0
  0
LINE
  5
607
330
1F
100
AcDbEntity
  8
SK2
  6
CONTINUOUS
370
25
 62
7
100
AcDbLine
 10
-38.0584451566508
 20
4.792225783253983
 30
0.0
 11
-36.41233226502381
 21
6.438338674880967
 31
0.0
  0
LINE
  5
608
330
1F
100
AcDbEntity
  8
SK2
  6
CONTINUOUS
370
25
 62
7
100
AcDbLine
 10
-38.12915583476946
 20
5.145779173847252
 30
0.0
 11
-36.7749350086167
 21
6.5
 31
0.0
  0
LINE
  5
609
330
1F
100
AcDbEntity
  8
SK2
  6
CONTINUOUS
370
25
 62
7
100
AcDbLine
 10
-38.19986651288811
 20
5.499332564440536
 30
0.0
 11
-37.19919907732864
 21
6.5
 31
0.0
  0
LINE
  5
60A
330
1F
100
AcDbEntity
  8
SK2
  6
CONTINUOUS
370
25
 62
7
100
AcDbLine
 10
-38.27057719100676
 20
5.852885955033805
 30
0.0
 11
-37.62346314604056
 21
6.5
 31
0.0
  0
LINE
  5
60B
330
1F
100
AcDbEntity
  8
SK2
  6
CONTINUOUS
370
25
 62
7
100
AcDbLine
 10
-38.34128786912542
 20
6.206439345627082
 30
0.0
 11
-38.0477272147525
 21
6.5
 31
0.0
  0
LINE
  5
60C
330
1F
100
AcDbEntity
  8
SK2
  6
CONTINUOUS
370
25
 62
7
100
AcDbLine
 10
-37.44480098238019
 20
1.72400491190092
 30
0.0
 11
-37.37013267841321
 21
1.649336607933947
 31
0.0
  0
LINE
  5
60D
330
1F
100
AcDbEntity
  8
SK2
  6
CONTINUOUS
370
25
 62
7
100
AcDbLine
 10
-37.55086699955817
 20
2.254334997790835
 30
0.0
 11
-37.29942200029456
 21
2.002889998527223
 31
0.0
  0
LINE
  5
60E
330
1F
100
AcDbEntity
  8
SK2
  6
CONTINUOUS
370
25
 62
7
100
AcDbLine
 10
-37.65693301673615
 20
2.78466508368075
 30
0.0
 11
-37.2287113221759
 21
2.356443389120507
 31
0.0
  0
LINE
  5
60F
330
1F
100
AcDbEntity
  8
SK2
  6
CONTINUOUS
370
25
 62
7
100
AcDbLine
 10
-37.76299903391413
 20
3.314995169570665
 30
0.0
 11
-37.15800064405725
 21
2.709996779713777
 31
0.0
  0
LINE
  5
610
330
1F
100
AcDbEntity
  8
SK2
  6
CONTINUOUS
370
25
 62
7
100
AcDbLine
 10
-37.86906505109211
 20
3.84532525546058
 30
0.0
 11
-37.0872899659386
 21
3.06355017030706
 31
0.0
  0
LINE
  5
611
330
1F
100
AcDbEntity
  8
SK2
  6
CONTINUOUS
370
25
 62
7
100
AcDbLine
 10
-37.9751310682701
 20
4.375655341350502
 30
0.0
 11
-37.01657928781994
 21
3.417103560900337
 31
0.0
  0
LINE
  5
612
330
1F
100
AcDbEntity
  8
SK2
  6
CONTINUOUS
370
25
 62
7
100
AcDbLine
 10
-38.08119708544808
 20
4.905985427240402
 30
0.0
 11
-36.94586860970128
 21
3.770656951493606
 31
0.0
  0
LINE
  5
613
330
1F
100
AcDbEntity
  8
SK2
  6
CONTINUOUS
370
25
 62
7
100
AcDbLine
 10
-38.18726310262606
 20
5.43631551313031
 30
0.0
 11
-36.87515793158263
 21
4.124210342086883
 31
0.0
  0
LINE
  5
614
330
1F
100
AcDbEntity
  8
SK2
  6
CONTINUOUS
370
25
 62
7
100
AcDbLine
 10
-38.29332911980405
 20
5.966645599020239
 30
0.0
 11
-36.80444725346397
 21
4.47776373268016
 31
0.0
  0
LINE
  5
615
330
1F
100
AcDbEntity
  8
SK2
  6
CONTINUOUS
370
25
 62
7
100
AcDbLine
 10
-38.39939513698204
 20
6.496975684910154
 30
0.0
 11
-36.73373657534531
 21
4.831317123273429
 31
0.0
  0
LINE
  5
616
330
1F
100
AcDbEntity
  8
SK2
  6
CONTINUOUS
370
25
 62
7
100
AcDbLine
 10
-37.97815538335995
 20
6.5
 30
0.0
 11
-36.66302589722666
 21
5.184870513866713
 31
0.0
  0
LINE
  5
617
330
1F
100
AcDbEntity
  8
SK2
  6
CONTINUOUS
370
25
 62
7
100
AcDbLine
 10
-37.55389131464803
 20
6.5
 30
0.0
 11
-36.592315219108
 21
5.538423904459975
 31
0.0
  0
LINE
  5
618
330
1F
100
AcDbEntity
  8
SK2
  6
CONTINUOUS
370
25
 62
7
100
AcDbLine
 10
-37.12962724593608
 20
6.5
 30
0.0
 11
-36.52160454098934
 21
5.891977295053259
 31
0.0
  0
LINE
  5
619
330
1F
100
AcDbEntity
  8
SK2
  6
CONTINUOUS
370
25
 62
7
100
AcDbLine
 10
-36.70536317722416
 20
6.5
 30
0.0
 11
-36.45089386287069
 21
6.245530685646528
 31
0.0
  0
TEXT
  5
61A
330
1F
100
AcDbEntity
  8
SK2
  6
CONTINUOUS
370
25
 62
7
100
AcDbText
 10
-38.9
 20
11.84583333333333
 30
0.0
 40
3.5
  1
3
 50
90.00000000000001
 72
     1
 11
-38.9
 21
13.0125
 31
0.0
100
AcDbText
  0
CIRCLE
  5
61B
330
1F
100
AcDbEntity
  8
SK2
  6
CONTINUOUS
370
25
 62
7
100
AcDbCircle
 10
-40.65
 20
9.6875
 30
0.0
 40
1.4
  0
LINE
  5
61C
330
1F
100
AcDbEntity
  8
SK2
  6
CONTINUOUS
370
25
 62
7
100
AcDbLine
 10
-39.25
 20
8.287500000000001
 30
0.0
 11
-42.05
 21
11.0875
 31
0.0
  0
LINE
  5
61D
330
1F
100
AcDbEntity
  8
SK2
  6
CONTINUOUS
370
25
 62
7
100
AcDbLine
 10
-25.4
 20
1.5
 30
0.0
 11
-25.4
 21
13.5
 31
0.0
  0
LINE
  5
61E
330
1F
100
AcDbEntity
  8
SK2
  6
CONTINUOUS
370
25
 62
7
100
AcDbLine
 10
0.0000000000000001
 20
14.5
 30
0.0
 11
-0.0000000000000007
 21
1.5
 31
0.0
  0
LINE
  5
61F
330
1F
100
AcDbEntity
  8
SK2
  6
CONTINUOUS
370
25
 62
7
100
AcDbLine
 10
-25.4
 20
13.5
 30
0.0
 11
0.0
 21
13.5
 31
0.0
  0
LINE
  5
620
330
1F
100
AcDbEntity
  8
SK2
  6
CONTINUOUS
370
25
 62
7
100
AcDbLine
 10
-25.4
 20
13.5
 30
0.0
 11
-20.4
 21
14.5
 31
0.0
  0
LINE
  5
621
330
1F
100
AcDbEntity
  8
SK2
  6
CONTINUOUS
370
25
 62
7
100
AcDbLine
 10
-20.4
 20
14.5
 30
0.0
 11
-20.4
 21
12.5
 31
0.0
  0
LINE
  5
622
330
1F
100
AcDbEntity
  8
SK2
  6
CONTINUOUS
370
25
 62
7
100
AcDbLine
 10
-20.4
 20
12.5
 30
0.0
 11
-25.4
 21
13.5
 31
0.0
  0
LINE
  5
623
330
1F
100
AcDbEntity
  8
SK2
  6
CONTINUOUS
370
25
 62
7
100
AcDbLine
 10
-20.56049779960867
 20
12.53209955992174
 30
0.0
 11
-20.4
 21
12.69259735953041
 31
0.0
  0
LINE
  5
624
330
1F
100
AcDbEntity
  8
SK2
  6
CONTINUOUS
370
25
 62
7
100
AcDbLine
 10
-20.91405119020195
 20
12.60281023804039
 30
0.0
 11
-20.4
 21
13.11686142824234
 31
0.0
  0
LINE
  5
625
330
1F
100
AcDbEntity
  8
SK2
  6
CONTINUOUS
370
25
 62
7
100
AcDbLine
 10
-21.26760458079522
 20
12.67352091615905
 30
0.0
 11
-20.4
 21
13.54112549695427
 31
0.0
  0
LINE
  5
626
330
1F
100
AcDbEntity
  8
SK2
  6
CONTINUOUS
370
25
 62
7
100
AcDbLine
 10
-21.62115797138849
 20
12.7442315942777
 30
0.0
 11
-20.4
 21
13.96538956566619
 31
0.0
  0
LINE
  5
627
330
1F
100
AcDbEntity
  8
SK2
  6
CONTINUOUS
370
25
 62
7
100
AcDbLine
 10
-21.97471136198176
 20
12.81494227239635
 30
0.0
 11
-20.4
 21
14.38965363437812
 31
0.0
  0
LINE
  5
628
330
1F
100
AcDbEntity
  8
SK2
  6
CONTINUOUS
370
25
 62
7
100
AcDbLine
 10
-22.32826475257504
 20
12.88565295051501
 30
0.0
 11
-20.79239712886256
 21
14.42152057422749
 31
0.0
  0
LINE
  5
629
330
1F
100
AcDbEntity
  8
SK2
  6
CONTINUOUS
370
25
 62
7
100
AcDbLine
 10
-22.68181814316831
 20
12.95636362863366
 30
0.0
 11
-21.32272721475247
 21
14.31545455704951
 31
0.0
  0
LINE
  5
62A
330
1F
100
AcDbEntity
  8
SK2
  6
CONTINUOUS
370
25
 62
7
100
AcDbLine
 10
-23.03537153376158
 20
13.02707430675231
 30
0.0
 11
-21.85305730064238
 21
14.20938853987152
 31
0.0
  0
LINE
  5
62B
330
1F
100
AcDbEntity
  8
SK2
  6
CONTINUOUS
370
25
 62
7
100
AcDbLine
 10
-23.38892492435486
 20
13.09778498487097
 30
0.0
 11
-22.38338738653228
 21
14.10332252269354
 31
0.0
  0
LINE
  5
62C
330
1F
100
AcDbEntity
  8
SK2
  6
CONTINUOUS
370
25
 62
7
100
AcDbLine
 10
-23.74247831494813
 20
13.16849566298962
 30
0.0
 11
-22.9137174724222
 21
13.99725650551556
 31
0.0
  0
LINE
  5
62D
330
1F
100
AcDbEntity
  8
SK2
  6
CONTINUOUS
370
25
 62
7
100
AcDbLine
 10
-24.0960317055414
 20
13.23920634110828
 30
0.0
 11
-23.4440475583121
 21
13.89119048833758
 31
0.0
  0
LINE
  5
62E
330
1F
100
AcDbEntity
  8
SK2
  6
CONTINUOUS
370
25
 62
7
100
AcDbLine
 10
-24.44958509613468
 20
13.30991701922694
 30
0.0
 11
-23.97437764420201
 21
13.78512447115959
 31
0.0
  0
LINE
  5
62F
330
1F
100
AcDbEntity
  8
SK2
  6
CONTINUOUS
370
25
 62
7
100
AcDbLine
 10
-24.80313848672795
 20
13.38062769734559
 30
0.0
 11
-24.50470773009193
 21
13.67905845398161
 31
0.0
  0
LINE
  5
630
330
1F
100
AcDbEntity
  8
SK2
  6
CONTINUOUS
370
25
 62
7
100
AcDbLine
 10
-25.15669187732122
 20
13.45133837546425
 30
0.0
 11
-25.03503781598183
 21
13.57299243680363
 31
0.0
  0
LINE
  5
631
330
1F
100
AcDbEntity
  8
SK2
  6
CONTINUOUS
370
25
 62
7
100
AcDbLine
 10
-25.04965326528931
 20
13.57006934694214
 30
0.0
 11
-24.87447989793397
 21
13.3948959795868
 31
0.0
  0
LINE
  5
632
330
1F
100
AcDbEntity
  8
SK2
  6
CONTINUOUS
370
25
 62
7
100
AcDbLine
 10
-24.69609987469603
 20
13.64078002506079
 30
0.0
 11
-24.34414981204405
 21
13.28882996240882
 31
0.0
  0
LINE
  5
633
330
1F
100
AcDbEntity
  8
SK2
  6
CONTINUOUS
370
25
 62
7
100
AcDbLine
 10
-24.34254648410276
 20
13.71149070317945
 30
0.0
 11
-23.81381972615414
 21
13.18276394523083
 31
0.0
  0
LINE
  5
634
330
1F
100
AcDbEntity
  8
SK2
  6
CONTINUOUS
370
25
 62
7
100
AcDbLine
 10
-23.98899309350949
 20
13.7822013812981
 30
0.0
 11
-23.28348964026423
 21
13.07669792805285
 31
0.0
  0
LINE
  5
635
330
1F
100
AcDbEntity
  8
SK2
  6
CONTINUOUS
370
25
 62
7
100
AcDbLine
 10
-23.63543970291621
 20
13.85291205941675
 30
0.0
 11
-22.75315955437432
 21
12.97063191087486
 31
0.0
  0
LINE
  5
636
330
1F
100
AcDbEntity
  8
SK2
  6
CONTINUOUS
370
25
 62
7
100
AcDbLine
 10
-23.28188631232294
 20
13.92362273753541
 30
0.0
 11
-22.22282946848441
 21
12.86456589369688
 31
0.0
  0
LINE
  5
637
330
1F
100
AcDbEntity
  8
SK2
  6
CONTINUOUS
370
25
 62
7
100
AcDbLine
 10
-22.92833292172967
 20
13.99433341565406
 30
0.0
 11
-21.6924993825945
 21
12.7584998765189
 31
0.0
  0
LINE
  5
638
330
1F
100
AcDbEntity
  8
SK2
  6
CONTINUOUS
370
25
 62
7
100
AcDbLine
 10
-22.57477953113639
 20
14.06504409377272
 30
0.0
 11
-21.16216929670459
 21
12.65243385934092
 31
0.0
  0
LINE
  5
639
330
1F
100
AcDbEntity
  8
SK2
  6
CONTINUOUS
370
25
 62
7
100
AcDbLine
 10
-22.22122614054312
 20
14.13575477189137
 30
0.0
 11
-20.63183921081468
 21
12.54636784216294
 31
0.0
  0
LINE
  5
63A
330
1F
100
AcDbEntity
  8
SK2
  6
CONTINUOUS
370
25
 62
7
100
AcDbLine
 10
-21.86767274994985
 20
14.20646545001003
 30
0.0
 11
-20.4
 21
12.73879270006018
 31
0.0
  0
LINE
  5
63B
330
1F
100
AcDbEntity
  8
SK2
  6
CONTINUOUS
370
25
 62
7
100
AcDbLine
 10
-21.51411935935657
 20
14.27717612812868
 30
0.0
 11
-20.4
 21
13.16305676877211
 31
0.0
  0
LINE
  5
63C
330
1F
100
AcDbEntity
  8
SK2
  6
CONTINUOUS
370
25
 62
7
100
AcDbLine
 10
-21.1605659687633
 20
14.34788680624733
 30
0.0
 11
-20.4
 21
13.58732083748404
 31
0.0
  0
LINE
  5
63D
330
1F
100
AcDbEntity
  8
SK2
  6
CONTINUOUS
370
25
 62
7
100
AcDbLine
 10
-20.80701257817003
 20
14.41859748436599
 30
0.0
 11
-20.4
 21
14.01158490619596
 31
0.0
  0
LINE
  5
63E
330
1F
100
AcDbEntity
  8
SK2
  6
CONTINUOUS
370
25
 62
7
100
AcDbLine
 10
-20.45345918757675
 20
14.48930816248465
 30
0.0
 11
-20.4
 21
14.43584897490789
 31
0.0
  0
LINE
  5
63F
330
1F
100
AcDbEntity
  8
SK2
  6
CONTINUOUS
370
25
 62
7
100
AcDbLine
 10
0.0
 20
13.5
 30
0.0
 11
-5.0
 21
12.5
 31
0.0
  0
LINE
  5
640
330
1F
100
AcDbEntity
  8
SK2
  6
CONTINUOUS
370
25
 62
7
100
AcDbLine
 10
-5.0
 20
12.5
 30
0.0
 11
-5.0
 21
14.5
 31
0.0
  0
LINE
  5
641
330
1F
100
AcDbEntity
  8
SK2
  6
CONTINUOUS
370
25
 62
7
100
AcDbLine
 10
-5.0
 20
14.5
 30
0.0
 11
0.0
 21
13.5
 31
0.0
  0
LINE
  5
642
330
1F
100
AcDbEntity
  8
SK2
  6
CONTINUOUS
370
25
 62
7
100
AcDbLine
 10
-0.0955627484771404
 20
13.48088745030457
 30
0.0
 11
-0.0637084989847603
 21
13.51274169979695
 31
0.0
  0
LINE
  5
643
330
1F
100
AcDbEntity
  8
SK2
  6
CONTINUOUS
370
25
 62
7
100
AcDbLine
 10
-0.62589283436705
 20
13.37482143312659
 30
0.0
 11
-0.4172618895780333
 21
13.58345237791561
 31
0.0
  0
LINE
  5
644
330
1F
100
AcDbEntity
  8
SK2
  6
CONTINUOUS
370
25
 62
7
100
AcDbLine
 10
-1.15622292025696
 20
13.26875541594861
 30
0.0
 11
-0.7708152801713064
 21
13.65416305603426
 31
0.0
  0
LINE
  5
645
330
1F
100
AcDbEntity
  8
SK2
  6
CONTINUOUS
370
25
 62
7
100
AcDbLine
 10
-1.686553006146871
 20
13.16268939877063
 30
0.0
 11
-1.124368670764581
 21
13.72487373415292
 31
0.0
  0
LINE
  5
646
330
1F
100
AcDbEntity
  8
SK2
  6
CONTINUOUS
370
25
 62
7
100
AcDbLine
 10
-2.21688309203678
 20
13.05662338159264
 30
0.0
 11
-1.477922061357854
 21
13.79558441227157
 31
0.0
  0
LINE
  5
647
330
1F
100
AcDbEntity
  8
SK2
  6
CONTINUOUS
370
25
 62
7
100
AcDbLine
 10
-2.74721317792669
 20
12.95055736441466
 30
0.0
 11
-1.831475451951127
 21
13.86629509039023
 31
0.0
  0
LINE
  5
648
330
1F
100
AcDbEntity
  8
SK2
  6
CONTINUOUS
370
25
 62
7
100
AcDbLine
 10
-3.277543263816598
 20
12.84449134723668
 30
0.0
 11
-2.1850288425444
 21
13.93700576850888
 31
0.0
  0
LINE
  5
649
330
1F
100
AcDbEntity
  8
SK2
  6
CONTINUOUS
370
25
 62
7
100
AcDbLine
 10
-3.807873349706508
 20
12.7384253300587
 30
0.0
 11
-2.538582233137672
 21
14.00771644662753
 31
0.0
  0
LINE
  5
64A
330
1F
100
AcDbEntity
  8
SK2
  6
CONTINUOUS
370
25
 62
7
100
AcDbLine
 10
-4.338203435596417
 20
12.63235931288072
 30
0.0
 11
-2.892135623730945
 21
14.07842712474619
 31
0.0
  0
LINE
  5
64B
330
1F
100
AcDbEntity
  8
SK2
  6
CONTINUOUS
370
25
 62
7
100
AcDbLine
 10
-4.868533521486326
 20
12.52629329570274
 30
0.0
 11
-3.245689014324218
 21
14.14913780286484
 31
0.0
  0
LINE
  5
64C
330
1F
100
AcDbEntity
  8
SK2
  6
CONTINUOUS
370
25
 62
7
100
AcDbLine
 10
-5.0
 20
12.81909088590099
 30
0.0
 11
-3.599242404917491
 21
14.2198484809835
 31
0.0
  0
LINE
  5
64D
330
1F
100
AcDbEntity
  8
SK2
  6
CONTINUOUS
370
25
 62
7
100
AcDbLine
 10
-5.0
 20
13.24335495461292
 30
0.0
 11
-3.952795795510766
 21
14.29055915910215
 31
0.0
  0
LINE
  5
64E
330
1F
100
AcDbEntity
  8
SK2
  6
CONTINUOUS
370
25
 62
7
100
AcDbLine
 10
-5.0
 20
13.66761902332485
 30
0.0
 11
-4.306349186104039
 21
14.36126983722081
 31
0.0
  0
LINE
  5
64F
330
1F
100
AcDbEntity
  8
SK2
  6
CONTINUOUS
370
25
 62
7
100
AcDbLine
 10
-5.0
 20
14.09188309203677
 30
0.0
 11
-4.659902576697312
 21
14.43198051533946
 31
0.0
  0
LINE
  5
650
330
1F
100
AcDbEntity
  8
SK2
  6
CONTINUOUS
370
25
 62
7
100
AcDbLine
 10
-5.0
 20
12.63675323681471
 30
0.0
 11
-4.886038969321073
 21
12.52279220613579
 31
0.0
  0
LINE
  5
651
330
1F
100
AcDbEntity
  8
SK2
  6
CONTINUOUS
370
25
 62
7
100
AcDbLine
 10
-5.0
 20
13.06101730552664
 30
0.0
 11
-4.532485578727797
 21
12.59350288425444
 31
0.0
  0
LINE
  5
652
330
1F
100
AcDbEntity
  8
SK2
  6
CONTINUOUS
370
25
 62
7
100
AcDbLine
 10
-5.0
 20
13.48528137423857
 30
0.0
 11
-4.178932188134525
 21
12.6642135623731
 31
0.0
  0
LINE
  5
653
330
1F
100
AcDbEntity
  8
SK2
  6
CONTINUOUS
370
25
 62
7
100
AcDbLine
 10
-5.0
 20
13.9095454429505
 30
0.0
 11
-3.825378797541251
 21
12.73492424049175
 31
0.0
  0
LINE
  5
654
330
1F
100
AcDbEntity
  8
SK2
  6
CONTINUOUS
370
25
 62
7
100
AcDbLine
 10
-5.0
 20
14.33380951166242
 30
0.0
 11
-3.471825406947977
 21
12.80563491861041
 31
0.0
  0
LINE
  5
655
330
1F
100
AcDbEntity
  8
SK2
  6
CONTINUOUS
370
25
 62
7
100
AcDbLine
 10
-4.677408024532058
 20
14.43548160490641
 30
0.0
 11
-3.118272016354704
 21
12.87634559672906
 31
0.0
  0
LINE
  5
656
330
1F
100
AcDbEntity
  8
SK2
  6
CONTINUOUS
370
25
 62
7
100
AcDbLine
 10
-4.147077938642147
 20
14.32941558772843
 30
0.0
 11
-2.76471862576143
 21
12.94705627484771
 31
0.0
  0
LINE
  5
657
330
1F
100
AcDbEntity
  8
SK2
  6
CONTINUOUS
370
25
 62
7
100
AcDbLine
 10
-3.616747852752237
 20
14.22334957055045
 30
0.0
 11
-2.411165235168157
 21
13.01776695296637
 31
0.0
  0
LINE
  5
658
330
1F
100
AcDbEntity
  8
SK2
  6
CONTINUOUS
370
25
 62
7
100
AcDbLine
 10
-3.086417766862328
 20
14.11728355337247
 30
0.0
 11
-2.057611844574884
 21
13.08847763108502
 31
0.0
  0
LINE
  5
659
330
1F
100
AcDbEntity
  8
SK2
  6
CONTINUOUS
370
25
 62
7
100
AcDbLine
 10
-2.556087680972416
 20
14.01121753619448
 30
0.0
 11
-1.704058453981609
 21
13.15918830920368
 31
0.0
  0
LINE
  5
65A
330
1F
100
AcDbEntity
  8
SK2
  6
CONTINUOUS
370
25
 62
7
100
AcDbLine
 10
-2.025757595082507
 20
13.9051515190165
 30
0.0
 11
-1.350505063388337
 21
13.22989898732233
 31
0.0
  0
LINE
  5
65B
330
1F
100
AcDbEntity
  8
SK2
  6
CONTINUOUS
370
25
 62
7
100
AcDbLine
 10
-1.495427509192596
 20
13.79908550183852
 30
0.0
 11
-0.9969516727950634
 21
13.30060966544099
 31
0.0
  0
LINE
  5
65C
330
1F
100
AcDbEntity
  8
SK2
  6
CONTINUOUS
370
25
 62
7
100
AcDbLine
 10
-0.9650974233026837
 20
13.69301948466054
 30
0.0
 11
-0.6433982822017884
 21
13.37132034355964
 31
0.0
  0
LINE
  5
65D
330
1F
100
AcDbEntity
  8
SK2
  6
CONTINUOUS
370
25
 62
7
100
AcDbLine
 10
-0.4347673374127748
 20
13.58695346748256
 30
0.0
 11
-0.2898448916085162
 21
13.4420310216783
 31
0.0
  0
TEXT
  5
65E
330
1F
100
AcDbEntity
  8
SK2
  6
CONTINUOUS
370
25
 62
7
100
AcDbText
 10
-17.95
 20
15.0
 30
0.0
 40
3.5
  1
25.4
 72
     1
 11
-12.7
 21
15.0
 31
0.0
100
AcDbText
  0
LINE
  5
65F
330
1F
100
AcDbEntity
  8
2
  6
CONTINUOUS
370
25
 62
7
100
AcDbLine
 10
14.30882381
 20
-0.8
 30
0.0
 11
47.6
 21
-0.8000000000000042
 31
0.0
  0
LINE
  5
660
330
1F
100
AcDbEntity
  8
2
  6
CONTINUOUS
370
25
 62
7
100
AcDbLine
 10
47.6
 20
0.7999999999999959
 30
0.0
 11
14.30882381
 21
0.8
 31
0.0
  0
LINE
  5
661
330
1F
100
AcDbEntity
  8
2
  6
CONTINUOUS
370
25
 62
7
100
AcDbLine
 10
46.6
 20
-7.800000000000004
 30
0.0
 11
46.6
 21
20.22499999999999
 31
0.0
  0
LINE
  5
662
330
1F
100
AcDbEntity
  8
2
  6
CONTINUOUS
370
25
 62
7
100
AcDbLine
 10
46.6
 20
-0.800000000000004
 30
0.0
 11
47.6
 21
-5.800000000000004
 31
0.0
  0
LINE
  5
663
330
1F
100
AcDbEntity
  8
2
  6
CONTINUOUS
370
25
 62
7
100
AcDbLine
 10
47.6
 20
-5.800000000000004
 30
0.0
 11
45.6
 21
-5.800000000000004
 31
0.0
  0
LINE
  5
664
330
1F
100
AcDbEntity
  8
2
  6
CONTINUOUS
370
25
 62
7
100
AcDbLine
 10
45.6
 20
-5.800000000000004
 30
0.0
 11
46.6
 21
-0.800000000000004
 31
0.0
  0
LINE
  5
665
330
1F
100
AcDbEntity
  8
2
  6
CONTINUOUS
370
25
 62
7
100
AcDbLine
 10
47.22302552813793
 20
-5.800000000000004
 30
0.0
 11
47.53717092135633
 21
-5.485854606781608
 31
0.0
  0
LINE
  5
666
330
1F
100
AcDbEntity
  8
2
  6
CONTINUOUS
370
25
 62
7
100
AcDbLine
 10
46.798761459426
 20
-5.800000000000004
 30
0.0
 11
47.46646024323767
 21
-5.132301216188331
 31
0.0
  0
LINE
  5
667
330
1F
100
AcDbEntity
  8
2
  6
CONTINUOUS
370
25
 62
7
100
AcDbLine
 10
46.37449739071407
 20
-5.800000000000004
 30
0.0
 11
47.39574956511901
 21
-4.778747825595062
 31
0.0
  0
LINE
  5
668
330
1F
100
AcDbEntity
  8
2
  6
CONTINUOUS
370
25
 62
7
100
AcDbLine
 10
45.95023332200213
 20
-5.800000000000004
 30
0.0
 11
47.32503888700035
 21
-4.425194435001785
 31
0.0
  0
LINE
  5
669
330
1F
100
AcDbEntity
  8
2
  6
CONTINUOUS
370
25
 62
7
100
AcDbLine
 10
45.61850768667745
 20
-5.707461566612757
 30
0.0
 11
47.2543282088817
 21
-4.071641044408508
 31
0.0
  0
LINE
  5
66A
330
1F
100
AcDbEntity
  8
2
  6
CONTINUOUS
370
25
 62
7
100
AcDbLine
 10
45.72457370385543
 20
-5.177131480722842
 30
0.0
 11
47.18361753076304
 21
-3.718087653815232
 31
0.0
  0
LINE
  5
66B
330
1F
100
AcDbEntity
  8
2
  6
CONTINUOUS
370
25
 62
7
100
AcDbLine
 10
45.83063972103341
 20
-4.646801394832934
 30
0.0
 11
47.11290685264439
 21
-3.364534263221962
 31
0.0
  0
LINE
  5
66C
330
1F
100
AcDbEntity
  8
2
  6
CONTINUOUS
370
25
 62
7
100
AcDbLine
 10
45.9367057382114
 20
-4.116471308943012
 30
0.0
 11
47.04219617452573
 21
-3.010980872628679
 31
0.0
  0
LINE
  5
66D
330
1F
100
AcDbEntity
  8
2
  6
CONTINUOUS
370
25
 62
7
100
AcDbLine
 10
46.04277175538938
 20
-3.586141223053104
 30
0.0
 11
46.97148549640708
 21
-2.657427482035402
 31
0.0
  0
LINE
  5
66E
330
1F
100
AcDbEntity
  8
2
  6
CONTINUOUS
370
25
 62
7
100
AcDbLine
 10
46.14883777256737
 20
-3.055811137163182
 30
0.0
 11
46.90077481828842
 21
-2.303874091442133
 31
0.0
  0
LINE
  5
66F
330
1F
100
AcDbEntity
  8
2
  6
CONTINUOUS
370
25
 62
7
100
AcDbLine
 10
46.25490378974535
 20
-2.525481051273275
 30
0.0
 11
46.83006414016977
 21
-1.950320700848856
 31
0.0
  0
LINE
  5
670
330
1F
100
AcDbEntity
  8
2
  6
CONTINUOUS
370
25
 62
7
100
AcDbLine
 10
46.36096980692333
 20
-1.99515096538336
 30
0.0
 11
46.75935346205111
 21
-1.596767310255579
 31
0.0
  0
LINE
  5
671
330
1F
100
AcDbEntity
  8
2
  6
CONTINUOUS
370
25
 62
7
100
AcDbLine
 10
46.46703582410131
 20
-1.464820879493452
 30
0.0
 11
46.68864278393246
 21
-1.243213919662303
 31
0.0
  0
LINE
  5
672
330
1F
100
AcDbEntity
  8
2
  6
CONTINUOUS
370
25
 62
7
100
AcDbLine
 10
46.5731018412793
 20
-0.9344907936035298
 30
0.0
 11
46.61793210581381
 21
-0.8896605290690189
 31
0.0
  0
LINE
  5
673
330
1F
100
AcDbEntity
  8
2
  6
CONTINUOUS
370
25
 62
7
100
AcDbLine
 10
45.61347040982021
 20
-5.732647950898951
 30
0.0
 11
45.68082245892126
 21
-5.800000000000004
 31
0.0
  0
LINE
  5
674
330
1F
100
AcDbEntity
  8
2
  6
CONTINUOUS
370
25
 62
7
100
AcDbLine
 10
45.68418108793887
 20
-5.379094560305688
 30
0.0
 11
46.1050865276332
 21
-5.800000000000004
 31
0.0
  0
LINE
  5
675
330
1F
100
AcDbEntity
  8
2
  6
CONTINUOUS
370
25
 62
7
100
AcDbLine
 10
45.75489176605753
 20
-5.025541169712405
 30
0.0
 11
46.52935059634513
 21
-5.800000000000004
 31
0.0
  0
LINE
  5
676
330
1F
100
AcDbEntity
  8
2
  6
CONTINUOUS
370
25
 62
7
100
AcDbLine
 10
45.82560244417618
 20
-4.671987779119128
 30
0.0
 11
46.95361466505705
 21
-5.800000000000004
 31
0.0
  0
LINE
  5
677
330
1F
100
AcDbEntity
  8
2
  6
CONTINUOUS
370
25
 62
7
100
AcDbLine
 10
45.89631312229483
 20
-4.318434388525851
 30
0.0
 11
47.37787873376899
 21
-5.800000000000004
 31
0.0
  0
LINE
  5
678
330
1F
100
AcDbEntity
  8
2
  6
CONTINUOUS
370
25
 62
7
100
AcDbLine
 10
45.96702380041349
 20
-3.964880997932568
 30
0.0
 11
47.54946429937976
 21
-5.547321496898846
 31
0.0
  0
LINE
  5
679
330
1F
100
AcDbEntity
  8
2
  6
CONTINUOUS
370
25
 62
7
100
AcDbLine
 10
46.03773447853215
 20
-3.611327607339305
 30
0.0
 11
47.44339828220178
 21
-5.016991411008931
 31
0.0
  0
LINE
  5
67A
330
1F
100
AcDbEntity
  8
2
  6
CONTINUOUS
370
25
 62
7
100
AcDbLine
 10
46.1084451566508
 20
-3.257774216746022
 30
0.0
 11
47.3373322650238
 21
-4.486661325119016
 31
0.0
  0
LINE
  5
67B
330
1F
100
AcDbEntity
  8
2
  6
CONTINUOUS
370
25
 62
7
100
AcDbLine
 10
46.17915583476945
 20
-2.904220826152745
 30
0.0
 11
47.23126624784582
 21
-3.956331239229108
 31
0.0
  0
LINE
  5
67C
330
1F
100
AcDbEntity
  8
2
  6
CONTINUOUS
370
25
 62
7
100
AcDbLine
 10
46.24986651288811
 20
-2.550667435559468
 30
0.0
 11
47.12520023066784
 21
-3.426001153339193
 31
0.0
  0
LINE
  5
67D
330
1F
100
AcDbEntity
  8
2
  6
CONTINUOUS
370
25
 62
7
100
AcDbLine
 10
46.32057719100676
 20
-2.197114044966192
 30
0.0
 11
47.01913421348985
 21
-2.895671067449278
 31
0.0
  0
LINE
  5
67E
330
1F
100
AcDbEntity
  8
2
  6
CONTINUOUS
370
25
 62
7
100
AcDbLine
 10
46.39128786912543
 20
-1.843560654372922
 30
0.0
 11
46.91306819631187
 21
-2.365340981559363
 31
0.0
  0
LINE
  5
67F
330
1F
100
AcDbEntity
  8
2
  6
CONTINUOUS
370
25
 62
7
100
AcDbLine
 10
46.46199854724408
 20
-1.490007263779638
 30
0.0
 11
46.80700217913388
 21
-1.835010895669441
 31
0.0
  0
LINE
  5
680
330
1F
100
AcDbEntity
  8
2
  6
CONTINUOUS
370
25
 62
7
100
AcDbLine
 10
46.53270922536273
 20
-1.136453873186362
 30
0.0
 11
46.7009361619559
 21
-1.304680809779533
 31
0.0
  0
LINE
  5
681
330
1F
100
AcDbEntity
  8
2
  6
CONTINUOUS
370
25
 62
7
100
AcDbLine
 10
46.6
 20
0.799999999999996
 30
0.0
 11
45.6
 21
5.799999999999996
 31
0.0
  0
LINE
  5
682
330
1F
100
AcDbEntity
  8
2
  6
CONTINUOUS
370
25
 62
7
100
AcDbLine
 10
45.6
 20
5.799999999999996
 30
0.0
 11
47.6
 21
5.799999999999996
 31
0.0
  0
LINE
  5
683
330
1F
100
AcDbEntity
  8
2
  6
CONTINUOUS
370
25
 62
7
100
AcDbLine
 10
47.6
 20
5.799999999999996
 30
0.0
 11
46.6
 21
0.799999999999996
 31
0.0
  0
LINE
  5
684
330
1F
100
AcDbEntity
  8
2
  6
CONTINUOUS
370
25
 62
7
100
AcDbLine
 10
46.59378708168416
 20
0.8310645915792207
 30
0.0
 11
46.60931937747377
 21
0.8465968873688396
 31
0.0
  0
LINE
  5
685
330
1F
100
AcDbEntity
  8
2
  6
CONTINUOUS
370
25
 62
7
100
AcDbLine
 10
46.52307640356549
 20
1.18461798217249
 30
0.0
 11
46.71538539465175
 21
1.376926973258755
 31
0.0
  0
LINE
  5
686
330
1F
100
AcDbEntity
  8
2
  6
CONTINUOUS
370
25
 62
7
100
AcDbLine
 10
46.45236572544684
 20
1.538171372765767
 30
0.0
 11
46.82145141182974
 21
1.907257059148669
 31
0.0
  0
LINE
  5
687
330
1F
100
AcDbEntity
  8
2
  6
CONTINUOUS
370
25
 62
7
100
AcDbLine
 10
46.38165504732819
 20
1.891724763359051
 30
0.0
 11
46.92751742900772
 21
2.437587145038584
 31
0.0
  0
LINE
  5
688
330
1F
100
AcDbEntity
  8
2
  6
CONTINUOUS
370
25
 62
7
100
AcDbLine
 10
46.31094436920953
 20
2.24527815395232
 30
0.0
 11
47.0335834461857
 21
2.967917230928492
 31
0.0
  0
LINE
  5
689
330
1F
100
AcDbEntity
  8
2
  6
CONTINUOUS
370
25
 62
7
100
AcDbLine
 10
46.24023369109087
 20
2.598831544545597
 30
0.0
 11
47.13964946336369
 21
3.498247316818414
 31
0.0
  0
LINE
  5
68A
330
1F
100
AcDbEntity
  8
2
  6
CONTINUOUS
370
25
 62
7
100
AcDbLine
 10
46.16952301297221
 20
2.952384935138873
 30
0.0
 11
47.24571548054168
 21
4.028577402708336
 31
0.0
  0
LINE
  5
68B
330
1F
100
AcDbEntity
  8
2
  6
CONTINUOUS
370
25
 62
7
100
AcDbLine
 10
46.09881233485356
 20
3.30593832573215
 30
0.0
 11
47.35178149771966
 21
4.558907488598244
 31
0.0
  0
LINE
  5
68C
330
1F
100
AcDbEntity
  8
2
  6
CONTINUOUS
370
25
 62
7
100
AcDbLine
 10
46.02810165673491
 20
3.659491716325434
 30
0.0
 11
47.45784751489764
 21
5.089237574488159
 31
0.0
  0
LINE
  5
68D
330
1F
100
AcDbEntity
  8
2
  6
CONTINUOUS
370
25
 62
7
100
AcDbLine
 10
45.95739097861626
 20
4.013045106918703
 30
0.0
 11
47.56391353207562
 21
5.61956766037806
 31
0.0
  0
LINE
  5
68E
330
1F
100
AcDbEntity
  8
2
  6
CONTINUOUS
370
25
 62
7
100
AcDbLine
 10
45.8866803004976
 20
4.36659849751198
 30
0.0
 11
47.32008180298562
 21
5.799999999999997
 31
0.0
  0
LINE
  5
68F
330
1F
100
AcDbEntity
  8
2
  6
CONTINUOUS
370
25
 62
7
100
AcDbLine
 10
45.81596962237894
 20
4.720151888105249
 30
0.0
 11
46.89581773427369
 21
5.799999999999997
 31
0.0
  0
LINE
  5
690
330
1F
100
AcDbEntity
  8
2
  6
CONTINUOUS
370
25
 62
7
100
AcDbLine
 10
45.74525894426029
 20
5.073705278698533
 30
0.0
 11
46.47155366556176
 21
5.799999999999997
 31
0.0
  0
LINE
  5
691
330
1F
100
AcDbEntity
  8
2
  6
CONTINUOUS
370
25
 62
7
100
AcDbLine
 10
45.67454826614164
 20
5.42725866929181
 30
0.0
 11
46.04728959684983
 21
5.799999999999997
 31
0.0
  0
LINE
  5
692
330
1F
100
AcDbEntity
  8
2
  6
CONTINUOUS
370
25
 62
7
100
AcDbLine
 10
45.60383758802298
 20
5.780812059885086
 30
0.0
 11
45.62302552813789
 21
5.799999999999997
 31
0.0
  0
LINE
  5
693
330
1F
100
AcDbEntity
  8
2
  6
CONTINUOUS
370
25
 62
7
100
AcDbLine
 10
46.57060607606599
 20
0.9469696196699928
 30
0.0
 11
46.61959594928934
 21
0.8979797464466444
 31
0.0
  0
LINE
  5
694
330
1F
100
AcDbEntity
  8
2
  6
CONTINUOUS
370
25
 62
7
100
AcDbLine
 10
46.46454005888801
 20
1.477299705559908
 30
0.0
 11
46.69030662740799
 21
1.251533137039928
 31
0.0
  0
LINE
  5
695
330
1F
100
AcDbEntity
  8
2
  6
CONTINUOUS
370
25
 62
7
100
AcDbLine
 10
46.35847404171003
 20
2.007629791449823
 30
0.0
 11
46.76101730552664
 21
1.605086527633212
 31
0.0
  0
LINE
  5
696
330
1F
100
AcDbEntity
  8
2
  6
CONTINUOUS
370
25
 62
7
100
AcDbLine
 10
46.25240802453204
 20
2.537959877339738
 30
0.0
 11
46.8317279836453
 21
1.958639918226481
 31
0.0
  0
LINE
  5
697
330
1F
100
AcDbEntity
  8
2
  6
CONTINUOUS
370
25
 62
7
100
AcDbLine
 10
46.14634200735406
 20
3.06828996322966
 30
0.0
 11
46.90243866176396
 21
2.312193308819758
 31
0.0
  0
LINE
  5
698
330
1F
100
AcDbEntity
  8
2
  6
CONTINUOUS
370
25
 62
7
100
AcDbLine
 10
46.04027599017608
 20
3.598620049119567
 30
0.0
 11
46.97314933988262
 21
2.665746699413027
 31
0.0
  0
LINE
  5
699
330
1F
100
AcDbEntity
  8
2
  6
CONTINUOUS
370
25
 62
7
100
AcDbLine
 10
45.9342099729981
 20
4.128950135009482
 30
0.0
 11
47.04386001800127
 21
3.019300090006311
 31
0.0
  0
LINE
  5
69A
330
1F
100
AcDbEntity
  8
2
  6
CONTINUOUS
370
25
 62
7
100
AcDbLine
 10
45.82814395582012
 20
4.65928022089939
 30
0.0
 11
47.11457069611992
 21
3.372853480599588
 31
0.0
  0
LINE
  5
69B
330
1F
100
AcDbEntity
  8
2
  6
CONTINUOUS
370
25
 62
7
100
AcDbLine
 10
45.72207793864213
 20
5.189610306789312
 30
0.0
 11
47.18528137423858
 21
3.726406871192857
 31
0.0
  0
LINE
  5
69C
330
1F
100
AcDbEntity
  8
2
  6
CONTINUOUS
370
25
 62
7
100
AcDbLine
 10
45.61601192146415
 20
5.71994039267922
 30
0.0
 11
47.25599205235723
 21
4.079960261786141
 31
0.0
  0
LINE
  5
69D
330
1F
100
AcDbEntity
  8
2
  6
CONTINUOUS
370
25
 62
7
100
AcDbLine
 10
45.96021638285531
 20
5.799999999999997
 30
0.0
 11
47.32670273047589
 21
4.433513652379411
 31
0.0
  0
LINE
  5
69E
330
1F
100
AcDbEntity
  8
2
  6
CONTINUOUS
370
25
 62
7
100
AcDbLine
 10
46.38448045156724
 20
5.799999999999997
 30
0.0
 11
47.39741340859455
 21
4.787067042972694
 31
0.0
  0
LINE
  5
69F
330
1F
100
AcDbEntity
  8
2
  6
CONTINUOUS
370
25
 62
7
100
AcDbLine
 10
46.80874452027917
 20
5.799999999999997
 30
0.0
 11
47.4681240867132
 21
5.140620433565971
 31
0.0
  0
LINE
  5
6A0
330
1F
100
AcDbEntity
  8
2
  6
CONTINUOUS
370
25
 62
7
100
AcDbLine
 10
47.2330085889911
 20
5.799999999999997
 30
0.0
 11
47.53883476483185
 21
5.49417382415924
 31
0.0
  0
TEXT
  5
6A1
330
1F
100
AcDbEntity
  8
2
  6
CONTINUOUS
370
25
 62
7
100
AcDbText
 10
45.1
 20
12.37083333333333
 30
0.0
 40
3.5
  1
1.6
 50
90.00000000000001
 72
     1
 11
45.1
 21
15.28749999999999
 31
0.0
100
AcDbText
  0
CIRCLE
  5
6A2
330
1F
100
AcDbEntity
  8
2
  6
CONTINUOUS
370
25
 62
7
100
AcDbCircle
 10
43.35
 20
8.812499999999993
 30
0.0
 40
1.4
  0
LINE
  5
6A3
330
1F
100
AcDbEntity
  8
2
  6
CONTINUOUS
370
25
 62
7
100
AcDbLine
 10
44.75
 20
7.412499999999993
 30
0.0
 11
41.95
 21
10.21249999999999
 31
0.0
  0
LINE
  5
6A4
330
1F
100
AcDbEntity
  8
2
  6
CONTINUOUS
370
25
 62
7
100
AcDbLine
 10
0.0
 20
1.5
 30
0.0
 11
0.0000000000000014
 21
24.5
 31
0.0
  0
LINE
  5
6A5
330
1F
100
AcDbEntity
  8
2
  6
CONTINUOUS
370
25
 62
7
100
AcDbLine
 10
14.6
 20
24.5
 30
0.0
 11
14.6
 21
0.0
 31
0.0
  0
LINE
  5
6A6
330
1F
100
AcDbEntity
  8
2
  6
CONTINUOUS
370
25
 62
7
100
AcDbLine
 10
-7.0
 20
23.5
 30
0.0
 11
21.6
 21
23.5
 31
0.0
  0
LINE
  5
6A7
330
1F
100
AcDbEntity
  8
2
  6
CONTINUOUS
370
25
 62
7
100
AcDbLine
 10
0.0
 20
23.5
 30
0.0
 11
-5.0
 21
22.5
 31
0.0
  0
LINE
  5
6A8
330
1F
100
AcDbEntity
  8
2
  6
CONTINUOUS
370
25
 62
7
100
AcDbLine
 10
-5.0
 20
22.5
 30
0.0
 11
-5.0
 21
24.5
 31
0.0
  0
LINE
  5
6A9
330
1F
100
AcDbEntity
  8
2
  6
CONTINUOUS
370
25
 62
7
100
AcDbLine
 10
-5.0
 20
24.5
 30
0.0
 11
0.0
 21
23.5
 31
0.0
  0
LINE
  5
6AA
330
1F
100
AcDbEntity
  8
2
  6
CONTINUOUS
370
25
 62
7
100
AcDbLine
 10
-0.3234848098349596
 20
23.43530303803301
 30
0.0
 11
-0.2156565398899731
 21
23.54313130797799
 31
0.0
  0
LINE
  5
6AB
330
1F
100
AcDbEntity
  8
2
  6
CONTINUOUS
370
25
 62
7
100
AcDbLine
 10
-0.8538148957248733
 20
23.32923702085503
 30
0.0
 11
-0.5692099304832491
 21
23.61384198609665
 31
0.0
  0
LINE
  5
6AC
330
1F
100
AcDbEntity
  8
2
  6
CONTINUOUS
370
25
 62
7
100
AcDbLine
 10
-1.384144981614783
 20
23.22317100367705
 30
0.0
 11
-0.922763321076522
 21
23.6845526642153
 31
0.0
  0
LINE
  5
6AD
330
1F
100
AcDbEntity
  8
2
  6
CONTINUOUS
370
25
 62
7
100
AcDbLine
 10
-1.914475067504692
 20
23.11710498649906
 30
0.0
 11
-1.276316711669795
 21
23.75526334233396
 31
0.0
  0
LINE
  5
6AE
330
1F
100
AcDbEntity
  8
2
  6
CONTINUOUS
370
25
 62
7
100
AcDbLine
 10
-2.444805153394601
 20
23.01103896932108
 30
0.0
 11
-1.629870102263068
 21
23.82597402045261
 31
0.0
  0
LINE
  5
6AF
330
1F
100
AcDbEntity
  8
2
  6
CONTINUOUS
370
25
 62
7
100
AcDbLine
 10
-2.97513523928451
 20
22.9049729521431
 30
0.0
 11
-1.983423492856341
 21
23.89668469857127
 31
0.0
  0
LINE
  5
6B0
330
1F
100
AcDbEntity
  8
2
  6
CONTINUOUS
370
25
 62
7
100
AcDbLine
 10
-3.505465325174419
 20
22.79890693496512
 30
0.0
 11
-2.336976883449614
 21
23.96739537668992
 31
0.0
  0
LINE
  5
6B1
330
1F
100
AcDbEntity
  8
2
  6
CONTINUOUS
370
25
 62
7
100
AcDbLine
 10
-4.035795411064329
 20
22.69284091778713
 30
0.0
 11
-2.690530274042886
 21
24.03810605480858
 31
0.0
  0
LINE
  5
6B2
330
1F
100
AcDbEntity
  8
2
  6
CONTINUOUS
370
25
 62
7
100
AcDbLine
 10
-4.566125496954238
 20
22.58677490060915
 30
0.0
 11
-3.04408366463616
 21
24.10881673292723
 31
0.0
  0
LINE
  5
6B3
330
1F
100
AcDbEntity
  8
2
  6
CONTINUOUS
370
25
 62
7
100
AcDbLine
 10
-5.0
 20
22.57716446627532
 30
0.0
 11
-3.397637055229435
 21
24.17952741104589
 31
0.0
  0
LINE
  5
6B4
330
1F
100
AcDbEntity
  8
2
  6
CONTINUOUS
370
25
 62
7
100
AcDbLine
 10
-5.0
 20
23.00142853498725
 30
0.0
 11
-3.751190445822706
 21
24.25023808916454
 31
0.0
  0
LINE
  5
6B5
330
1F
100
AcDbEntity
  8
2
  6
CONTINUOUS
370
25
 62
7
100
AcDbLine
 10
-5.0
 20
23.42569260369918
 30
0.0
 11
-4.104743836415981
 21
24.32094876728319
 31
0.0
  0
LINE
  5
6B6
330
1F
100
AcDbEntity
  8
2
  6
CONTINUOUS
370
25
 62
7
100
AcDbLine
 10
-5.0
 20
23.8499566724111
 30
0.0
 11
-4.458297227009253
 21
24.39165944540185
 31
0.0
  0
LINE
  5
6B7
330
1F
100
AcDbEntity
  8
2
  6
CONTINUOUS
370
25
 62
7
100
AcDbLine
 10
-5.0
 20
24.27422074112303
 30
0.0
 11
-4.811850617602526
 21
24.4623701235205
 31
0.0
  0
LINE
  5
6B8
330
1F
100
AcDbEntity
  8
2
  6
CONTINUOUS
370
25
 62
7
100
AcDbLine
 10
-5.0
 20
22.81909088590096
 30
0.0
 11
-4.734090928415865
 21
22.55318181431683
 31
0.0
  0
LINE
  5
6B9
330
1F
100
AcDbEntity
  8
2
  6
CONTINUOUS
370
25
 62
7
100
AcDbLine
 10
-5.0
 20
23.24335495461289
 30
0.0
 11
-4.380537537822595
 21
22.62389249243548
 31
0.0
  0
LINE
  5
6BA
330
1F
100
AcDbEntity
  8
2
  6
CONTINUOUS
370
25
 62
7
100
AcDbLine
 10
-5.0
 20
23.66761902332481
 30
0.0
 11
-4.026984147229321
 21
22.69460317055414
 31
0.0
  0
LINE
  5
6BB
330
1F
100
AcDbEntity
  8
2
  6
CONTINUOUS
370
25
 62
7
100
AcDbLine
 10
-5.0
 20
24.09188309203674
 30
0.0
 11
-3.673430756636047
 21
22.76531384867279
 31
0.0
  0
LINE
  5
6BC
330
1F
100
AcDbEntity
  8
2
  6
CONTINUOUS
370
25
 62
7
100
AcDbLine
 10
-4.97981604906416
 20
24.49596320981283
 30
0.0
 11
-3.319877366042772
 21
22.83602452679145
 31
0.0
  0
LINE
  5
6BD
330
1F
100
AcDbEntity
  8
2
  6
CONTINUOUS
370
25
 62
7
100
AcDbLine
 10
-4.449485963174254
 20
24.38989719263485
 30
0.0
 11
-2.966323975449501
 21
22.9067352049101
 31
0.0
  0
LINE
  5
6BE
330
1F
100
AcDbEntity
  8
2
  6
CONTINUOUS
370
25
 62
7
100
AcDbLine
 10
-3.919155877284343
 20
24.28383117545687
 30
0.0
 11
-2.612770584856227
 21
22.97744588302875
 31
0.0
  0
LINE
  5
6BF
330
1F
100
AcDbEntity
  8
2
  6
CONTINUOUS
370
25
 62
7
100
AcDbLine
 10
-3.388825791394433
 20
24.17776515827889
 30
0.0
 11
-2.259217194262954
 21
23.04815656114741
 31
0.0
  0
LINE
  5
6C0
330
1F
100
AcDbEntity
  8
2
  6
CONTINUOUS
370
25
 62
7
100
AcDbLine
 10
-2.858495705504522
 20
24.0716991411009
 30
0.0
 11
-1.90566380366968
 21
23.11886723926606
 31
0.0
  0
LINE
  5
6C1
330
1F
100
AcDbEntity
  8
2
  6
CONTINUOUS
370
25
 62
7
100
AcDbLine
 10
-2.328165619614612
 20
23.96563312392292
 30
0.0
 11
-1.552110413076407
 21
23.18957791738472
 31
0.0
  0
LINE
  5
6C2
330
1F
100
AcDbEntity
  8
2
  6
CONTINUOUS
370
25
 62
7
100
AcDbLine
 10
-1.797835533724701
 20
23.85956710674494
 30
0.0
 11
-1.198557022483133
 21
23.26028859550337
 31
0.0
  0
LINE
  5
6C3
330
1F
100
AcDbEntity
  8
2
  6
CONTINUOUS
370
25
 62
7
100
AcDbLine
 10
-1.26750544783479
 20
23.75350108956696
 30
0.0
 11
-0.8450036318898593
 21
23.33099927362203
 31
0.0
  0
LINE
  5
6C4
330
1F
100
AcDbEntity
  8
2
  6
CONTINUOUS
370
25
 62
7
100
AcDbLine
 10
-0.7371753619448791
 20
23.64743507238898
 30
0.0
 11
-0.4914502412965856
 21
23.40170995174068
 31
0.0
  0
LINE
  5
6C5
330
1F
100
AcDbEntity
  8
2
  6
CONTINUOUS
370
25
 62
7
100
AcDbLine
 10
-0.2068452760549682
 20
23.54136905521099
 30
0.0
 11
-0.137896850703312
 21
23.47242062985934
 31
0.0
  0
LINE
  5
6C6
330
1F
100
AcDbEntity
  8
2
  6
CONTINUOUS
370
25
 62
7
100
AcDbLine
 10
14.6
 20
23.5
 30
0.0
 11
19.6
 21
24.5
 31
0.0
  0
LINE
  5
6C7
330
1F
100
AcDbEntity
  8
2
  6
CONTINUOUS
370
25
 62
7
100
AcDbLine
 10
19.6
 20
24.5
 30
0.0
 11
19.6
 21
22.5
 31
0.0
  0
LINE
  5
6C8
330
1F
100
AcDbEntity
  8
2
  6
CONTINUOUS
370
25
 62
7
100
AcDbLine
 10
19.6
 20
22.5
 30
0.0
 11
14.6
 21
23.5
 31
0.0
  0
LINE
  5
6C9
330
1F
100
AcDbEntity
  8
2
  6
CONTINUOUS
370
25
 62
7
100
AcDbLine
 10
19.54179293251375
 20
22.51164141349725
 30
0.0
 11
19.6
 21
22.5698484809835
 31
0.0
  0
LINE
  5
6CA
330
1F
100
AcDbEntity
  8
2
  6
CONTINUOUS
370
25
 62
7
100
AcDbLine
 10
19.18823954192048
 20
22.58235209161591
 30
0.0
 11
19.6
 21
22.99411254969543
 31
0.0
  0
LINE
  5
6CB
330
1F
100
AcDbEntity
  8
2
  6
CONTINUOUS
370
25
 62
7
100
AcDbLine
 10
18.83468615132721
 20
22.65306276973456
 30
0.0
 11
19.6
 21
23.41837661840735
 31
0.0
  0
LINE
  5
6CC
330
1F
100
AcDbEntity
  8
2
  6
CONTINUOUS
370
25
 62
7
100
AcDbLine
 10
18.48113276073394
 20
22.72377344785322
 30
0.0
 11
19.6
 21
23.84264068711928
 31
0.0
  0
LINE
  5
6CD
330
1F
100
AcDbEntity
  8
2
  6
CONTINUOUS
370
25
 62
7
100
AcDbLine
 10
18.12757937014066
 20
22.79448412597187
 30
0.0
 11
19.6
 21
24.26690475583121
 31
0.0
  0
LINE
  5
6CE
330
1F
100
AcDbEntity
  8
2
  6
CONTINUOUS
370
25
 62
7
100
AcDbLine
 10
17.77402597954739
 20
22.86519480409052
 30
0.0
 11
19.36103896932108
 21
24.45220779386421
 31
0.0
  0
LINE
  5
6CF
330
1F
100
AcDbEntity
  8
2
  6
CONTINUOUS
370
25
 62
7
100
AcDbLine
 10
17.42047258895412
 20
22.93590548220918
 30
0.0
 11
18.83070888343117
 21
24.34614177668623
 31
0.0
  0
LINE
  5
6D0
330
1F
100
AcDbEntity
  8
2
  6
CONTINUOUS
370
25
 62
7
100
AcDbLine
 10
17.06691919836084
 20
23.00661616032783
 30
0.0
 11
18.30037879754126
 21
24.24007575950825
 31
0.0
  0
LINE
  5
6D1
330
1F
100
AcDbEntity
  8
2
  6
CONTINUOUS
370
25
 62
7
100
AcDbLine
 10
16.71336580776757
 20
23.07732683844649
 30
0.0
 11
17.77004871165135
 21
24.13400974233027
 31
0.0
  0
LINE
  5
6D2
330
1F
100
AcDbEntity
  8
2
  6
CONTINUOUS
370
25
 62
7
100
AcDbLine
 10
16.3598124171743
 20
23.14803751656514
 30
0.0
 11
17.23971862576144
 21
24.02794372515228
 31
0.0
  0
LINE
  5
6D3
330
1F
100
AcDbEntity
  8
2
  6
CONTINUOUS
370
25
 62
7
100
AcDbLine
 10
16.00625902658102
 20
23.2187481946838
 30
0.0
 11
16.70938853987153
 21
23.9218777079743
 31
0.0
  0
LINE
  5
6D4
330
1F
100
AcDbEntity
  8
2
  6
CONTINUOUS
370
25
 62
7
100
AcDbLine
 10
15.65270563598775
 20
23.28945887280245
 30
0.0
 11
16.17905845398162
 21
23.81581169079632
 31
0.0
  0
LINE
  5
6D5
330
1F
100
AcDbEntity
  8
2
  6
CONTINUOUS
370
25
 62
7
100
AcDbLine
 10
15.29915224539448
 20
23.36016955092111
 30
0.0
 11
15.64872836809171
 21
23.70974567361834
 31
0.0
  0
LINE
  5
6D6
330
1F
100
AcDbEntity
  8
2
  6
CONTINUOUS
370
25
 62
7
100
AcDbLine
 10
14.9455988548012
 20
23.43088022903976
 30
0.0
 11
15.1183982822018
 21
23.60367965644036
 31
0.0
  0
LINE
  5
6D7
330
1F
100
AcDbEntity
  8
2
  6
CONTINUOUS
370
25
 62
7
100
AcDbLine
 10
14.66980515339463
 20
23.51396103067892
 30
0.0
 11
14.70470773009193
 21
23.47905845398162
 31
0.0
  0
LINE
  5
6D8
330
1F
100
AcDbEntity
  8
2
  6
CONTINUOUS
370
25
 62
7
100
AcDbLine
 10
15.0233585439879
 20
23.58467170879758
 30
0.0
 11
15.23503781598184
 21
23.37299243680364
 31
0.0
  0
LINE
  5
6D9
330
1F
100
AcDbEntity
  8
2
  6
CONTINUOUS
370
25
 62
7
100
AcDbLine
 10
15.37691193458117
 20
23.65538238691623
 30
0.0
 11
15.76536790187176
 21
23.26692641962565
 31
0.0
  0
LINE
  5
6DA
330
1F
100
AcDbEntity
  8
2
  6
CONTINUOUS
370
25
 62
7
100
AcDbLine
 10
15.73046532517445
 20
23.72609306503489
 30
0.0
 11
16.29569798776167
 21
23.16086040244767
 31
0.0
  0
LINE
  5
6DB
330
1F
100
AcDbEntity
  8
2
  6
CONTINUOUS
370
25
 62
7
100
AcDbLine
 10
16.08401871576772
 20
23.79680374315354
 30
0.0
 11
16.82602807365157
 21
23.05479438526969
 31
0.0
  0
LINE
  5
6DC
330
1F
100
AcDbEntity
  8
2
  6
CONTINUOUS
370
25
 62
7
100
AcDbLine
 10
16.43757210636099
 20
23.8675144212722
 30
0.0
 11
17.35635815954149
 21
22.9487283680917
 31
0.0
  0
LINE
  5
6DD
330
1F
100
AcDbEntity
  8
2
  6
CONTINUOUS
370
25
 62
7
100
AcDbLine
 10
16.79112549695427
 20
23.93822509939085
 30
0.0
 11
17.8866882454314
 21
22.84266235091372
 31
0.0
  0
LINE
  5
6DE
330
1F
100
AcDbEntity
  8
2
  6
CONTINUOUS
370
25
 62
7
100
AcDbLine
 10
17.14467888754754
 20
24.0089357775095
 30
0.0
 11
18.41701833132131
 21
22.73659633373574
 31
0.0
  0
LINE
  5
6DF
330
1F
100
AcDbEntity
  8
2
  6
CONTINUOUS
370
25
 62
7
100
AcDbLine
 10
17.49823227814082
 20
24.07964645562816
 30
0.0
 11
18.94734841721122
 21
22.63053031655776
 31
0.0
  0
LINE
  5
6E0
330
1F
100
AcDbEntity
  8
2
  6
CONTINUOUS
370
25
 62
7
100
AcDbLine
 10
17.85178566873409
 20
24.15035713374682
 30
0.0
 11
19.47767850310113
 21
22.52446429937978
 31
0.0
  0
LINE
  5
6E1
330
1F
100
AcDbEntity
  8
2
  6
CONTINUOUS
370
25
 62
7
100
AcDbLine
 10
18.20533905932736
 20
24.22106781186547
 30
0.0
 11
19.6
 21
22.82640687119283
 31
0.0
  0
LINE
  5
6E2
330
1F
100
AcDbEntity
  8
2
  6
CONTINUOUS
370
25
 62
7
100
AcDbLine
 10
18.55889244992063
 20
24.29177848998413
 30
0.0
 11
19.6
 21
23.25067093990476
 31
0.0
  0
LINE
  5
6E3
330
1F
100
AcDbEntity
  8
2
  6
CONTINUOUS
370
25
 62
7
100
AcDbLine
 10
18.91244584051391
 20
24.36248916810278
 30
0.0
 11
19.6
 21
23.67493500861669
 31
0.0
  0
LINE
  5
6E4
330
1F
100
AcDbEntity
  8
2
  6
CONTINUOUS
370
25
 62
7
100
AcDbLine
 10
19.26599923110718
 20
24.43319984622143
 30
0.0
 11
19.6
 21
24.09919907732861
 31
0.0
  0
TEXT
  5
6E5
330
1F
100
AcDbEntity
  8
2
  6
CONTINUOUS
370
25
 62
7
100
AcDbText
 10
2.633333333333335
 20
25.0
 30
0.0
 40
3.5
  1
14.6
 72
     1
 11
7.300000000000002
 21
25.0
 31
0.0
100
AcDbText
  0
LINE
  5
6E6
330
1F
100
AcDbEntity
  8
2
  6
CONTINUOUS
370
25
 62
7
100
AcDbLine
 10
7.8
 20
-0.8
 30
0.0
 11
7.799999999999998
 21
-34.5
 31
0.0
  0
LINE
  5
6E7
330
1F
100
AcDbEntity
  8
2
  6
CONTINUOUS
370
25
 62
7
100
AcDbLine
 10
14.6
 20
-34.5
 30
0.0
 11
14.6
 21
0.0
 31
0.0
  0
LINE
  5
6E8
330
1F
100
AcDbEntity
  8
2
  6
CONTINUOUS
370
25
 62
7
100
AcDbLine
 10
-8.125
 20
-33.5
 30
0.0
 11
21.6
 21
-33.5
 31
0.0
  0
LINE
  5
6E9
330
1F
100
AcDbEntity
  8
2
  6
CONTINUOUS
370
25
 62
7
100
AcDbLine
 10
7.799999999999998
 20
-33.5
 30
0.0
 11
2.799999999999998
 21
-34.5
 31
0.0
  0
LINE
  5
6EA
330
1F
100
AcDbEntity
  8
2
  6
CONTINUOUS
370
25
 62
7
100
AcDbLine
 10
2.799999999999998
 20
-34.5
 30
0.0
 11
2.799999999999998
 21
-32.5
 31
0.0
  0
LINE
  5
6EB
330
1F
100
AcDbEntity
  8
2
  6
CONTINUOUS
370
25
 62
7
100
AcDbLine
 10
2.799999999999998
 20
-32.5
 30
0.0
 11
7.799999999999998
 21
-33.5
 31
0.0
  0
LINE
  5
6EC
330
1F
100
AcDbEntity
  8
2
  6
CONTINUOUS
370
25
 62
7
100
AcDbLine
 10
7.431703971530235
 20
-33.57365920569396
 30
0.0
 11
7.554469314353491
 21
-33.4508938628707
 31
0.0
  0
LINE
  5
6ED
330
1F
100
AcDbEntity
  8
2
  6
CONTINUOUS
370
25
 62
7
100
AcDbLine
 10
6.901373885640318
 20
-33.67972522287194
 30
0.0
 11
7.200915923760213
 21
-33.38018318475204
 31
0.0
  0
LINE
  5
6EE
330
1F
100
AcDbEntity
  8
2
  6
CONTINUOUS
370
25
 62
7
100
AcDbLine
 10
6.371043799750411
 20
-33.78579124004992
 30
0.0
 11
6.847362533166943
 21
-33.30947250663339
 31
0.0
  0
LINE
  5
6EF
330
1F
100
AcDbEntity
  8
2
  6
CONTINUOUS
370
25
 62
7
100
AcDbLine
 10
5.840713713860492
 20
-33.8918572572279
 30
0.0
 11
6.493809142573665
 21
-33.23876182851473
 31
0.0
  0
LINE
  5
6F0
330
1F
100
AcDbEntity
  8
2
  6
CONTINUOUS
370
25
 62
7
100
AcDbLine
 10
5.310383627970583
 20
-33.99792327440588
 30
0.0
 11
6.140255751980392
 21
-33.16805115039608
 31
0.0
  0
LINE
  5
6F1
330
1F
100
AcDbEntity
  8
2
  6
CONTINUOUS
370
25
 62
7
100
AcDbLine
 10
4.780053542080664
 20
-34.10398929158387
 30
0.0
 11
5.786702361387113
 21
-33.09734047227742
 31
0.0
  0
LINE
  5
6F2
330
1F
100
AcDbEntity
  8
2
  6
CONTINUOUS
370
25
 62
7
100
AcDbLine
 10
4.249723456190753
 20
-34.21005530876185
 30
0.0
 11
5.433148970793841
 21
-33.02662979415877
 31
0.0
  0
LINE
  5
6F3
330
1F
100
AcDbEntity
  8
2
  6
CONTINUOUS
370
25
 62
7
100
AcDbLine
 10
3.719393370300833
 20
-34.31612132593983
 30
0.0
 11
5.079595580200563
 21
-32.95591911604011
 31
0.0
  0
LINE
  5
6F4
330
1F
100
AcDbEntity
  8
2
  6
CONTINUOUS
370
25
 62
7
100
AcDbLine
 10
3.189063284410921
 20
-34.42218734311782
 30
0.0
 11
4.72604218960729
 21
-32.88520843792146
 31
0.0
  0
LINE
  5
6F5
330
1F
100
AcDbEntity
  8
2
  6
CONTINUOUS
370
25
 62
7
100
AcDbLine
 10
2.799999999999998
 20
-34.38698655881682
 30
0.0
 11
4.372488799014016
 21
-32.8144977598028
 31
0.0
  0
LINE
  5
6F6
330
1F
100
AcDbEntity
  8
2
  6
CONTINUOUS
370
25
 62
7
100
AcDbLine
 10
2.799999999999998
 20
-33.96272249010488
 30
0.0
 11
4.018935408420736
 21
-32.74378708168415
 31
0.0
  0
LINE
  5
6F7
330
1F
100
AcDbEntity
  8
2
  6
CONTINUOUS
370
25
 62
7
100
AcDbLine
 10
2.799999999999998
 20
-33.53845842139295
 30
0.0
 11
3.665382017827463
 21
-32.6730764035655
 31
0.0
  0
LINE
  5
6F8
330
1F
100
AcDbEntity
  8
2
  6
CONTINUOUS
370
25
 62
7
100
AcDbLine
 10
2.799999999999998
 20
-33.11419435268103
 30
0.0
 11
3.311828627234189
 21
-32.60236572544684
 31
0.0
  0
LINE
  5
6F9
330
1F
100
AcDbEntity
  8
2
  6
CONTINUOUS
370
25
 62
7
100
AcDbLine
 10
2.799999999999998
 20
-32.68993028396909
 30
0.0
 11
2.958275236640908
 21
-32.53165504732819
 31
0.0
  0
LINE
  5
6FA
330
1F
100
AcDbEntity
  8
2
  6
CONTINUOUS
370
25
 62
7
100
AcDbLine
 10
2.799999999999998
 20
-34.48475710115823
 30
0.0
 11
2.812702415701476
 21
-34.49745951685971
 31
0.0
  0
LINE
  5
6FB
330
1F
100
AcDbEntity
  8
2
  6
CONTINUOUS
370
25
 62
7
100
AcDbLine
 10
2.799999999999998
 20
-34.0604930324463
 30
0.0
 11
3.16625580629475
 21
-34.42674883874105
 31
0.0
  0
LINE
  5
6FC
330
1F
100
AcDbEntity
  8
2
  6
CONTINUOUS
370
25
 62
7
100
AcDbLine
 10
2.799999999999998
 20
-33.63622896373437
 30
0.0
 11
3.519809196888025
 21
-34.3560381606224
 31
0.0
  0
LINE
  5
6FD
330
1F
100
AcDbEntity
  8
2
  6
CONTINUOUS
370
25
 62
7
100
AcDbLine
 10
2.799999999999998
 20
-33.21196489502245
 30
0.0
 11
3.8733625874813
 21
-34.28532748250375
 31
0.0
  0
LINE
  5
6FE
330
1F
100
AcDbEntity
  8
2
  6
CONTINUOUS
370
25
 62
7
100
AcDbLine
 10
2.799999999999998
 20
-32.78770082631051
 30
0.0
 11
4.226915978074575
 21
-34.21461680438509
 31
0.0
  0
LINE
  5
6FF
330
1F
100
AcDbEntity
  8
2
  6
CONTINUOUS
370
25
 62
7
100
AcDbLine
 10
2.970704053001767
 20
-32.53414081060036
 30
0.0
 11
4.58046936866785
 21
-34.14390612626643
 31
0.0
  0
LINE
  5
700
330
1F
100
AcDbEntity
  8
2
  6
CONTINUOUS
370
25
 62
7
100
AcDbLine
 10
3.501034138891681
 20
-32.64020682777834
 30
0.0
 11
4.934022759261127
 21
-34.07319544814778
 31
0.0
  0
LINE
  5
701
330
1F
100
AcDbEntity
  8
2
  6
CONTINUOUS
370
25
 62
7
100
AcDbLine
 10
4.031364224781595
 20
-32.74627284495632
 30
0.0
 11
5.287576149854402
 21
-34.00248477002912
 31
0.0
  0
LINE
  5
702
330
1F
100
AcDbEntity
  8
2
  6
CONTINUOUS
370
25
 62
7
100
AcDbLine
 10
4.561694310671506
 20
-32.8523388621343
 30
0.0
 11
5.641129540447675
 21
-33.93177409191047
 31
0.0
  0
LINE
  5
703
330
1F
100
AcDbEntity
  8
2
  6
CONTINUOUS
370
25
 62
7
100
AcDbLine
 10
5.09202439656142
 20
-32.95840487931228
 30
0.0
 11
5.99468293104095
 21
-33.86106341379181
 31
0.0
  0
LINE
  5
704
330
1F
100
AcDbEntity
  8
2
  6
CONTINUOUS
370
25
 62
7
100
AcDbLine
 10
5.622354482451336
 20
-33.06447089649027
 30
0.0
 11
6.348236321634228
 21
-33.79035273567315
 31
0.0
  0
LINE
  5
705
330
1F
100
AcDbEntity
  8
2
  6
CONTINUOUS
370
25
 62
7
100
AcDbLine
 10
6.152684568341247
 20
-33.17053691366825
 30
0.0
 11
6.701789712227502
 21
-33.7196420575545
 31
0.0
  0
LINE
  5
706
330
1F
100
AcDbEntity
  8
2
  6
CONTINUOUS
370
25
 62
7
100
AcDbLine
 10
6.683014654231163
 20
-33.27660293084624
 30
0.0
 11
7.055343102820777
 21
-33.64893137943584
 31
0.0
  0
LINE
  5
707
330
1F
100
AcDbEntity
  8
2
  6
CONTINUOUS
370
25
 62
7
100
AcDbLine
 10
7.213344740121077
 20
-33.38266894802422
 30
0.0
 11
7.408896493414052
 21
-33.57822070131719
 31
0.0
  0
LINE
  5
708
330
1F
100
AcDbEntity
  8
2
  6
CONTINUOUS
370
25
 62
7
100
AcDbLine
 10
7.743674826010993
 20
-33.4887349652022
 30
0.0
 11
7.76244988400733
 21
-33.50751002319853
 31
0.0
  0
LINE
  5
709
330
1F
100
AcDbEntity
  8
2
  6
CONTINUOUS
370
25
 62
7
100
AcDbLine
 10
14.6
 20
-33.5
 30
0.0
 11
19.6
 21
-32.5
 31
0.0
  0
LINE
  5
70A
330
1F
100
AcDbEntity
  8
2
  6
CONTINUOUS
370
25
 62
7
100
AcDbLine
 10
19.6
 20
-32.5
 30
0.0
 11
19.6
 21
-34.5
 31
0.0
  0
LINE
  5
70B
330
1F
100
AcDbEntity
  8
2
  6
CONTINUOUS
370
25
 62
7
100
AcDbLine
 10
19.6
 20
-34.5
 30
0.0
 11
14.6
 21
-33.5
 31
0.0
  0
LINE
  5
70C
330
1F
100
AcDbEntity
  8
2
  6
CONTINUOUS
370
25
 62
7
100
AcDbLine
 10
19.51563454952164
 20
-34.48312690990433
 30
0.0
 11
19.6
 21
-34.39876145942596
 31
0.0
  0
LINE
  5
70D
330
1F
100
AcDbEntity
  8
2
  6
CONTINUOUS
370
25
 62
7
100
AcDbLine
 10
19.16208115892837
 20
-34.41241623178567
 30
0.0
 11
19.6
 21
-33.97449739071403
 31
0.0
  0
LINE
  5
70E
330
1F
100
AcDbEntity
  8
2
  6
CONTINUOUS
370
25
 62
7
100
AcDbLine
 10
18.80852776833509
 20
-34.34170555366701
 30
0.0
 11
19.6
 21
-33.55023332200211
 31
0.0
  0
LINE
  5
70F
330
1F
100
AcDbEntity
  8
2
  6
CONTINUOUS
370
25
 62
7
100
AcDbLine
 10
18.45497437774182
 20
-34.27099487554836
 30
0.0
 11
19.6
 21
-33.12596925329018
 31
0.0
  0
LINE
  5
710
330
1F
100
AcDbEntity
  8
2
  6
CONTINUOUS
370
25
 62
7
100
AcDbLine
 10
18.10142098714854
 20
-34.20028419742971
 30
0.0
 11
19.6
 21
-32.70170518457826
 31
0.0
  0
LINE
  5
711
330
1F
100
AcDbEntity
  8
2
  6
CONTINUOUS
370
25
 62
7
100
AcDbLine
 10
17.74786759655527
 20
-34.12957351931105
 30
0.0
 11
19.3218013948329
 21
-32.55563972103342
 31
0.0
  0
LINE
  5
712
330
1F
100
AcDbEntity
  8
2
  6
CONTINUOUS
370
25
 62
7
100
AcDbLine
 10
17.39431420596199
 20
-34.05886284119239
 30
0.0
 11
18.791471308943
 21
-32.6617057382114
 31
0.0
  0
LINE
  5
713
330
1F
100
AcDbEntity
  8
2
  6
CONTINUOUS
370
25
 62
7
100
AcDbLine
 10
17.04076081536872
 20
-33.98815216307374
 30
0.0
 11
18.26114122305308
 21
-32.76777175538939
 31
0.0
  0
LINE
  5
714
330
1F
100
AcDbEntity
  8
2
  6
CONTINUOUS
370
25
 62
7
100
AcDbLine
 10
16.68720742477544
 20
-33.91744148495509
 30
0.0
 11
17.73081113716317
 21
-32.87383777256737
 31
0.0
  0
LINE
  5
715
330
1F
100
AcDbEntity
  8
2
  6
CONTINUOUS
370
25
 62
7
100
AcDbLine
 10
16.33365403418217
 20
-33.84673080683643
 30
0.0
 11
17.20048105127325
 21
-32.97990378974535
 31
0.0
  0
LINE
  5
716
330
1F
100
AcDbEntity
  8
2
  6
CONTINUOUS
370
25
 62
7
100
AcDbLine
 10
15.98010064358889
 20
-33.77602012871778
 30
0.0
 11
16.67015096538334
 21
-33.08596980692333
 31
0.0
  0
LINE
  5
717
330
1F
100
AcDbEntity
  8
2
  6
CONTINUOUS
370
25
 62
7
100
AcDbLine
 10
15.62654725299562
 20
-33.70530945059912
 30
0.0
 11
16.13982087949342
 21
-33.19203582410132
 31
0.0
  0
LINE
  5
718
330
1F
100
AcDbEntity
  8
2
  6
CONTINUOUS
370
25
 62
7
100
AcDbLine
 10
15.27299386240234
 20
-33.63459877248047
 30
0.0
 11
15.60949079360351
 21
-33.2981018412793
 31
0.0
  0
LINE
  5
719
330
1F
100
AcDbEntity
  8
2
  6
CONTINUOUS
370
25
 62
7
100
AcDbLine
 10
14.91944047180906
 20
-33.56388809436181
 30
0.0
 11
15.0791607077136
 21
-33.40416785845728
 31
0.0
  0
LINE
  5
71A
330
1F
100
AcDbEntity
  8
2
  6
CONTINUOUS
370
25
 62
7
100
AcDbLine
 10
14.77386765086962
 20
-33.46522646982608
 30
0.0
 11
14.86080147630442
 21
-33.55216029526088
 31
0.0
  0
LINE
  5
71B
330
1F
100
AcDbEntity
  8
2
  6
CONTINUOUS
370
25
 62
7
100
AcDbLine
 10
15.12742104146289
 20
-33.39451579170742
 30
0.0
 11
15.39113156219433
 21
-33.65822631243886
 31
0.0
  0
LINE
  5
71C
330
1F
100
AcDbEntity
  8
2
  6
CONTINUOUS
370
25
 62
7
100
AcDbLine
 10
15.48097443205616
 20
-33.32380511358877
 30
0.0
 11
15.92146164808425
 21
-33.76429232961685
 31
0.0
  0
LINE
  5
71D
330
1F
100
AcDbEntity
  8
2
  6
CONTINUOUS
370
25
 62
7
100
AcDbLine
 10
15.83452782264944
 20
-33.25309443547012
 30
0.0
 11
16.45179173397416
 21
-33.87035834679483
 31
0.0
  0
LINE
  5
71E
330
1F
100
AcDbEntity
  8
2
  6
CONTINUOUS
370
25
 62
7
100
AcDbLine
 10
16.18808121324271
 20
-33.18238375735146
 30
0.0
 11
16.98212181986407
 21
-33.97642436397281
 31
0.0
  0
LINE
  5
71F
330
1F
100
AcDbEntity
  8
2
  6
CONTINUOUS
370
25
 62
7
100
AcDbLine
 10
16.54163460383599
 20
-33.1116730792328
 30
0.0
 11
17.51245190575398
 21
-34.08249038115079
 31
0.0
  0
LINE
  5
720
330
1F
100
AcDbEntity
  8
2
  6
CONTINUOUS
370
25
 62
7
100
AcDbLine
 10
16.89518799442926
 20
-33.04096240111414
 30
0.0
 11
18.0427819916439
 21
-34.18855639832878
 31
0.0
  0
LINE
  5
721
330
1F
100
AcDbEntity
  8
2
  6
CONTINUOUS
370
25
 62
7
100
AcDbLine
 10
17.24874138502254
 20
-32.9702517229955
 30
0.0
 11
18.57311207753381
 21
-34.29462241550677
 31
0.0
  0
LINE
  5
722
330
1F
100
AcDbEntity
  8
2
  6
CONTINUOUS
370
25
 62
7
100
AcDbLine
 10
17.60229477561581
 20
-32.89954104487684
 30
0.0
 11
19.10344216342373
 21
-34.40068843268475
 31
0.0
  0
LINE
  5
723
330
1F
100
AcDbEntity
  8
2
  6
CONTINUOUS
370
25
 62
7
100
AcDbLine
 10
17.95584816620909
 20
-32.82883036675818
 30
0.0
 11
19.6
 21
-34.47298220054908
 31
0.0
  0
LINE
  5
724
330
1F
100
AcDbEntity
  8
2
  6
CONTINUOUS
370
25
 62
7
100
AcDbLine
 10
18.30940155680237
 20
-32.75811968863953
 30
0.0
 11
19.6
 21
-34.04871813183715
 31
0.0
  0
LINE
  5
725
330
1F
100
AcDbEntity
  8
2
  6
CONTINUOUS
370
25
 62
7
100
AcDbLine
 10
18.66295494739564
 20
-32.68740901052088
 30
0.0
 11
19.6
 21
-33.62445406312523
 31
0.0
  0
LINE
  5
726
330
1F
100
AcDbEntity
  8
2
  6
CONTINUOUS
370
25
 62
7
100
AcDbLine
 10
19.01650833798892
 20
-32.61669833240222
 30
0.0
 11
19.6
 21
-33.20018999441329
 31
0.0
  0
LINE
  5
727
330
1F
100
AcDbEntity
  8
2
  6
CONTINUOUS
370
25
 62
7
100
AcDbLine
 10
19.37006172858219
 20
-32.54598765428356
 30
0.0
 11
19.6
 21
-32.77592592570137
 31
0.0
  0
TEXT
  5
728
330
1F
100
AcDbEntity
  8
2
  6
CONTINUOUS
370
25
 62
7
100
AcDbText
 10
-6.162500000000001
 20
-32.0
 30
0.0
 40
3.5
  1
6.8
 72
     1
 11
-2.662500000000001
 21
-32.0
 31
0.0
100
AcDbText
  0
LINE
  5
729
330
1F
100
AcDbEntity
  8
SK2
  6
CONTINUOUS
370
25
 62
7
100
AcDbLine
 10
-25.4
 20
3.0
 30
0.0
 11
-25.4
 21
34.5
 31
0.0
  0
LINE
  5
72A
330
1F
100
AcDbEntity
  8
SK2
  6
CONTINUOUS
370
25
 62
7
100
AcDbLine
 10
14.6
 20
34.5
 30
0.0
 11
14.6
 21
0.0
 31
0.0
  0
LINE
  5
72B
330
1F
100
AcDbEntity
  8
SK2
  6
CONTINUOUS
370
25
 62
7
100
AcDbLine
 10
-25.4
 20
33.5
 30
0.0
 11
14.6
 21
33.5
 31
0.0
  0
LINE
  5
72C
330
1F
100
AcDbEntity
  8
SK2
  6
CONTINUOUS
370
25
 62
7
100
AcDbLine
 10
-25.4
 20
33.5
 30
0.0
 11
-20.4
 21
34.5
 31
0.0
  0
LINE
  5
72D
330
1F
100
AcDbEntity
  8
SK2
  6
CONTINUOUS
370
25
 62
7
100
AcDbLine
 10
-20.4
 20
34.5
 30
0.0
 11
-20.4
 21
32.5
 31
0.0
  0
LINE
  5
72E
330
1F
100
AcDbEntity
  8
SK2
  6
CONTINUOUS
370
25
 62
7
100
AcDbLine
 10
-20.4
 20
32.5
 30
0.0
 11
-25.4
 21
33.5
 31
0.0
  0
LINE
  5
72F
330
1F
100
AcDbEntity
  8
SK2
  6
CONTINUOUS
370
25
 62
7
100
AcDbLine
 10
-20.51084049082589
 20
32.52216809816518
 30
0.0
 11
-20.4
 21
32.63300858899107
 31
0.0
  0
LINE
  5
730
330
1F
100
AcDbEntity
  8
SK2
  6
CONTINUOUS
370
25
 62
7
100
AcDbLine
 10
-20.86439388141916
 20
32.59287877628383
 30
0.0
 11
-20.4
 21
33.057272657703
 31
0.0
  0
LINE
  5
731
330
1F
100
AcDbEntity
  8
SK2
  6
CONTINUOUS
370
25
 62
7
100
AcDbLine
 10
-21.21794727201243
 20
32.66358945440249
 30
0.0
 11
-20.4
 21
33.48153672641493
 31
0.0
  0
LINE
  5
732
330
1F
100
AcDbEntity
  8
SK2
  6
CONTINUOUS
370
25
 62
7
100
AcDbLine
 10
-21.57150066260571
 20
32.73430013252114
 30
0.0
 11
-20.4
 21
33.90580079512686
 31
0.0
  0
LINE
  5
733
330
1F
100
AcDbEntity
  8
SK2
  6
CONTINUOUS
370
25
 62
7
100
AcDbLine
 10
-21.92505405319899
 20
32.8050108106398
 30
0.0
 11
-20.4
 21
34.33006486383879
 31
0.0
  0
LINE
  5
734
330
1F
100
AcDbEntity
  8
SK2
  6
CONTINUOUS
370
25
 62
7
100
AcDbLine
 10
-22.27860744379226
 20
32.87572148875845
 30
0.0
 11
-20.71791116568839
 21
34.43641776686232
 31
0.0
  0
LINE
  5
735
330
1F
100
AcDbEntity
  8
SK2
  6
CONTINUOUS
370
25
 62
7
100
AcDbLine
 10
-22.63216083438554
 20
32.94643216687711
 30
0.0
 11
-21.24824125157831
 21
34.33035174968434
 31
0.0
  0
LINE
  5
736
330
1F
100
AcDbEntity
  8
SK2
  6
CONTINUOUS
370
25
 62
7
100
AcDbLine
 10
-22.98571422497881
 20
33.01714284499576
 30
0.0
 11
-21.77857133746822
 21
34.22428573250636
 31
0.0
  0
LINE
  5
737
330
1F
100
AcDbEntity
  8
SK2
  6
CONTINUOUS
370
25
 62
7
100
AcDbLine
 10
-23.33926761557208
 20
33.08785352311442
 30
0.0
 11
-22.30890142335813
 21
34.11821971532837
 31
0.0
  0
LINE
  5
738
330
1F
100
AcDbEntity
  8
SK2
  6
CONTINUOUS
370
25
 62
7
100
AcDbLine
 10
-23.69282100616536
 20
33.15856420123308
 30
0.0
 11
-22.83923150924804
 21
34.01215369815039
 31
0.0
  0
LINE
  5
739
330
1F
100
AcDbEntity
  8
SK2
  6
CONTINUOUS
370
25
 62
7
100
AcDbLine
 10
-24.04637439675863
 20
33.22927487935172
 30
0.0
 11
-23.36956159513795
 21
33.9060876809724
 31
0.0
  0
LINE
  5
73A
330
1F
100
AcDbEntity
  8
SK2
  6
CONTINUOUS
370
25
 62
7
100
AcDbLine
 10
-24.3999277873519
 20
33.29998555747038
 30
0.0
 11
-23.89989168102786
 21
33.80002166379442
 31
0.0
  0
LINE
  5
73B
330
1F
100
AcDbEntity
  8
SK2
  6
CONTINUOUS
370
25
 62
7
100
AcDbLine
 10
-24.75348117794518
 20
33.37069623558904
 30
0.0
 11
-24.43022176691777
 21
33.69395564661644
 31
0.0
  0
LINE
  5
73C
330
1F
100
AcDbEntity
  8
SK2
  6
CONTINUOUS
370
25
 62
7
100
AcDbLine
 10
-25.10703456853845
 20
33.4414069137077
 30
0.0
 11
-24.96055185280768
 21
33.58788962943846
 31
0.0
  0
LINE
  5
73D
330
1F
100
AcDbEntity
  8
SK2
  6
CONTINUOUS
370
25
 62
7
100
AcDbLine
 10
-25.07893218813463
 20
33.56421356237307
 30
0.0
 11
-24.91839828220195
 21
33.40367965644039
 31
0.0
  0
LINE
  5
73E
330
1F
100
AcDbEntity
  8
SK2
  6
CONTINUOUS
370
25
 62
7
100
AcDbLine
 10
-24.72537879754136
 20
33.63492424049173
 30
0.0
 11
-24.38806819631204
 21
33.29761363926241
 31
0.0
  0
LINE
  5
73F
330
1F
100
AcDbEntity
  8
SK2
  6
CONTINUOUS
370
25
 62
7
100
AcDbLine
 10
-24.37182540694808
 20
33.70563491861039
 30
0.0
 11
-23.85773811042213
 21
33.19154762208443
 31
0.0
  0
LINE
  5
740
330
1F
100
AcDbEntity
  8
SK2
  6
CONTINUOUS
370
25
 62
7
100
AcDbLine
 10
-24.01827201635481
 20
33.77634559672904
 30
0.0
 11
-23.32740802453222
 21
33.08548160490645
 31
0.0
  0
LINE
  5
741
330
1F
100
AcDbEntity
  8
SK2
  6
CONTINUOUS
370
25
 62
7
100
AcDbLine
 10
-23.66471862576153
 20
33.84705627484769
 30
0.0
 11
-22.79707793864231
 21
32.97941558772846
 31
0.0
  0
LINE
  5
742
330
1F
100
AcDbEntity
  8
SK2
  6
CONTINUOUS
370
25
 62
7
100
AcDbLine
 10
-23.31116523516826
 20
33.91776695296635
 30
0.0
 11
-22.2667478527524
 21
32.87334957055048
 31
0.0
  0
LINE
  5
743
330
1F
100
AcDbEntity
  8
SK2
  6
CONTINUOUS
370
25
 62
7
100
AcDbLine
 10
-22.95761184457499
 20
33.988477631085
 30
0.0
 11
-21.73641776686249
 21
32.76728355337249
 31
0.0
  0
LINE
  5
744
330
1F
100
AcDbEntity
  8
SK2
  6
CONTINUOUS
370
25
 62
7
100
AcDbLine
 10
-22.60405845398171
 20
34.05918830920366
 30
0.0
 11
-21.20608768097258
 21
32.66121753619451
 31
0.0
  0
LINE
  5
745
330
1F
100
AcDbEntity
  8
SK2
  6
CONTINUOUS
370
25
 62
7
100
AcDbLine
 10
-22.25050506338844
 20
34.12989898732231
 30
0.0
 11
-20.67575759508267
 21
32.55515151901653
 31
0.0
  0
LINE
  5
746
330
1F
100
AcDbEntity
  8
SK2
  6
CONTINUOUS
370
25
 62
7
100
AcDbLine
 10
-21.89695167279516
 20
34.20060966544096
 30
0.0
 11
-20.4
 21
32.70365799264579
 31
0.0
  0
LINE
  5
747
330
1F
100
AcDbEntity
  8
SK2
  6
CONTINUOUS
370
25
 62
7
100
AcDbLine
 10
-21.54339828220189
 20
34.27132034355962
 30
0.0
 11
-20.4
 21
33.12792206135772
 31
0.0
  0
LINE
  5
748
330
1F
100
AcDbEntity
  8
SK2
  6
CONTINUOUS
370
25
 62
7
100
AcDbLine
 10
-21.18984489160862
 20
34.34203102167827
 30
0.0
 11
-20.4
 21
33.55218613006964
 31
0.0
  0
LINE
  5
749
330
1F
100
AcDbEntity
  8
SK2
  6
CONTINUOUS
370
25
 62
7
100
AcDbLine
 10
-20.83629150101534
 20
34.41274169979692
 30
0.0
 11
-20.4
 21
33.97645019878158
 31
0.0
  0
LINE
  5
74A
330
1F
100
AcDbEntity
  8
SK2
  6
CONTINUOUS
370
25
 62
7
100
AcDbLine
 10
-20.48273811042207
 20
34.48345237791558
 30
0.0
 11
-20.4
 21
34.40071426749351
 31
0.0
  0
LINE
  5
74B
330
1F
100
AcDbEntity
  8
SK2
  6
CONTINUOUS
370
25
 62
7
100
AcDbLine
 10
14.6
 20
33.5
 30
0.0
 11
9.600000000000005
 21
32.5
 31
0.0
  0
LINE
  5
74C
330
1F
100
AcDbEntity
  8
SK2
  6
CONTINUOUS
370
25
 62
7
100
AcDbLine
 10
9.600000000000005
 20
32.5
 30
0.0
 11
9.600000000000005
 21
34.5
 31
0.0
  0
LINE
  5
74D
330
1F
100
AcDbEntity
  8
SK2
  6
CONTINUOUS
370
25
 62
7
100
AcDbLine
 10
9.600000000000005
 20
34.5
 30
0.0
 11
14.6
 21
33.5
 31
0.0
  0
LINE
  5
74E
330
1F
100
AcDbEntity
  8
SK2
  6
CONTINUOUS
370
25
 62
7
100
AcDbLine
 10
14.36014613495408
 20
33.45202922699082
 30
0.0
 11
14.44009742330273
 21
33.53198051533946
 31
0.0
  0
LINE
  5
74F
330
1F
100
AcDbEntity
  8
SK2
  6
CONTINUOUS
370
25
 62
7
100
AcDbLine
 10
13.82981604906417
 20
33.34596320981283
 30
0.0
 11
14.08654403270945
 21
33.60269119345811
 31
0.0
  0
LINE
  5
750
330
1F
100
AcDbEntity
  8
SK2
  6
CONTINUOUS
370
25
 62
7
100
AcDbLine
 10
13.29948596317426
 20
33.23989719263485
 30
0.0
 11
13.73299064211618
 21
33.67340187157677
 31
0.0
  0
LINE
  5
751
330
1F
100
AcDbEntity
  8
SK2
  6
CONTINUOUS
370
25
 62
7
100
AcDbLine
 10
12.76915587728435
 20
33.13383117545687
 30
0.0
 11
13.3794372515229
 21
33.74411254969542
 31
0.0
  0
LINE
  5
752
330
1F
100
AcDbEntity
  8
SK2
  6
CONTINUOUS
370
25
 62
7
100
AcDbLine
 10
12.23882579139444
 20
33.02776515827888
 30
0.0
 11
13.02588386092963
 21
33.81482322781407
 31
0.0
  0
LINE
  5
753
330
1F
100
AcDbEntity
  8
SK2
  6
CONTINUOUS
370
25
 62
7
100
AcDbLine
 10
11.70849570550453
 20
32.9216991411009
 30
0.0
 11
12.67233047033635
 21
33.88553390593273
 31
0.0
  0
LINE
  5
754
330
1F
100
AcDbEntity
  8
SK2
  6
CONTINUOUS
370
25
 62
7
100
AcDbLine
 10
11.17816561961462
 20
32.81563312392292
 30
0.0
 11
12.31877707974308
 21
33.95624458405139
 31
0.0
  0
LINE
  5
755
330
1F
100
AcDbEntity
  8
SK2
  6
CONTINUOUS
370
25
 62
7
100
AcDbLine
 10
10.64783553372471
 20
32.70956710674494
 30
0.0
 11
11.9652236891498
 21
34.02695526217004
 31
0.0
  0
LINE
  5
756
330
1F
100
AcDbEntity
  8
SK2
  6
CONTINUOUS
370
25
 62
7
100
AcDbLine
 10
10.1175054478348
 20
32.60350108956696
 30
0.0
 11
11.61167029855653
 21
34.09766594028869
 31
0.0
  0
LINE
  5
757
330
1F
100
AcDbEntity
  8
SK2
  6
CONTINUOUS
370
25
 62
7
100
AcDbLine
 10
9.600000000000005
 20
32.51025971044409
 30
0.0
 11
11.25811690796326
 21
34.16837661840735
 31
0.0
  0
LINE
  5
758
330
1F
100
AcDbEntity
  8
SK2
  6
CONTINUOUS
370
25
 62
7
100
AcDbLine
 10
9.600000000000005
 20
32.93452377915602
 30
0.0
 11
10.90456351736998
 21
34.23908729652601
 31
0.0
  0
LINE
  5
759
330
1F
100
AcDbEntity
  8
SK2
  6
CONTINUOUS
370
25
 62
7
100
AcDbLine
 10
9.600000000000005
 20
33.35878784786795
 30
0.0
 11
10.55101012677671
 21
34.30979797464466
 31
0.0
  0
LINE
  5
75A
330
1F
100
AcDbEntity
  8
SK2
  6
CONTINUOUS
370
25
 62
7
100
AcDbLine
 10
9.600000000000005
 20
33.78305191657988
 30
0.0
 11
10.19745673618343
 21
34.38050865276331
 31
0.0
  0
LINE
  5
75B
330
1F
100
AcDbEntity
  8
SK2
  6
CONTINUOUS
370
25
 62
7
100
AcDbLine
 10
9.600000000000005
 20
34.20731598529181
 30
0.0
 11
9.84390334559016
 21
34.45121933088197
 31
0.0
  0
LINE
  5
75C
330
1F
100
AcDbEntity
  8
SK2
  6
CONTINUOUS
370
25
 62
7
100
AcDbLine
 10
9.600000000000005
 20
32.82640687119283
 30
0.0
 11
9.87200572599403
 21
32.5544011451988
 31
0.0
  0
LINE
  5
75D
330
1F
100
AcDbEntity
  8
SK2
  6
CONTINUOUS
370
25
 62
7
100
AcDbLine
 10
9.600000000000005
 20
33.25067093990475
 30
0.0
 11
10.2255591165873
 21
32.62511182331745
 31
0.0
  0
LINE
  5
75E
330
1F
100
AcDbEntity
  8
SK2
  6
CONTINUOUS
370
25
 62
7
100
AcDbLine
 10
9.600000000000005
 20
33.67493500861669
 30
0.0
 11
10.57911250718058
 21
32.69582250143611
 31
0.0
  0
LINE
  5
75F
330
1F
100
AcDbEntity
  8
SK2
  6
CONTINUOUS
370
25
 62
7
100
AcDbLine
 10
9.600000000000005
 20
34.09919907732862
 30
0.0
 11
10.93266589777385
 21
32.76653317955477
 31
0.0
  0
LINE
  5
760
330
1F
100
AcDbEntity
  8
SK2
  6
CONTINUOUS
370
25
 62
7
100
AcDbLine
 10
9.629328932550687
 20
34.49413421348986
 30
0.0
 11
11.28621928836712
 21
32.83724385767342
 31
0.0
  0
LINE
  5
761
330
1F
100
AcDbEntity
  8
SK2
  6
CONTINUOUS
370
25
 62
7
100
AcDbLine
 10
10.1596590184406
 20
34.38806819631188
 30
0.0
 11
11.6397726789604
 21
32.90795453579208
 31
0.0
  0
LINE
  5
762
330
1F
100
AcDbEntity
  8
SK2
  6
CONTINUOUS
370
25
 62
7
100
AcDbLine
 10
10.68998910433051
 20
34.2820021791339
 30
0.0
 11
11.99332606955368
 21
32.97866521391073
 31
0.0
  0
LINE
  5
763
330
1F
100
AcDbEntity
  8
SK2
  6
CONTINUOUS
370
25
 62
7
100
AcDbLine
 10
11.22031919022042
 20
34.17593616195592
 30
0.0
 11
12.34687946014695
 21
33.04937589202939
 31
0.0
  0
LINE
  5
764
330
1F
100
AcDbEntity
  8
SK2
  6
CONTINUOUS
370
25
 62
7
100
AcDbLine
 10
11.75064927611033
 20
34.06987014477794
 30
0.0
 11
12.70043285074022
 21
33.12008657014805
 31
0.0
  0
LINE
  5
765
330
1F
100
AcDbEntity
  8
SK2
  6
CONTINUOUS
370
25
 62
7
100
AcDbLine
 10
12.28097936200025
 20
33.96380412759996
 30
0.0
 11
13.0539862413335
 21
33.1907972482667
 31
0.0
  0
LINE
  5
766
330
1F
100
AcDbEntity
  8
SK2
  6
CONTINUOUS
370
25
 62
7
100
AcDbLine
 10
12.81130944789015
 20
33.85773811042197
 30
0.0
 11
13.40753963192677
 21
33.26150792638535
 31
0.0
  0
LINE
  5
767
330
1F
100
AcDbEntity
  8
SK2
  6
CONTINUOUS
370
25
 62
7
100
AcDbLine
 10
13.34163953378007
 20
33.75167209324399
 30
0.0
 11
13.76109302252005
 21
33.33221860450401
 31
0.0
  0
LINE
  5
768
330
1F
100
AcDbEntity
  8
SK2
  6
CONTINUOUS
370
25
 62
7
100
AcDbLine
 10
13.87196961966997
 20
33.64560607606601
 30
0.0
 11
14.11464641311332
 21
33.40292928262266
 31
0.0
  0
LINE
  5
769
330
1F
100
AcDbEntity
  8
SK2
  6
CONTINUOUS
370
25
 62
7
100
AcDbLine
 10
14.40229970555989
 20
33.53954005888802
 30
0.0
 11
14.46819980370659
 21
33.47363996074132
 31
0.0
  0
TEXT
  5
76A
330
1F
100
AcDbEntity
  8
SK2
  6
CONTINUOUS
370
25
 62
7
100
AcDbText
 10
-8.024999999999995
 20
35.0
 30
0.0
 40
3.5
  1
40
 72
     1
 11
-5.399999999999995
 21
35.0
 31
0.0
100
AcDbText
  0
LINE
  5
76B
330
1F
100
AcDbEntity
  8
2
  6
CONTINUOUS
370
25
 62
7
100
AcDbLine
 10
2.6
 20
-0.8
 30
0.0
 11
2.599999999999997
 21
-44.5
 31
0.0
  0
LINE
  5
76C
330
1F
100
AcDbEntity
  8
2
  6
CONTINUOUS
370
25
 62
7
100
AcDbLine
 10
14.6
 20
-44.5
 30
0.0
 11
14.6
 21
0.0
 31
0.0
  0
LINE
  5
76D
330
1F
100
AcDbEntity
  8
2
  6
CONTINUOUS
370
25
 62
7
100
AcDbLine
 10
-4.400000000000002
 20
-43.5
 30
0.0
 11
21.6
 21
-43.5
 31
0.0
  0
LINE
  5
76E
330
1F
100
AcDbEntity
  8
2
  6
CONTINUOUS
370
25
 62
7
100
AcDbLine
 10
2.599999999999997
 20
-43.5
 30
0.0
 11
-2.400000000000003
 21
-44.5
 31
0.0
  0
LINE
  5
76F
330
1F
100
AcDbEntity
  8
2
  6
CONTINUOUS
370
25
 62
7
100
AcDbLine
 10
-2.400000000000003
 20
-44.5
 30
0.0
 11
-2.400000000000003
 21
-42.5
 31
0.0
  0
LINE
  5
770
330
1F
100
AcDbEntity
  8
2
  6
CONTINUOUS
370
25
 62
7
100
AcDbLine
 10
-2.400000000000003
 20
-42.5
 30
0.0
 11
2.599999999999997
 21
-43.5
 31
0.0
  0
LINE
  5
771
330
1F
100
AcDbEntity
  8
2
  6
CONTINUOUS
370
25
 62
7
100
AcDbLine
 10
2.39807302674124
 20
-43.54038539465175
 30
0.0
 11
2.465382017827487
 21
-43.4730764035655
 31
0.0
  0
LINE
  5
772
330
1F
100
AcDbEntity
  8
2
  6
CONTINUOUS
370
25
 62
7
100
AcDbLine
 10
1.867742940851331
 20
-43.64645141182973
 30
0.0
 11
2.111828627234213
 21
-43.40236572544685
 31
0.0
  0
LINE
  5
773
330
1F
100
AcDbEntity
  8
2
  6
CONTINUOUS
370
25
 62
7
100
AcDbLine
 10
1.337412854961412
 20
-43.75251742900771
 30
0.0
 11
1.758275236640934
 21
-43.33165504732819
 31
0.0
  0
LINE
  5
774
330
1F
100
AcDbEntity
  8
2
  6
CONTINUOUS
370
25
 62
7
100
AcDbLine
 10
0.8070827690715019
 20
-43.8585834461857
 30
0.0
 11
1.404721846047662
 21
-43.26094436920954
 31
0.0
  0
LINE
  5
775
330
1F
100
AcDbEntity
  8
2
  6
CONTINUOUS
370
25
 62
7
100
AcDbLine
 10
0.2767526831815828
 20
-43.96464946336368
 30
0.0
 11
1.051168455454382
 21
-43.19023369109088
 31
0.0
  0
LINE
  5
776
330
1F
100
AcDbEntity
  8
2
  6
CONTINUOUS
370
25
 62
7
100
AcDbLine
 10
-0.2535774027083274
 20
-44.07071548054166
 30
0.0
 11
0.697615064861109
 21
-43.11952301297222
 31
0.0
  0
LINE
  5
777
330
1F
100
AcDbEntity
  8
2
  6
CONTINUOUS
370
25
 62
7
100
AcDbLine
 10
-0.7839074885982463
 20
-44.17678149771965
 30
0.0
 11
0.3440616742678299
 21
-43.04881233485357
 31
0.0
  0
LINE
  5
778
330
1F
100
AcDbEntity
  8
2
  6
CONTINUOUS
370
25
 62
7
100
AcDbLine
 10
-1.314237574488156
 20
-44.28284751489763
 30
0.0
 11
-0.0094917163254434
 21
-42.97810165673491
 31
0.0
  0
LINE
  5
779
330
1F
100
AcDbEntity
  8
2
  6
CONTINUOUS
370
25
 62
7
100
AcDbLine
 10
-1.844567660378076
 20
-44.38891353207561
 30
0.0
 11
-0.3630451069187226
 21
-42.90739097861626
 31
0.0
  0
LINE
  5
77A
330
1F
100
AcDbEntity
  8
2
  6
CONTINUOUS
370
25
 62
7
100
AcDbLine
 10
-2.374897746267985
 20
-44.49497954925359
 30
0.0
 11
-0.7165984975119958
 21
-42.8366803004976
 31
0.0
  0
LINE
  5
77B
330
1F
100
AcDbEntity
  8
2
  6
CONTINUOUS
370
25
 62
7
100
AcDbLine
 10
-2.400000000000003
 20
-44.09581773427367
 30
0.0
 11
-1.070151888105275
 21
-42.76596962237895
 31
0.0
  0
LINE
  5
77C
330
1F
100
AcDbEntity
  8
2
  6
CONTINUOUS
370
25
 62
7
100
AcDbLine
 10
-2.400000000000003
 20
-43.67155366556175
 30
0.0
 11
-1.423705278698548
 21
-42.6952589442603
 31
0.0
  0
LINE
  5
77D
330
1F
100
AcDbEntity
  8
2
  6
CONTINUOUS
370
25
 62
7
100
AcDbLine
 10
-2.400000000000003
 20
-43.24728959684981
 30
0.0
 11
-1.777258669291827
 21
-42.62454826614164
 31
0.0
  0
LINE
  5
77E
330
1F
100
AcDbEntity
  8
2
  6
CONTINUOUS
370
25
 62
7
100
AcDbLine
 10
-2.400000000000003
 20
-42.82302552813788
 30
0.0
 11
-2.1308120598851
 21
-42.55383758802299
 31
0.0
  0
LINE
  5
77F
330
1F
100
AcDbEntity
  8
2
  6
CONTINUOUS
370
25
 62
7
100
AcDbLine
 10
-2.400000000000003
 20
-44.4112506275288
 30
0.0
 11
-2.326042189607339
 21
-44.48520843792146
 31
0.0
  0
LINE
  5
780
330
1F
100
AcDbEntity
  8
2
  6
CONTINUOUS
370
25
 62
7
100
AcDbLine
 10
-2.400000000000003
 20
-43.98698655881687
 30
0.0
 11
-1.972488799014059
 21
-44.41449775980281
 31
0.0
  0
LINE
  5
781
330
1F
100
AcDbEntity
  8
2
  6
CONTINUOUS
370
25
 62
7
100
AcDbLine
 10
-2.400000000000003
 20
-43.56272249010494
 30
0.0
 11
-1.618935408420786
 21
-44.34378708168416
 31
0.0
  0
LINE
  5
782
330
1F
100
AcDbEntity
  8
2
  6
CONTINUOUS
370
25
 62
7
100
AcDbLine
 10
-2.400000000000003
 20
-43.138458421393
 30
0.0
 11
-1.265382017827507
 21
-44.2730764035655
 31
0.0
  0
LINE
  5
783
330
1F
100
AcDbEntity
  8
2
  6
CONTINUOUS
370
25
 62
7
100
AcDbLine
 10
-2.400000000000003
 20
-42.71419435268108
 30
0.0
 11
-0.9118286272342333
 21
-44.20236572544685
 31
0.0
  0
LINE
  5
784
330
1F
100
AcDbEntity
  8
2
  6
CONTINUOUS
370
25
 62
7
100
AcDbLine
 10
-2.137412854961432
 20
-42.55251742900771
 30
0.0
 11
-0.5582752366409599
 21
-44.13165504732819
 31
0.0
  0
LINE
  5
785
330
1F
100
AcDbEntity
  8
2
  6
CONTINUOUS
370
25
 62
7
100
AcDbLine
 10
-1.607082769071513
 20
-42.6585834461857
 30
0.0
 11
-0.2047218460476806
 21
-44.06094436920953
 31
0.0
  0
LINE
  5
786
330
1F
100
AcDbEntity
  8
2
  6
CONTINUOUS
370
25
 62
7
100
AcDbLine
 10
-1.076752683181593
 20
-42.76464946336368
 30
0.0
 11
0.1488315445455988
 21
-43.99023369109088
 31
0.0
  0
LINE
  5
787
330
1F
100
AcDbEntity
  8
2
  6
CONTINUOUS
370
25
 62
7
100
AcDbLine
 10
-0.5464225972916833
 20
-42.87071548054167
 30
0.0
 11
0.5023849351388722
 21
-43.91952301297222
 31
0.0
  0
LINE
  5
788
330
1F
100
AcDbEntity
  8
2
  6
CONTINUOUS
370
25
 62
7
100
AcDbLine
 10
-0.0160925114017729
 20
-42.97678149771965
 30
0.0
 11
0.8559383257321456
 21
-43.84881233485357
 31
0.0
  0
LINE
  5
789
330
1F
100
AcDbEntity
  8
2
  6
CONTINUOUS
370
25
 62
7
100
AcDbLine
 10
0.5142375744881462
 20
-43.08284751489764
 30
0.0
 11
1.209491716325425
 21
-43.77810165673491
 31
0.0
  0
LINE
  5
78A
330
1F
100
AcDbEntity
  8
2
  6
CONTINUOUS
370
25
 62
7
100
AcDbLine
 10
1.044567660378056
 20
-43.18891353207562
 30
0.0
 11
1.563045106918698
 21
-43.70739097861625
 31
0.0
  0
LINE
  5
78B
330
1F
100
AcDbEntity
  8
2
  6
CONTINUOUS
370
25
 62
7
100
AcDbLine
 10
1.574897746267976
 20
-43.2949795492536
 30
0.0
 11
1.916598497511978
 21
-43.6366803004976
 31
0.0
  0
LINE
  5
78C
330
1F
100
AcDbEntity
  8
2
  6
CONTINUOUS
370
25
 62
7
100
AcDbLine
 10
2.105227832157886
 20
-43.40104556643158
 30
0.0
 11
2.270151888105251
 21
-43.56596962237894
 31
0.0
  0
LINE
  5
78D
330
1F
100
AcDbEntity
  8
2
  6
CONTINUOUS
370
25
 62
7
100
AcDbLine
 10
14.6
 20
-43.5
 30
0.0
 11
19.6
 21
-42.5
 31
0.0
  0
LINE
  5
78E
330
1F
100
AcDbEntity
  8
2
  6
CONTINUOUS
370
25
 62
7
100
AcDbLine
 10
19.6
 20
-42.5
 30
0.0
 11
19.6
 21
-44.5
 31
0.0
  0
LINE
  5
78F
330
1F
100
AcDbEntity
  8
2
  6
CONTINUOUS
370
25
 62
7
100
AcDbLine
 10
19.6
 20
-44.5
 30
0.0
 11
14.6
 21
-43.5
 31
0.0
  0
LINE
  5
790
330
1F
100
AcDbEntity
  8
2
  6
CONTINUOUS
370
25
 62
7
100
AcDbLine
 10
19.3636865086164
 20
-44.45273730172327
 30
0.0
 11
19.6
 21
-44.21642381033968
 31
0.0
  0
LINE
  5
791
330
1F
100
AcDbEntity
  8
2
  6
CONTINUOUS
370
25
 62
7
100
AcDbLine
 10
19.01013311802312
 20
-44.38202662360462
 30
0.0
 11
19.6
 21
-43.79215974162774
 31
0.0
  0
LINE
  5
792
330
1F
100
AcDbEntity
  8
2
  6
CONTINUOUS
370
25
 62
7
100
AcDbLine
 10
18.65657972742985
 20
-44.31131594548597
 30
0.0
 11
19.6
 21
-43.36789567291581
 31
0.0
  0
LINE
  5
793
330
1F
100
AcDbEntity
  8
2
  6
CONTINUOUS
370
25
 62
7
100
AcDbLine
 10
18.30302633683657
 20
-44.24060526736731
 30
0.0
 11
19.6
 21
-42.94363160420388
 31
0.0
  0
LINE
  5
794
330
1F
100
AcDbEntity
  8
2
  6
CONTINUOUS
370
25
 62
7
100
AcDbLine
 10
17.94947294624329
 20
-44.16989458924866
 30
0.0
 11
19.6
 21
-42.51936753549195
 31
0.0
  0
LINE
  5
795
330
1F
100
AcDbEntity
  8
2
  6
CONTINUOUS
370
25
 62
7
100
AcDbLine
 10
17.59591955565001
 20
-44.09918391113
 30
0.0
 11
19.09387933347502
 21
-42.601224133305
 31
0.0
  0
LINE
  5
796
330
1F
100
AcDbEntity
  8
2
  6
CONTINUOUS
370
25
 62
7
100
AcDbLine
 10
17.24236616505674
 20
-44.02847323301135
 30
0.0
 11
18.56354924758511
 21
-42.70729015048298
 31
0.0
  0
LINE
  5
797
330
1F
100
AcDbEntity
  8
2
  6
CONTINUOUS
370
25
 62
7
100
AcDbLine
 10
16.88881277446346
 20
-43.95776255489269
 30
0.0
 11
18.03321916169519
 21
-42.81335616766096
 31
0.0
  0
LINE
  5
798
330
1F
100
AcDbEntity
  8
2
  6
CONTINUOUS
370
25
 62
7
100
AcDbLine
 10
16.53525938387019
 20
-43.88705187677404
 30
0.0
 11
17.50288907580528
 21
-42.91942218483895
 31
0.0
  0
LINE
  5
799
330
1F
100
AcDbEntity
  8
2
  6
CONTINUOUS
370
25
 62
7
100
AcDbLine
 10
16.18170599327691
 20
-43.81634119865538
 30
0.0
 11
16.97255898991536
 21
-43.02548820201693
 31
0.0
  0
LINE
  5
79A
330
1F
100
AcDbEntity
  8
2
  6
CONTINUOUS
370
25
 62
7
100
AcDbLine
 10
15.82815260268364
 20
-43.74563052053672
 30
0.0
 11
16.44222890402545
 21
-43.13155421919491
 31
0.0
  0
LINE
  5
79B
330
1F
100
AcDbEntity
  8
2
  6
CONTINUOUS
370
25
 62
7
100
AcDbLine
 10
15.47459921209036
 20
-43.67491984241807
 30
0.0
 11
15.91189881813554
 21
-43.23762023637289
 31
0.0
  0
LINE
  5
79C
330
1F
100
AcDbEntity
  8
2
  6
CONTINUOUS
370
25
 62
7
100
AcDbLine
 10
15.12104582149709
 20
-43.60420916429941
 30
0.0
 11
15.38156873224562
 21
-43.34368625355088
 31
0.0
  0
LINE
  5
79D
330
1F
100
AcDbEntity
  8
2
  6
CONTINUOUS
370
25
 62
7
100
AcDbLine
 10
14.76749243090381
 20
-43.53349848618076
 30
0.0
 11
14.8512386463557
 21
-43.44975227072887
 31
0.0
  0
LINE
  5
79E
330
1F
100
AcDbEntity
  8
2
  6
CONTINUOUS
370
25
 62
7
100
AcDbLine
 10
14.92581569177485
 20
-43.43483686164503
 30
0.0
 11
15.08872353766227
 21
-43.59774470753246
 31
0.0
  0
LINE
  5
79F
330
1F
100
AcDbEntity
  8
2
  6
CONTINUOUS
370
25
 62
7
100
AcDbLine
 10
15.27936908236813
 20
-43.36412618352637
 30
0.0
 11
15.61905362355219
 21
-43.70381072471044
 31
0.0
  0
LINE
  5
7A0
330
1F
100
AcDbEntity
  8
2
  6
CONTINUOUS
370
25
 62
7
100
AcDbLine
 10
15.6329224729614
 20
-43.29341550540772
 30
0.0
 11
16.1493837094421
 21
-43.80987674188842
 31
0.0
  0
LINE
  5
7A1
330
1F
100
AcDbEntity
  8
2
  6
CONTINUOUS
370
25
 62
7
100
AcDbLine
 10
15.98647586355468
 20
-43.22270482728906
 30
0.0
 11
16.67971379533202
 21
-43.9159427590664
 31
0.0
  0
LINE
  5
7A2
330
1F
100
AcDbEntity
  8
2
  6
CONTINUOUS
370
25
 62
7
100
AcDbLine
 10
16.34002925414795
 20
-43.15199414917041
 30
0.0
 11
17.21004388122193
 21
-44.02200877624438
 31
0.0
  0
LINE
  5
7A3
330
1F
100
AcDbEntity
  8
2
  6
CONTINUOUS
370
25
 62
7
100
AcDbLine
 10
16.69358264474123
 20
-43.08128347105175
 30
0.0
 11
17.74037396711185
 21
-44.12807479342237
 31
0.0
  0
LINE
  5
7A4
330
1F
100
AcDbEntity
  8
2
  6
CONTINUOUS
370
25
 62
7
100
AcDbLine
 10
17.04713603533451
 20
-43.0105727929331
 30
0.0
 11
18.27070405300176
 21
-44.23414081060035
 31
0.0
  0
LINE
  5
7A5
330
1F
100
AcDbEntity
  8
2
  6
CONTINUOUS
370
25
 62
7
100
AcDbLine
 10
17.40068942592778
 20
-42.93986211481445
 30
0.0
 11
18.80103413889167
 21
-44.34020682777833
 31
0.0
  0
LINE
  5
7A6
330
1F
100
AcDbEntity
  8
2
  6
CONTINUOUS
370
25
 62
7
100
AcDbLine
 10
17.75424281652106
 20
-42.86915143669579
 30
0.0
 11
19.33136422478159
 21
-44.44627284495632
 31
0.0
  0
LINE
  5
7A7
330
1F
100
AcDbEntity
  8
2
  6
CONTINUOUS
370
25
 62
7
100
AcDbLine
 10
18.10779620711433
 20
-42.79844075857713
 30
0.0
 11
19.6
 21
-44.2906445514628
 31
0.0
  0
LINE
  5
7A8
330
1F
100
AcDbEntity
  8
2
  6
CONTINUOUS
370
25
 62
7
100
AcDbLine
 10
18.46134959770761
 20
-42.72773008045848
 30
0.0
 11
19.6
 21
-43.86638048275087
 31
0.0
  0
LINE
  5
7A9
330
1F
100
AcDbEntity
  8
2
  6
CONTINUOUS
370
25
 62
7
100
AcDbLine
 10
18.81490298830089
 20
-42.65701940233983
 30
0.0
 11
19.6
 21
-43.44211641403894
 31
0.0
  0
LINE
  5
7AA
330
1F
100
AcDbEntity
  8
2
  6
CONTINUOUS
370
25
 62
7
100
AcDbLine
 10
19.16845637889416
 20
-42.58630872422117
 30
0.0
 11
19.6
 21
-43.017852345327
 31
0.0
  0
LINE
  5
7AB
330
1F
100
AcDbEntity
  8
2
  6
CONTINUOUS
370
25
 62
7
100
AcDbLine
 10
19.52200976948744
 20
-42.51559804610251
 30
0.0
 11
19.6
 21
-42.59358827661507
 31
0.0
  0
TEXT
  5
7AC
330
1F
100
AcDbEntity
  8
2
  6
CONTINUOUS
370
25
 62
7
100
AcDbText
 10
6.266666666666664
 20
-42.0
 30
0.0
 40
3.5
  1
12
 72
     1
 11
8.599999999999998
 21
-42.0
 31
0.0
100
AcDbText
  0
LINE
  5
7AD
330
1F
100
AcDbEntity
  8
4
  6
LONGDASH_DASH
370
25
 62
2
100
AcDbLine
 10
0.0
 20
0.0
 30
0.0
 11
14.6
 21
0.0
 31
0.0
  0
LINE
  5
7AE
330
1F
100
AcDbEntity
  8
SK4
  6
LONGDASH_DASH
370
25
 62
2
100
AcDbLine
 10
-31.4
 20
0.0
 30
0.0
 11
20.6
 21
0.0
 31
0.0
  0
LINE
  5
7AF
330
1F
100
AcDbEntity
  8
2
  6
CONTINUOUS
370
25
 62
7
100
AcDbLine
 10
14.6
 20
0.0
 30
0.0
 11
21.78242300983904
 21
19.73354503650408
 31
0.0
  0
LINE
  5
7B0
330
1F
100
AcDbEntity
  8
2
  6
CONTINUOUS
370
25
 62
7
100
AcDbLine
 10
14.6
 20
0.0
 30
0.0
 11
21.78242300983905
 21
-19.73354503650408
 31
0.0
  0
ARC
  5
7B1
330
1F
100
AcDbEntity
  8
2
  6
CONTINUOUS
370
25
 62
7
100
AcDbCircle
 10
14.59999999999999
 20
0.000000000000002
 30
0.0
 40
20.00000000000001
100
AcDbArc
 50
290.0000000000001
 51
70.0
  0
LINE
  5
7B2
330
1F
100
AcDbEntity
  8
2
  6
CONTINUOUS
370
25
 62
7
100
AcDbLine
 10
21.44040286651337
 20
18.79385241571817
 30
0.0
 11
26.34505128946729
 21
17.39942642370005
 31
0.0
  0
LINE
  5
7B3
330
1F
100
AcDbEntity
  8
2
  6
CONTINUOUS
370
25
 62
7
100
AcDbLine
 10
26.34505128946729
 20
17.39942642370005
 30
0.0
 11
25.43145295231002
 21
15.62028672194994
 31
0.0
  0
LINE
  5
7B4
330
1F
100
AcDbEntity
  8
2
  6
CONTINUOUS
370
25
 62
7
100
AcDbLine
 10
25.43145295231002
 20
15.62028672194994
 30
0.0
 11
21.44040286651337
 21
18.79385241571817
 31
0.0
  0
LINE
  5
7B5
330
1F
100
AcDbEntity
  8
2
  6
CONTINUOUS
370
25
 62
7
100
AcDbLine
 10
25.38688973682329
 20
15.65572208077341
 30
0.0
 11
25.51589324303966
 21
15.78472558698978
 31
0.0
  0
LINE
  5
7B6
330
1F
100
AcDbEntity
  8
2
  6
CONTINUOUS
370
25
 62
7
100
AcDbLine
 10
25.15055338607819
 20
15.84364979874024
 30
0.0
 11
25.96371349005134
 21
16.65680990271338
 31
0.0
  0
LINE
  5
7B7
330
1F
100
AcDbEntity
  8
2
  6
CONTINUOUS
370
25
 62
7
100
AcDbLine
 10
24.91421703533308
 20
16.03157751670705
 30
0.0
 11
26.29600900751058
 21
17.41336948888456
 31
0.0
  0
LINE
  5
7B8
330
1F
100
AcDbEntity
  8
2
  6
CONTINUOUS
370
25
 62
7
100
AcDbLine
 10
24.67788068458797
 20
16.21950523467387
 30
0.0
 11
25.96566426819808
 21
17.50728881828398
 31
0.0
  0
LINE
  5
7B9
330
1F
100
AcDbEntity
  8
2
  6
CONTINUOUS
370
25
 62
7
100
AcDbLine
 10
24.44154433384286
 20
16.4074329526407
 30
0.0
 11
25.63531952888558
 21
17.60120814768342
 31
0.0
  0
LINE
  5
7BA
330
1F
100
AcDbEntity
  8
2
  6
CONTINUOUS
370
25
 62
7
100
AcDbLine
 10
24.20520798309776
 20
16.59536067060752
 30
0.0
 11
25.30497478957308
 21
17.69512747708284
 31
0.0
  0
LINE
  5
7BB
330
1F
100
AcDbEntity
  8
2
  6
CONTINUOUS
370
25
 62
7
100
AcDbLine
 10
23.96887163235265
 20
16.78328838857434
 30
0.0
 11
24.97463005026058
 21
17.78904680648227
 31
0.0
  0
LINE
  5
7BC
330
1F
100
AcDbEntity
  8
2
  6
CONTINUOUS
370
25
 62
7
100
AcDbLine
 10
23.73253528160754
 20
16.97121610654116
 30
0.0
 11
24.64428531094808
 21
17.88296613588169
 31
0.0
  0
LINE
  5
7BD
330
1F
100
AcDbEntity
  8
2
  6
CONTINUOUS
370
25
 62
7
100
AcDbLine
 10
23.49619893086243
 20
17.15914382450798
 30
0.0
 11
24.31394057163558
 21
17.97688546528113
 31
0.0
  0
LINE
  5
7BE
330
1F
100
AcDbEntity
  8
2
  6
CONTINUOUS
370
25
 62
7
100
AcDbLine
 10
23.25986258011733
 20
17.3470715424748
 30
0.0
 11
23.98359583232309
 21
18.07080479468056
 31
0.0
  0
LINE
  5
7BF
330
1F
100
AcDbEntity
  8
2
  6
CONTINUOUS
370
25
 62
7
100
AcDbLine
 10
23.02352622937222
 20
17.53499926044162
 30
0.0
 11
23.65325109301059
 21
18.16472412407999
 31
0.0
  0
LINE
  5
7C0
330
1F
100
AcDbEntity
  8
2
  6
CONTINUOUS
370
25
 62
7
100
AcDbLine
 10
22.78718987862711
 20
17.72292697840845
 30
0.0
 11
23.32290635369809
 21
18.25864345347942
 31
0.0
  0
LINE
  5
7C1
330
1F
100
AcDbEntity
  8
2
  6
CONTINUOUS
370
25
 62
7
100
AcDbLine
 10
22.55085352788201
 20
17.91085469637527
 30
0.0
 11
22.99256161438559
 21
18.35256278287885
 31
0.0
  0
LINE
  5
7C2
330
1F
100
AcDbEntity
  8
2
  6
CONTINUOUS
370
25
 62
7
100
AcDbLine
 10
22.3145171771369
 20
18.09878241434208
 30
0.0
 11
22.66221687507309
 21
18.44648211227828
 31
0.0
  0
LINE
  5
7C3
330
1F
100
AcDbEntity
  8
2
  6
CONTINUOUS
370
25
 62
7
100
AcDbLine
 10
22.07818082639179
 20
18.2867101323089
 30
0.0
 11
22.33187213576059
 21
18.5404014416777
 31
0.0
  0
LINE
  5
7C4
330
1F
100
AcDbEntity
  8
2
  6
CONTINUOUS
370
25
 62
7
100
AcDbLine
 10
21.84184447564668
 20
18.47463785027573
 30
0.0
 11
22.00152739644809
 21
18.63432077107714
 31
0.0
  0
LINE
  5
7C5
330
1F
100
AcDbEntity
  8
2
  6
CONTINUOUS
370
25
 62
7
100
AcDbLine
 10
21.60550812490158
 20
18.66256556824255
 30
0.0
 11
21.67118265713559
 21
18.72824010047656
 31
0.0
  0
LINE
  5
7C6
330
1F
100
AcDbEntity
  8
2
  6
CONTINUOUS
370
25
 62
7
100
AcDbLine
 10
21.53937162501526
 20
18.76571490261796
 30
0.0
 11
21.78620891589371
 21
18.51887761173951
 31
0.0
  0
LINE
  5
7C7
330
1F
100
AcDbEntity
  8
2
  6
CONTINUOUS
370
25
 62
7
100
AcDbLine
 10
22.13217340224315
 20
18.59717719410199
 30
0.0
 11
23.8575134745431
 21
16.87183712180205
 31
0.0
  0
LINE
  5
7C8
330
1F
100
AcDbEntity
  8
2
  6
CONTINUOUS
370
25
 62
7
100
AcDbLine
 10
22.72497517947105
 20
18.42863948558603
 30
0.0
 11
25.46601733281987
 21
15.68759733223721
 31
0.0
  0
LINE
  5
7C9
330
1F
100
AcDbEntity
  8
2
  6
CONTINUOUS
370
25
 62
7
100
AcDbLine
 10
23.31777695669895
 20
18.26010177707006
 30
0.0
 11
25.60996261902679
 21
15.96791611474221
 31
0.0
  0
LINE
  5
7CA
330
1F
100
AcDbEntity
  8
2
  6
CONTINUOUS
370
25
 62
7
100
AcDbLine
 10
23.91057873392684
 20
18.09156406855409
 30
0.0
 11
25.75390790523372
 21
16.24823489724722
 31
0.0
  0
LINE
  5
7CB
330
1F
100
AcDbEntity
  8
2
  6
CONTINUOUS
370
25
 62
7
100
AcDbLine
 10
24.50338051115474
 20
17.92302636003812
 30
0.0
 11
25.89785319144065
 21
16.52855367975221
 31
0.0
  0
LINE
  5
7CC
330
1F
100
AcDbEntity
  8
2
  6
CONTINUOUS
370
25
 62
7
100
AcDbLine
 10
25.09618228838264
 20
17.75448865152215
 30
0.0
 11
26.04179847764757
 21
16.80887246225722
 31
0.0
  0
LINE
  5
7CD
330
1F
100
AcDbEntity
  8
2
  6
CONTINUOUS
370
25
 62
7
100
AcDbLine
 10
25.68898406561054
 20
17.58595094300618
 30
0.0
 11
26.18574376385449
 21
17.08919124476223
 31
0.0
  0
LINE
  5
7CE
330
1F
100
AcDbEntity
  8
2
  6
CONTINUOUS
370
25
 62
7
100
AcDbLine
 10
26.28178584283843
 20
17.41741323449021
 30
0.0
 11
26.32968905006141
 21
17.36951002726723
 31
0.0
  0
LINE
  5
7CF
330
1F
100
AcDbEntity
  8
2
  6
CONTINUOUS
370
25
 62
7
100
AcDbLine
 10
21.44040286651338
 20
-18.79385241571817
 30
0.0
 11
25.43145295231002
 21
-15.62028672194994
 31
0.0
  0
LINE
  5
7D0
330
1F
100
AcDbEntity
  8
2
  6
CONTINUOUS
370
25
 62
7
100
AcDbLine
 10
25.43145295231002
 20
-15.62028672194994
 30
0.0
 11
26.34505128946729
 21
-17.39942642370005
 31
0.0
  0
LINE
  5
7D1
330
1F
100
AcDbEntity
  8
2
  6
CONTINUOUS
370
25
 62
7
100
AcDbLine
 10
26.34505128946729
 20
-17.39942642370005
 30
0.0
 11
21.44040286651338
 21
-18.79385241571817
 31
0.0
  0
LINE
  5
7D2
330
1F
100
AcDbEntity
  8
2
  6
CONTINUOUS
370
25
 62
7
100
AcDbLine
 10
25.787620243341
 20
-17.557907984955
 30
0.0
 11
26.20969479332031
 21
-17.13583343497569
 31
0.0
  0
LINE
  5
7D3
330
1F
100
AcDbEntity
  8
2
  6
CONTINUOUS
370
25
 62
7
100
AcDbLine
 10
25.1948184661131
 20
-17.72644569347097
 30
0.0
 11
26.06574950711338
 21
-16.85551465247068
 31
0.0
  0
LINE
  5
7D4
330
1F
100
AcDbEntity
  8
2
  6
CONTINUOUS
370
25
 62
7
100
AcDbLine
 10
24.60201668888521
 20
-17.89498340198693
 30
0.0
 11
25.92180422090646
 21
-16.57519586996568
 31
0.0
  0
LINE
  5
7D5
330
1F
100
AcDbEntity
  8
2
  6
CONTINUOUS
370
25
 62
7
100
AcDbLine
 10
24.00921491165731
 20
-18.0635211105029
 30
0.0
 11
25.77785893469953
 21
-16.29487708746068
 31
0.0
  0
LINE
  5
7D6
330
1F
100
AcDbEntity
  8
2
  6
CONTINUOUS
370
25
 62
7
100
AcDbLine
 10
23.41641313442942
 20
-18.23205881901887
 30
0.0
 11
25.63391364849261
 21
-16.01455830495568
 31
0.0
  0
LINE
  5
7D7
330
1F
100
AcDbEntity
  8
2
  6
CONTINUOUS
370
25
 62
7
100
AcDbLine
 10
22.82361135720152
 20
-18.40059652753484
 30
0.0
 11
25.48996836228569
 21
-15.73423952245067
 31
0.0
  0
LINE
  5
7D8
330
1F
100
AcDbEntity
  8
2
  6
CONTINUOUS
370
25
 62
7
100
AcDbLine
 10
22.23080957997362
 20
-18.56913423605081
 30
0.0
 11
24.20215745576769
 21
-16.59778636025674
 31
0.0
  0
LINE
  5
7D9
330
1F
100
AcDbEntity
  8
2
  6
CONTINUOUS
370
25
 62
7
100
AcDbLine
 10
21.63800780274573
 20
-18.73767194456678
 30
0.0
 11
22.13085289711832
 21
-18.24482685019418
 31
0.0
  0
LINE
  5
7DA
330
1F
100
AcDbEntity
  8
2
  6
CONTINUOUS
370
25
 62
7
100
AcDbLine
 10
21.62049607329796
 20
-18.65064759231436
 30
0.0
 11
21.69213241746751
 21
-18.72228393648391
 31
0.0
  0
LINE
  5
7DB
330
1F
100
AcDbEntity
  8
2
  6
CONTINUOUS
370
25
 62
7
100
AcDbLine
 10
21.85683242404307
 20
-18.46271987434754
 30
0.0
 11
22.02247715678001
 21
-18.62836460708448
 31
0.0
  0
LINE
  5
7DC
330
1F
100
AcDbEntity
  8
2
  6
CONTINUOUS
370
25
 62
7
100
AcDbLine
 10
22.09316877478818
 20
-18.27479215638072
 30
0.0
 11
22.35282189609251
 21
-18.53444527768505
 31
0.0
  0
LINE
  5
7DD
330
1F
100
AcDbEntity
  8
2
  6
CONTINUOUS
370
25
 62
7
100
AcDbLine
 10
22.32950512553328
 20
-18.0868644384139
 30
0.0
 11
22.68316663540501
 21
-18.44052594828563
 31
0.0
  0
LINE
  5
7DE
330
1F
100
AcDbEntity
  8
2
  6
CONTINUOUS
370
25
 62
7
100
AcDbLine
 10
22.56584147627839
 20
-17.89893672044708
 30
0.0
 11
23.01351137471751
 21
-18.3466066188862
 31
0.0
  0
LINE
  5
7DF
330
1F
100
AcDbEntity
  8
2
  6
CONTINUOUS
370
25
 62
7
100
AcDbLine
 10
22.8021778270235
 20
-17.71100900248026
 30
0.0
 11
23.34385611403001
 21
-18.25268728948677
 31
0.0
  0
LINE
  5
7E0
330
1F
100
AcDbEntity
  8
2
  6
CONTINUOUS
370
25
 62
7
100
AcDbLine
 10
23.0385141777686
 20
-17.52308128451344
 30
0.0
 11
23.67420085334251
 21
-18.15876796008734
 31
0.0
  0
LINE
  5
7E1
330
1F
100
AcDbEntity
  8
2
  6
CONTINUOUS
370
25
 62
7
100
AcDbLine
 10
23.27485052851371
 20
-17.33515356654662
 30
0.0
 11
24.00454559265501
 21
-18.06484863068791
 31
0.0
  0
LINE
  5
7E2
330
1F
100
AcDbEntity
  8
2
  6
CONTINUOUS
370
25
 62
7
100
AcDbLine
 10
23.51118687925882
 20
-17.14722584857979
 30
0.0
 11
24.33489033196751
 21
-17.97092930128849
 31
0.0
  0
LINE
  5
7E3
330
1F
100
AcDbEntity
  8
2
  6
CONTINUOUS
370
25
 62
7
100
AcDbLine
 10
23.74752323000393
 20
-16.95929813061298
 30
0.0
 11
24.66523507128001
 21
-17.87700997188906
 31
0.0
  0
LINE
  5
7E4
330
1F
100
AcDbEntity
  8
2
  6
CONTINUOUS
370
25
 62
7
100
AcDbLine
 10
23.98385958074903
 20
-16.77137041264616
 30
0.0
 11
24.99557981059251
 21
-17.78309064248963
 31
0.0
  0
LINE
  5
7E5
330
1F
100
AcDbEntity
  8
2
  6
CONTINUOUS
370
25
 62
7
100
AcDbLine
 10
24.22019593149414
 20
-16.58344269467934
 30
0.0
 11
25.325924549905
 21
-17.6891713130902
 31
0.0
  0
LINE
  5
7E6
330
1F
100
AcDbEntity
  8
2
  6
CONTINUOUS
370
25
 62
7
100
AcDbLine
 10
24.45653228223925
 20
-16.39551497671252
 30
0.0
 11
25.65626928921751
 21
-17.59525198369077
 31
0.0
  0
LINE
  5
7E7
330
1F
100
AcDbEntity
  8
2
  6
CONTINUOUS
370
25
 62
7
100
AcDbLine
 10
24.69286863298436
 20
-16.2075872587457
 30
0.0
 11
25.98661402853
 21
-17.50133265429134
 31
0.0
  0
LINE
  5
7E8
330
1F
100
AcDbEntity
  8
2
  6
CONTINUOUS
370
25
 62
7
100
AcDbLine
 10
24.92920498372947
 20
-16.01965954077887
 30
0.0
 11
26.3169587678425
 21
-17.40741332489191
 31
0.0
  0
LINE
  5
7E9
330
1F
100
AcDbEntity
  8
2
  6
CONTINUOUS
370
25
 62
7
100
AcDbLine
 10
25.16554133447457
 20
-15.83173182281205
 30
0.0
 11
25.93531368303096
 21
-16.60150417136844
 31
0.0
  0
LINE
  5
7EA
330
1F
100
AcDbEntity
  8
2
  6
CONTINUOUS
370
25
 62
7
100
AcDbLine
 10
25.40187768521968
 20
-15.64380410484524
 30
0.0
 11
25.48749343601927
 21
-15.72941985564483
 31
0.0
  0
TEXT
  5
7EB
330
1F
100
AcDbEntity
  8
2
  6
CONTINUOUS
370
25
 62
7
100
AcDbText
 10
32.1
 20
-4.958333333333333
 30
0.0
 40
3.5
  1
140°
 50
90.0
 72
     1
 11
32.1
 21
0.0
 31
0.0
100
AcDbText
  0
LINE
  5
7EC
330
1F
100
AcDbEntity
  8
SK1
  6
CONTINUOUS
370
50
 62
4
100
AcDbLine
 10
0.0
 20
0.0
 30
0.0
 11
2.5
 21
0.0
 31
0.0
  0
LINE
  5
7ED
330
1F
100
AcDbEntity
  8
SK1
  6
CONTINUOUS
370
50
 62
4
100
AcDbLine
 10
0.0
 20
0.0
 30
0.0
 11
0.0
 21
2.5
 31
0.0
  0
ARC
  5
7EE
330
1F
100
AcDbEntity
  8
SK1
  6
CONTINUOUS
370
50
 62
4
100
AcDbCircle
 10
0.0
 20
0.0
 30
0.0
 40
2.5
100
AcDbArc
 50
0.0
 51
90.0
  0
LINE
  5
7EF
330
1F
100
AcDbEntity
  8
SK1
  6
CONTINUOUS
370
50
 62
4
100
AcDbLine
 10
0.0
 20
0.0
 30
0.0
 11
-2.5
 21
0.0
 31
0.0
  0
ARC
  5
7F0
330
1F
100
AcDbEntity
  8
SK1
  6
CONTINUOUS
370
50
 62
4
100
AcDbCircle
 10
0.0
 20
0.0
 30
0.0
 40
2.5
100
AcDbArc
 50
180.0
 51
270.0
  0
LINE
  5
7F1
330
1F
100
AcDbEntity
  8
SK1
  6
CONTINUOUS
370
50
 62
4
100
AcDbLine
 10
0.0
 20
-2.5
 30
0.0
 11
0.0
 21
0.0
 31
0.0
  0
ARC
  5
7F2
330
1F
100
AcDbEntity
  8
SK1
  6
CONTINUOUS
370
50
 62
4
100
AcDbCircle
 10
0.0
 20
0.0
 30
0.0
 40
2.5
100
AcDbArc
 50
270.0
 51
0.0
  0
ARC
  5
7F3
330
1F
100
AcDbEntity
  8
SK1
  6
CONTINUOUS
370
50
 62
4
100
AcDbCircle
 10
0.0
 20
0.0
 30
0.0
 40
2.5
100
AcDbArc
 50
90.0
 51
180.0
  0
LINE
  5
7F4
330
1F
100
AcDbEntity
  8
SK1
  6
CONTINUOUS
370
50
 62
4
100
AcDbLine
 10
-0.31832627443191
 20
-2.479495909600069
 30
0.0
 11
0.0
 21
-2.161169635168159
 31
0.0
  0
LINE
  5
7F5
330
1F
100
AcDbEntity
  8
SK1
  6
CONTINUOUS
370
50
 62
4
100
AcDbLine
 10
2.16116963516816
 20
0.0
 30
0.0
 11
2.479495909600069
 21
0.3183262744319091
 31
0.0
  0
LINE
  5
7F6
330
1F
100
AcDbEntity
  8
SK1
  6
CONTINUOUS
370
50
 62
4
100
AcDbLine
 10
-0.615281817185723
 20
-2.422898061760609
 30
0.0
 11
0.0
 21
-1.807616244574886
 31
0.0
  0
LINE
  5
7F7
330
1F
100
AcDbEntity
  8
SK1
  6
CONTINUOUS
370
50
 62
4
100
AcDbLine
 10
1.807616244574887
 20
0.0
 30
0.0
 11
2.422898061760609
 21
0.6152818171857222
 31
0.0
  0
LINE
  5
7F8
330
1F
100
AcDbEntity
  8
SK1
  6
CONTINUOUS
370
50
 62
4
100
AcDbLine
 10
-0.8835965231639721
 20
-2.337659377145585
 30
0.0
 11
0.0
 21
-1.454062853981614
 31
0.0
  0
LINE
  5
7F9
330
1F
100
AcDbEntity
  8
SK1
  6
CONTINUOUS
370
50
 62
4
100
AcDbLine
 10
1.454062853981615
 20
0.0
 30
0.0
 11
2.337659377145586
 21
0.8835965231639715
 31
0.0
  0
LINE
  5
7FA
330
1F
100
AcDbEntity
  8
SK1
  6
CONTINUOUS
370
50
 62
4
100
AcDbLine
 10
-1.128779664263143
 20
-2.229289127651483
 30
0.0
 11
0.0
 21
-1.100509463388341
 31
0.0
  0
LINE
  5
7FB
330
1F
100
AcDbEntity
  8
SK1
  6
CONTINUOUS
370
50
 62
4
100
AcDbLine
 10
1.100509463388341
 20
0.0
 30
0.0
 11
2.229289127651484
 21
1.128779664263142
 31
0.0
  0
LINE
  5
7FC
330
1F
100
AcDbEntity
  8
SK1
  6
CONTINUOUS
370
50
 62
4
100
AcDbLine
 10
-1.354032791010379
 20
-2.100988863805446
 30
0.0
 11
0.0
 21
-0.7469560727950677
 31
0.0
  0
LINE
  5
7FD
330
1F
100
AcDbEntity
  8
SK1
  6
CONTINUOUS
370
50
 62
4
100
AcDbLine
 10
0.746956072795068
 20
0.0
 30
0.0
 11
2.100988863805446
 21
1.354032791010378
 31
0.0
  0
LINE
  5
7FE
330
1F
100
AcDbEntity
  8
SK1
  6
CONTINUOUS
370
50
 62
4
100
AcDbLine
 10
-1.559387394659872
 20
-1.952790076861666
 30
0.0
 11
0.0
 21
-0.3934026822017946
 31
0.0
  0
LINE
  5
7FF
330
1F
100
AcDbEntity
  8
SK1
  6
CONTINUOUS
370
50
 62
4
100
AcDbLine
 10
0.3934026822017948
 20
0.0
 30
0.0
 11
1.952790076861667
 21
1.559387394659871
 31
0.0
  0
LINE
  5
800
330
1F
100
AcDbEntity
  8
SK1
  6
CONTINUOUS
370
50
 62
4
100
AcDbLine
 10
-1.746970020883365
 20
-1.786819312491886
 30
0.0
 11
0.0
 21
-0.0398492916085216
 31
0.0
  0
LINE
  5
801
330
1F
100
AcDbEntity
  8
SK1
  6
CONTINUOUS
370
50
 62
4
100
AcDbLine
 10
0.0398492916085216
 20
0.0
 30
0.0
 11
1.786819312491887
 21
1.746970020883364
 31
0.0
  0
LINE
  5
802
330
1F
100
AcDbEntity
  8
SK1
  6
CONTINUOUS
370
50
 62
4
100
AcDbLine
 10
-1.917371878232655
 20
-1.603667779247902
 30
0.0
 11
-0.3137040989847517
 21
0.0
 31
0.0
  0
LINE
  5
803
330
1F
100
AcDbEntity
  8
SK1
  6
CONTINUOUS
370
50
 62
4
100
AcDbLine
 10
0.0
 20
0.3137040989847515
 30
0.0
 11
1.603667779247903
 21
1.917371878232654
 31
0.0
  0
LINE
  5
804
330
1F
100
AcDbEntity
  8
SK1
  6
CONTINUOUS
370
50
 62
4
100
AcDbLine
 10
-2.068741231122433
 20
-1.401483741544407
 30
0.0
 11
-0.6672574895780249
 21
0.0
 31
0.0
  0
LINE
  5
805
330
1F
100
AcDbEntity
  8
SK1
  6
CONTINUOUS
370
50
 62
4
100
AcDbLine
 10
0.0
 20
0.6672574895780246
 30
0.0
 11
1.401483741544409
 21
2.068741231122432
 31
0.0
  0
LINE
  5
806
330
1F
100
AcDbEntity
  8
SK1
  6
CONTINUOUS
370
50
 62
4
100
AcDbLine
 10
-2.2023876557675
 20
-1.181576775596201
 30
0.0
 11
-1.020810880171298
 21
0.0
 31
0.0
  0
LINE
  5
807
330
1F
100
AcDbEntity
  8
SK1
  6
CONTINUOUS
370
50
 62
4
100
AcDbLine
 10
0.0
 20
1.020810880171298
 30
0.0
 11
1.181576775596202
 21
2.202387655767499
 31
0.0
  0
LINE
  5
808
330
1F
100
AcDbEntity
  8
SK1
  6
CONTINUOUS
370
50
 62
4
100
AcDbLine
 10
-2.315450943493525
 20
-0.9410866727289533
 30
0.0
 11
-1.374364270764571
 21
0.0
 31
0.0
  0
LINE
  5
809
330
1F
100
AcDbEntity
  8
SK1
  6
CONTINUOUS
370
50
 62
4
100
AcDbLine
 10
0.0
 20
1.374364270764571
 30
0.0
 11
0.9410866727289543
 21
2.315450943493524
 31
0.0
  0
LINE
  5
80A
330
1F
100
AcDbEntity
  8
SK1
  6
CONTINUOUS
370
50
 62
4
100
AcDbLine
 10
-2.405290600131854
 20
-0.6773729387740097
 30
0.0
 11
-1.727917661357844
 21
0.0
 31
0.0
  0
LINE
  5
80B
330
1F
100
AcDbEntity
  8
SK1
  6
CONTINUOUS
370
50
 62
4
100
AcDbLine
 10
0.0
 20
1.727917661357844
 30
0.0
 11
0.6773729387740106
 21
2.405290600131854
 31
0.0
  0
LINE
  5
80C
330
1F
100
AcDbEntity
  8
SK1
  6
CONTINUOUS
370
50
 62
4
100
AcDbLine
 10
-2.468598823056026
 20
-0.3871277711049084
 30
0.0
 11
-2.081471051951118
 21
0.0
 31
0.0
  0
LINE
  5
80D
330
1F
100
AcDbEntity
  8
SK1
  6
CONTINUOUS
370
50
 62
4
100
AcDbLine
 10
0.0
 20
2.081471051951117
 30
0.0
 11
0.3871277711049085
 21
2.468598823056025
 31
0.0
  0
LINE
  5
80E
330
1F
100
AcDbEntity
  8
SK1
  6
CONTINUOUS
370
50
 62
4
100
AcDbLine
 10
-2.498020276172772
 20
-0.0629958336283822
 30
0.0
 11
-2.43502444254439
 21
0.0
 31
0.0
  0
LINE
  5
80F
330
1F
100
AcDbEntity
  8
SK1
  6
CONTINUOUS
370
50
 62
4
100
AcDbLine
 10
0.0
 20
2.435024442544389
 30
0.0
 11
0.0629958336283828
 21
2.498020276172772
 31
0.0
  0
LINE
  5
810
330
1F
100
AcDbEntity
  8
SK1
  6
CONTINUOUS
370
50
 62
4
100
AcDbLine
 10
-2.337336523620827
 20
-0.8844932833271533
 30
0.0
 11
-0.8844932833271509
 21
-2.337336523620827
 31
0.0
  0
LINE
  5
811
330
1F
100
AcDbEntity
  8
SK1
  6
CONTINUOUS
370
50
 62
4
100
AcDbLine
 10
-2.466237059966593
 20
-0.4020393563881135
 30
0.0
 11
-0.4020393563881111
 21
-2.466237059966594
 31
0.0
  0
LINE
  5
812
330
1F
100
AcDbEntity
  8
SK1
  6
CONTINUOUS
370
50
 62
4
100
AcDbLine
 10
-2.499522297881596
 20
-0.0152007278798383
 30
0.0
 11
-0.0152007278798351
 21
-2.499522297881596
 31
0.0
  0
LINE
  5
813
330
1F
100
AcDbEntity
  8
SK1
  6
CONTINUOUS
370
50
 62
4
100
AcDbLine
 10
-2.16116963516816
 20
0.0
 30
0.0
 11
0.0
 21
-2.161169635168158
 31
0.0
  0
LINE
  5
814
330
1F
100
AcDbEntity
  8
SK1
  6
CONTINUOUS
370
50
 62
4
100
AcDbLine
 10
-1.807616244574888
 20
0.0
 30
0.0
 11
0.0
 21
-1.807616244574886
 31
0.0
  0
LINE
  5
815
330
1F
100
AcDbEntity
  8
SK1
  6
CONTINUOUS
370
50
 62
4
100
AcDbLine
 10
-1.454062853981615
 20
0.0
 30
0.0
 11
0.0
 21
-1.454062853981613
 31
0.0
  0
LINE
  5
816
330
1F
100
AcDbEntity
  8
SK1
  6
CONTINUOUS
370
50
 62
4
100
AcDbLine
 10
-1.100509463388341
 20
0.0
 30
0.0
 11
0.0
 21
-1.10050946338834
 31
0.0
  0
LINE
  5
817
330
1F
100
AcDbEntity
  8
SK1
  6
CONTINUOUS
370
50
 62
4
100
AcDbLine
 10
-0.7469560727950676
 20
0.0
 30
0.0
 11
0.0
 21
-0.7469560727950668
 31
0.0
  0
LINE
  5
818
330
1F
100
AcDbEntity
  8
SK1
  6
CONTINUOUS
370
50
 62
4
100
AcDbLine
 10
-0.3934026822017942
 20
0.0
 30
0.0
 11
0.0
 21
-0.3934026822017938
 31
0.0
  0
LINE
  5
819
330
1F
100
AcDbEntity
  8
SK1
  6
CONTINUOUS
370
50
 62
4
100
AcDbLine
 10
-0.0398492916085216
 20
0.0
 30
0.0
 11
0.0
 21
-0.0398492916085216
 31
0.0
  0
LINE
  5
81A
330
1F
100
AcDbEntity
  8
SK1
  6
CONTINUOUS
370
50
 62
4
100
AcDbLine
 10
0.0
 20
0.3137040989847515
 30
0.0
 11
0.3137040989847518
 21
0.0
 31
0.0
  0
LINE
  5
81B
330
1F
100
AcDbEntity
  8
SK1
  6
CONTINUOUS
370
50
 62
4
100
AcDbLine
 10
0.0
 20
0.6672574895780246
 30
0.0
 11
0.6672574895780253
 21
0.0
 31
0.0
  0
LINE
  5
81C
330
1F
100
AcDbEntity
  8
SK1
  6
CONTINUOUS
370
50
 62
4
100
AcDbLine
 10
0.0
 20
1.020810880171298
 30
0.0
 11
1.020810880171299
 21
0.0
 31
0.0
  0
LINE
  5
81D
330
1F
100
AcDbEntity
  8
SK1
  6
CONTINUOUS
370
50
 62
4
100
AcDbLine
 10
0.0
 20
1.37436427076457
 30
0.0
 11
1.374364270764571
 21
0.0
 31
0.0
  0
LINE
  5
81E
330
1F
100
AcDbEntity
  8
SK1
  6
CONTINUOUS
370
50
 62
4
100
AcDbLine
 10
0.0
 20
1.727917661357843
 30
0.0
 11
1.727917661357845
 21
0.0
 31
0.0
  0
LINE
  5
81F
330
1F
100
AcDbEntity
  8
SK1
  6
CONTINUOUS
370
50
 62
4
100
AcDbLine
 10
0.0
 20
2.081471051951116
 30
0.0
 11
2.081471051951118
 21
0.0
 31
0.0
  0
LINE
  5
820
330
1F
100
AcDbEntity
  8
SK1
  6
CONTINUOUS
370
50
 62
4
100
AcDbLine
 10
0.0
 20
2.435024442544389
 30
0.0
 11
2.435024442544392
 21
0.0
 31
0.0
  0
LINE
  5
821
330
1F
100
AcDbEntity
  8
SK1
  6
CONTINUOUS
370
50
 62
4
100
AcDbLine
 10
0.3077647139123103
 20
2.480813119225352
 30
0.0
 11
2.480813119225352
 21
0.307764713912313
 31
0.0
  0
LINE
  5
822
330
1F
100
AcDbEntity
  8
SK1
  6
CONTINUOUS
370
50
 62
4
100
AcDbLine
 10
0.7611924397506667
 20
2.380938783980268
 30
0.0
 11
2.380938783980268
 21
0.7611924397506691
 31
0.0
  0
LINE
  5
823
330
1F
100
AcDbEntity
  8
SK1
  6
CONTINUOUS
370
50
 62
4
100
AcDbLine
 10
1.48586376213526
 20
2.009820852188948
 30
0.0
 11
2.009820852188946
 21
1.485863762135263
 31
0.0
  0
ARC
  5
824
330
1F
100
AcDbEntity
  8
SK6
  6
CONTINUOUS
370
25
 62
5
100
AcDbCircle
 10
47.36137100837651
 20
-33.14523475338785
 30
0.0
 40
2.760489128492204
100
AcDbArc
 50
338.9379403434233
 51
90.44457437511392
  0
LINE
  5
825
330
1F
100
AcDbEntity
  8
SK6
  6
CONTINUOUS
370
25
 62
5
100
AcDbLine
 10
47.33995179695983
 20
-30.38482872421281
 30
0.0
 11
47.33995179695983
 21
-31.48788735613463
 31
0.0
  0
ARC
  5
826
330
1F
100
AcDbEntity
  8
SK6
  6
CONTINUOUS
370
25
 62
5
100
AcDbCircle
 10
47.35049802936916
 20
-33.1652282456682
 30
0.0
 40
1.677374043771785
100
AcDbArc
 50
243.4214706017864
 51
90.36024081226107
  0
ARC
  5
827
330
1F
100
AcDbEntity
  8
SK6
  6
CONTINUOUS
370
25
 62
5
100
AcDbCircle
 10
49.87274889684958
 20
-32.7338209921556
 30
0.0
 40
3.800217030022756
100
AcDbArc
 50
210.548373128854
 51
236.97801693668
  0
LINE
  5
828
330
1F
100
AcDbEntity
  8
SK6
  6
CONTINUOUS
370
25
 62
5
100
AcDbLine
 10
47.80177968512486
 20
-35.92015681867535
 30
0.0
 11
51.94371996742671
 21
-35.92015681867535
 31
0.0
  0
ARC
  5
829
330
1F
100
AcDbEntity
  8
SK6
  6
CONTINUOUS
370
25
 62
5
100
AcDbCircle
 10
49.87275083877257
 20
-32.73382109373459
 30
0.0
 40
3.800216899582478
100
AcDbArc
 50
303.0219828477958
 51
326.3732153033476
  0
LINE
  5
82A
330
1F
100
AcDbEntity
  8
SK6
  6
CONTINUOUS
370
25
 62
5
100
AcDbLine
 10
53.03704875135722
 20
-34.8383084907709
 30
0.0
 11
49.67975070575461
 21
-34.8383084907709
 31
0.0
  0
LINE
  5
82B
330
1F
100
AcDbEntity
  8
SK6
  6
CONTINUOUS
370
25
 62
5
100
AcDbLine
 10
49.67975070575461
 20
-34.8383084907709
 30
0.0
 11
53.59961009771988
 21
-33.47690729641693
 31
0.0
  0
ARC
  5
82C
330
1F
100
AcDbEntity
  8
SK6
  6
CONTINUOUS
370
25
 62
5
100
AcDbCircle
 10
49.8727515615721
 20
-32.7338216048594
 30
0.0
 40
3.800217216614737
100
AcDbArc
 50
348.7238644184696
 51
53.46910512608836
  0
LINE
  5
82D
330
1F
100
AcDbEntity
  8
SK6
  6
CONTINUOUS
370
25
 62
5
100
AcDbLine
 10
52.13485424538545
 20
-29.68021024429967
 30
0.0
 11
49.93743947882736
 21
-34.13729873507057
 31
0.0
  0
LINE
  5
82E
330
1F
100
AcDbEntity
  8
INFTOTAL
  6
CONTINUOUS
370
18
 62
9
100
AcDbLine
 10
-68.640011
 20
-47.85001100000001
 30
0.0
 11
62.26001100000001
 21
-47.85001100000001
 31
0.0
  0
LINE
  5
82F
330
1F
100
AcDbEntity
  8
INFTOTAL
  6
CONTINUOUS
370
18
 62
9
100
AcDbLine
 10
62.26001100000001
 20
-47.85001100000001
 30
0.0
 11
62.26001100000001
 21
47.85001100000001
 31
0.0
  0
LINE
  5
830
330
1F
100
AcDbEntity
  8
INFTOTAL
  6
CONTINUOUS
370
18
 62
9
100
AcDbLine
 10
62.26001100000001
 20
47.85001100000001
 30
0.0
 11
-68.640011
 21
47.85001100000001
 31
0.0
  0
LINE
  5
831
330
1F
100
AcDbEntity
  8
INFTOTAL
  6
CONTINUOUS
370
18
 62
9
100
AcDbLine
 10
-68.640011
 20
47.85001100000001
 30
0.0
 11
-68.640011
 21
-47.85001100000001
 31
0.0
  0
ENDSEC
  0
SECTION
  2
OBJECTS
  0
DICTIONARY
  5
C
330
0
100
AcDbDictionary
281
     1
  3
ACAD_GROUP
350
D
  3
ACAD_LAYOUT
350
1A
  3
ACAD_MATERIAL
350
3B
  3
ACAD_MLEADERSTYLE
350
834
  3
ACAD_MLINESTYLE
350
17
  3
ACAD_PLOTSETTINGS
350
19
  3
ACAD_PLOTSTYLENAME
350
E
  3
ACAD_SCALELIST
350
213
  3
ACAD_VISUALSTYLE
350
2A
  3
AcDbVariableDictionary
350
832
  0
DICTIONARY
  5
D
102
{ACAD_REACTORS
330
C
102
}
330
C
100
AcDbDictionary
281
     1
  0
DICTIONARY
  5
1A
102
{ACAD_REACTORS
330
C
102
}
330
C
100
AcDbDictionary
281
     1
  3
Layout1
350
1E
  3
Layout2
350
26
  3
Model
350
22
  0
DICTIONARY
  5
3B
102
{ACAD_REACTORS
330
C
102
}
330
C
100
AcDbDictionary
281
     1
  3
ByBlock
350
3D
  3
ByLayer
350
3C
  3
Global
350
3E
  0
DICTIONARY
  5
834
102
{ACAD_REACTORS
330
C
102
}
330
C
100
AcDbDictionary
281
     1
  0
DICTIONARY
  5
17
102
{ACAD_REACTORS
330
C
102
}
330
C
100
AcDbDictionary
281
     1
  3
Standard
350
18
  0
DICTIONARY
  5
19
102
{ACAD_REACTORS
330
C
102
}
330
C
100
AcDbDictionary
281
     1
  0
ACDBDICTIONARYWDFLT
  5
E
102
{ACAD_REACTORS
330
C
102
}
330
C
100
AcDbDictionary
281
     1
  3
Normal
350
F
100
AcDbDictionaryWithDefault
340
F
  0
DICTIONARY
  5
213
102
{ACAD_REACTORS
330
C
102
}
330
C
100
AcDbDictionary
281
     1
  3
A0
350
214
  3
A1
350
215
  3
A2
350
216
  3
A3
350
217
  3
A4
350
218
  3
A5
350
219
  3
A6
350
21A
  3
A7
350
21B
  3
A8
350
21C
  3
A9
350
21D
  3
B0
350
21E
  3
B1
350
21F
  3
B2
350
220
  3
B3
350
221
  3
B4
350
222
  3
B5
350
223
  3
B6
350
224
  3
B7
350
225
  3
B8
350
226
  3
B9
350
227
  3
C0
350
228
  3
C1
350
229
  3
C2
350
22A
  3
C3
350
22B
  3
C4
350
22C
  3
C5
350
22D
  3
C6
350
22E
  3
C7
350
22F
  3
C8
350
230
  3
C9
350
231
  3
D0
350
232
  3
D1
350
233
  3
D2
350
234
  0
DICTIONARY
  5
2A
102
{ACAD_REACTORS
330
C
102
}
330
C
100
AcDbDictionary
281
     1
  3
2dWireframe
350
2F
  3
3D Hidden
350
31
  3
3dWireframe
350
30
  3
Basic
350
32
  3
Brighten
350
36
  3
ColorChange
350
3A
  3
Conceptual
350
34
  3
Dim
350
35
  3
Facepattern
350
39
  3
Flat
350
2B
  3
FlatWithEdges
350
2C
  3
Gouraud
350
2D
  3
GouraudWithEdges
350
2E
  3
Linepattern
350
38
  3
Realistic
350
33
  3
Thicken
350
37
  0
DICTIONARY
  5
832
102
{ACAD_REACTORS
330
C
102
}
330
C
100
AcDbDictionary
281
     1
  3
CANNOSCALE
350
837
  3
DIMASSOC
350
838
  3
HIDETEXT
350
839
  3
PSOLHEIGHT
350
836
  3
PSOLWIDTH
350
835
  0
LAYOUT
  5
1E
102
{ACAD_REACTORS
330
1A
102
}
330
1A
100
AcDbPlotSettings
  1

  2
none_device
  4

  6

 40
0.0
 41
0.0
 42
0.0
 43
0.0
 44
0.0
 45
0.0
 46
0.0
 47
0.0
 48
0.0
 49
0.0
140
0.0
141
0.0
142
1.0
143
1.0
 70
   688
 72
     0
 73
     0
 74
     5
  7

 75
    16
147
1.0
148
0.0
149
0.0
100
AcDbLayout
  1
Layout1
 70
     1
 71
     1
 10
0.0
 20
0.0
 11
420.0
 21
297.0
 12
0.0
 22
0.0
 32
0.0
 14
1.000000000000000E+20
 24
1.000000000000000E+20
 34
1.000000000000000E+20
 15
-1.000000000000000E+20
 25
-1.000000000000000E+20
 35
-1.000000000000000E+20
146
0.0
 13
0.0
 23
0.0
 33
0.0
 16
1.0
 26
0.0
 36
0.0
 17
0.0
 27
1.0
 37
0.0
 76
     0
330
1B
  0
LAYOUT
  5
26
102
{ACAD_REACTORS
330
1A
102
}
330
1A
100
AcDbPlotSettings
  1

  2
none_device
  4

  6

 40
0.0
 41
0.0
 42
0.0
 43
0.0
 44
0.0
 45
0.0
 46
0.0
 47
0.0
 48
0.0
 49
0.0
140
0.0
141
0.0
142
1.0
143
1.0
 70
   688
 72
     0
 73
     0
 74
     5
  7

 75
    16
147
1.0
148
0.0
149
0.0
100
AcDbLayout
  1
Layout2
 70
     1
 71
     2
 10
0.0
 20
0.0
 11
0.0
 21
0.0
 12
0.0
 22
0.0
 32
0.0
 14
0.0
 24
0.0
 34
0.0
 15
0.0
 25
0.0
 35
0.0
146
0.0
 13
0.0
 23
0.0
 33
0.0
 16
1.0
 26
0.0
 36
0.0
 17
0.0
 27
1.0
 37
0.0
 76
     0
330
23
  0
LAYOUT
  5
22
102
{ACAD_REACTORS
330
1A
102
}
330
1A
100
AcDbPlotSettings
  1

  2
none_device
  4

  6

 40
0.0
 41
0.0
 42
0.0
 43
0.0
 44
0.0
 45
0.0
 46
0.0
 47
0.0
 48
0.0
 49
0.0
140
0.0
141
0.0
142
1.0
143
1.0
 70
  1712
 72
     0
 73
     0
 74
     0
  7

 75
     0
147
1.0
148
0.0
149
0.0
100
AcDbLayout
  1
Model
 70
     1
 71
     0
 10
0.0
 20
0.0
 11
420.0
 21
297.0
 12
0.0
 22
0.0
 32
0.0
 14
0.0
 24
0.0
 34
0.0
 15
25.0
 25
35.0
 35
0.0
146
0.0
 13
0.0
 23
0.0
 33
0.0
 16
1.0
 26
0.0
 36
0.0
 17
0.0
 27
1.0
 37
0.0
 76
     0
330
1F
331
29
  0
MATERIAL
  5
3D
102
{ACAD_REACTORS
330
3B
102
}
102
{ACAD_XDICTIONARY
360
85C
102
}
330
3B
100
AcDbMaterial
  1
ByBlock
  0
MATERIAL
  5
3C
102
{ACAD_REACTORS
330
3B
102
}
102
{ACAD_XDICTIONARY
360
85A
102
}
330
3B
100
AcDbMaterial
  1
ByLayer
  0
MATERIAL
  5
3E
102
{ACAD_REACTORS
330
3B
102
}
102
{ACAD_XDICTIONARY
360
85E
102
}
330
3B
100
AcDbMaterial
  1
Global
  0
MLINESTYLE
  5
18
102
{ACAD_REACTORS
330
17
102
}
330
17
100
AcDbMlineStyle
  2
Standard
 70
     0
  3

 62
   256
 51
90.0
 52
90.0
 71
     2
 49
0.5
 62
   256
  6
BYLAYER
 49
-0.5
 62
   256
  6
BYLAYER
  0
ACDBPLACEHOLDER
  5
F
102
{ACAD_REACTORS
330
E
102
}
330
E
  0
SCALE
  5
214
102
{ACAD_REACTORS
330
213
102
}
330
213
100
AcDbScale
 70
     0
300
1:1
140
1.0
141
1.0
290
     1
  0
SCALE
  5
215
102
{ACAD_REACTORS
330
213
102
}
330
213
100
AcDbScale
 70
     0
300
1:2
140
1.0
141
2.0
290
     0
  0
SCALE
  5
216
102
{ACAD_REACTORS
330
213
102
}
330
213
100
AcDbScale
 70
     0
300
1:4
140
1.0
141
4.0
290
     0
  0
SCALE
  5
217
102
{ACAD_REACTORS
330
213
102
}
330
213
100
AcDbScale
 70
     0
300
1:5
140
1.0
141
5.0
290
     0
  0
SCALE
  5
218
102
{ACAD_REACTORS
330
213
102
}
330
213
100
AcDbScale
 70
     0
300
1:8
140
1.0
141
8.0
290
     0
  0
SCALE
  5
219
102
{ACAD_REACTORS
330
213
102
}
330
213
100
AcDbScale
 70
     0
300
1:10
140
1.0
141
10.0
290
     0
  0
SCALE
  5
21A
102
{ACAD_REACTORS
330
213
102
}
330
213
100
AcDbScale
 70
     0
300
1:16
140
1.0
141
16.0
290
     0
  0
SCALE
  5
21B
102
{ACAD_REACTORS
330
213
102
}
330
213
100
AcDbScale
 70
     0
300
1:20
140
1.0
141
20.0
290
     0
  0
SCALE
  5
21C
102
{ACAD_REACTORS
330
213
102
}
330
213
100
AcDbScale
 70
     0
300
1:30
140
1.0
141
30.0
290
     0
  0
SCALE
  5
21D
102
{ACAD_REACTORS
330
213
102
}
330
213
100
AcDbScale
 70
     0
300
1:40
140
1.0
141
40.0
290
     0
  0
SCALE
  5
21E
102
{ACAD_REACTORS
330
213
102
}
330
213
100
AcDbScale
 70
     0
300
1:50
140
1.0
141
50.0
290
     0
  0
SCALE
  5
21F
102
{ACAD_REACTORS
330
213
102
}
330
213
100
AcDbScale
 70
     0
300
1:100
140
1.0
141
100.0
290
     0
  0
SCALE
  5
220
102
{ACAD_REACTORS
330
213
102
}
330
213
100
AcDbScale
 70
     0
300
2:1
140
2.0
141
1.0
290
     0
  0
SCALE
  5
221
102
{ACAD_REACTORS
330
213
102
}
330
213
100
AcDbScale
 70
     0
300
4:1
140
4.0
141
1.0
290
     0
  0
SCALE
  5
222
102
{ACAD_REACTORS
330
213
102
}
330
213
100
AcDbScale
 70
     0
300
8:1
140
8.0
141
1.0
290
     0
  0
SCALE
  5
223
102
{ACAD_REACTORS
330
213
102
}
330
213
100
AcDbScale
 70
     0
300
10:1
140
10.0
141
1.0
290
     0
  0
SCALE
  5
224
102
{ACAD_REACTORS
330
213
102
}
330
213
100
AcDbScale
 70
     0
300
100:1
140
100.0
141
1.0
290
     0
  0
SCALE
  5
225
102
{ACAD_REACTORS
330
213
102
}
330
213
100
AcDbScale
 70
     0
300
1/128" = 1'-0"
140
0.0078125
141
12.0
290
     0
  0
SCALE
  5
226
102
{ACAD_REACTORS
330
213
102
}
330
213
100
AcDbScale
 70
     0
300
1/64" = 1'-0"
140
0.015625
141
12.0
290
     0
  0
SCALE
  5
227
102
{ACAD_REACTORS
330
213
102
}
330
213
100
AcDbScale
 70
     0
300
1/32" = 1'-0"
140
0.03125
141
12.0
290
     0
  0
SCALE
  5
228
102
{ACAD_REACTORS
330
213
102
}
330
213
100
AcDbScale
 70
     0
300
1/16" = 1'-0"
140
0.0625
141
12.0
290
     0
  0
SCALE
  5
229
102
{ACAD_REACTORS
330
213
102
}
330
213
100
AcDbScale
 70
     0
300
3/32" = 1'-0"
140
0.09375
141
12.0
290
     0
  0
SCALE
  5
22A
102
{ACAD_REACTORS
330
213
102
}
330
213
100
AcDbScale
 70
     0
300
1/8" = 1'-0"
140
0.125
141
12.0
290
     0
  0
SCALE
  5
22B
102
{ACAD_REACTORS
330
213
102
}
330
213
100
AcDbScale
 70
     0
300
3/16" = 1'-0"
140
0.1875
141
12.0
290
     0
  0
SCALE
  5
22C
102
{ACAD_REACTORS
330
213
102
}
330
213
100
AcDbScale
 70
     0
300
1/4" = 1'-0"
140
0.25
141
12.0
290
     0
  0
SCALE
  5
22D
102
{ACAD_REACTORS
330
213
102
}
330
213
100
AcDbScale
 70
     0
300
3/8" = 1'-0"
140
0.375
141
12.0
290
     0
  0
SCALE
  5
22E
102
{ACAD_REACTORS
330
213
102
}
330
213
100
AcDbScale
 70
     0
300
1/2" = 1'-0"
140
0.5
141
12.0
290
     0
  0
SCALE
  5
22F
102
{ACAD_REACTORS
330
213
102
}
330
213
100
AcDbScale
 70
     0
300
3/4" = 1'-0"
140
0.75
141
12.0
290
     0
  0
SCALE
  5
230
102
{ACAD_REACTORS
330
213
102
}
330
213
100
AcDbScale
 70
     0
300
1" = 1'-0"
140
1.0
141
12.0
290
     0
  0
SCALE
  5
231
102
{ACAD_REACTORS
330
213
102
}
330
213
100
AcDbScale
 70
     0
300
1-1/2" = 1'-0"
140
1.5
141
12.0
290
     0
  0
SCALE
  5
232
102
{ACAD_REACTORS
330
213
102
}
330
213
100
AcDbScale
 70
     0
300
3" = 1'-0"
140
3.0
141
12.0
290
     0
  0
SCALE
  5
233
102
{ACAD_REACTORS
330
213
102
}
330
213
100
AcDbScale
 70
     0
300
6" = 1'-0"
140
6.0
141
12.0
290
     0
  0
SCALE
  5
234
102
{ACAD_REACTORS
330
213
102
}
330
213
100
AcDbScale
 70
     0
300
1'-0" = 1'-0"
140
12.0
141
12.0
290
     0
  0
VISUALSTYLE
  5
2F
102
{ACAD_REACTORS
330
2A
102
}
102
{ACAD_XDICTIONARY
360
842
102
}
330
2A
100
AcDbVisualStyle
  2
2dWireframe
 70
     4
 71
     0
 72
     2
 73
     0
 90
        0
 40
-0.6
 41
-30.0
 62
     5
 63
     7
 74
     1
 91
        4
 64
     7
 65
   257
 75
     1
175
     1
 42
1.0
 92
        0
 66
   257
 43
1.0
 76
     1
 77
     6
 78
     2
 67
     7
 79
     5
170
     0
171
     0
290
     0
174
     0
 93
        1
 44
0.0
173
     0
291
     0
 45
0.0
1001
ACAD
1000
AcDbSavedByObjectVersion
1070
     0
  0
VISUALSTYLE
  5
31
102
{ACAD_REACTORS
330
2A
102
}
102
{ACAD_XDICTIONARY
360
846
102
}
330
2A
100
AcDbVisualStyle
  2
3D Hidden
 70
     6
 71
     1
 72
     2
 73
     2
 90
        0
 40
-0.6
 41
-30.0
 62
     5
 63
     7
 74
     2
 91
        2
 64
     7
 65
   257
 75
     2
175
     1
 42
40.0
 92
        0
 66
   257
 43
1.0
 76
     1
 77
     6
 78
     2
 67
     7
 79
     3
170
     0
171
     0
290
     0
174
     0
 93
        1
 44
0.0
173
     0
291
     0
 45
0.0
1001
ACAD
1000
AcDbSavedByObjectVersion
1070
     0
  0
VISUALSTYLE
  5
30
102
{ACAD_REACTORS
330
2A
102
}
102
{ACAD_XDICTIONARY
360
844
102
}
330
2A
100
AcDbVisualStyle
  2
3dWireframe
 70
     5
 71
     0
 72
     2
 73
     0
 90
        0
 40
-0.6
 41
-30.0
 62
     5
 63
     7
 74
     1
 91
        4
 64
     7
 65
   257
 75
     1
175
     1
 42
1.0
 92
        0
 66
   257
 43
1.0
 76
     1
 77
     6
 78
     2
 67
     7
 79
     5
170
     0
171
     0
290
     0
174
     0
 93
        1
 44
0.0
173
     0
291
     0
 45
0.0
1001
ACAD
1000
AcDbSavedByObjectVersion
1070
     0
  0
VISUALSTYLE
  5
32
102
{ACAD_REACTORS
330
2A
102
}
102
{ACAD_XDICTIONARY
360
848
102
}
330
2A
100
AcDbVisualStyle
  2
Basic
 70
     7
 71
     1
 72
     0
 73
     1
 90
        0
 40
-0.6
 41
-30.0
 62
     5
 63
     7
 74
     0
 91
        4
 64
     7
 65
   257
 75
     1
175
     1
 42
1.0
 92
        8
 66
     7
 43
1.0
 76
     1
 77
     6
 78
     2
 67
     7
 79
     5
170
     0
171
     0
290
     0
174
     0
 93
        1
 44
0.0
173
     0
291
     1
 45
0.0
1001
ACAD
1000
AcDbSavedByObjectVersion
1070
     0
  0
VISUALSTYLE
  5
36
102
{ACAD_REACTORS
330
2A
102
}
102
{ACAD_XDICTIONARY
360
850
102
}
330
2A
100
AcDbVisualStyle
  2
Brighten
 70
    12
 71
     2
 72
     2
 73
     0
 90
        0
 40
-0.6
 41
-30.0
 62
     5
 63
     7
 74
     1
 91
        4
 64
     7
 65
   257
 75
     1
175
     1
 42
1.0
 92
        8
 66
     7
 43
1.0
 76
     1
 77
     6
 78
     2
 67
     7
 79
     5
170
     0
171
     0
290
     0
174
     0
 93
        1
 44
50.0
173
     0
291
     1
 45
0.0
1001
ACAD
1000
AcDbSavedByObjectVersion
1070
     0
  0
VISUALSTYLE
  5
3A
102
{ACAD_REACTORS
330
2A
102
}
102
{ACAD_XDICTIONARY
360
858
102
}
330
2A
100
AcDbVisualStyle
  2
ColorChange
 70
    16
 71
     2
 72
     2
 73
     3
 90
        0
 40
-0.6
 41
-30.0
 62
     5
 63
     8
 74
     1
 91
        4
 64
     7
 65
   257
 75
     1
175
     1
 42
1.0
 92
        8
 66
     8
 43
1.0
 76
     1
 77
     6
 78
     2
 67
     7
 79
     5
170
     0
171
     0
290
     0
174
     0
 93
        1
 44
0.0
173
     0
291
     1
 45
0.0
1001
ACAD
1000
AcDbSavedByObjectVersion
1070
     0
  0
VISUALSTYLE
  5
34
102
{ACAD_REACTORS
330
2A
102
}
102
{ACAD_XDICTIONARY
360
84C
102
}
330
2A
100
AcDbVisualStyle
  2
Conceptual
 70
     9
 71
     3
 72
     2
 73
     0
 90
        0
 40
-0.6
 41
-30.0
 62
     5
 63
     7
 74
     2
 91
        2
 64
     7
 65
   257
 75
     1
175
     1
 42
40.0
 92
        8
 66
     7
 43
1.0
 76
     1
 77
     6
 78
     2
 67
     7
 79
     3
170
     0
171
     0
290
     0
174
     0
 93
        1
 44
0.0
173
     0
291
     0
 45
0.0
1001
ACAD
1000
AcDbSavedByObjectVersion
1070
     0
  0
VISUALSTYLE
  5
35
102
{ACAD_REACTORS
330
2A
102
}
102
{ACAD_XDICTIONARY
360
84E
102
}
330
2A
100
AcDbVisualStyle
  2
Dim
 70
    11
 71
     2
 72
     2
 73
     0
 90
        0
 40
-0.6
 41
-30.0
 62
     5
 63
     7
 74
     1
 91
        4
 64
     7
 65
   257
 75
     1
175
     1
 42
1.0
 92
        8
 66
     7
 43
1.0
 76
     1
 77
     6
 78
     2
 67
     7
 79
     5
170
     0
171
     0
290
     0
174
     0
 93
        1
 44
-50.0
173
     0
291
     1
 45
0.0
1001
ACAD
1000
AcDbSavedByObjectVersion
1070
     0
  0
VISUALSTYLE
  5
39
102
{ACAD_REACTORS
330
2A
102
}
102
{ACAD_XDICTIONARY
360
856
102
}
330
2A
100
AcDbVisualStyle
  2
Facepattern
 70
    15
 71
     2
 72
     2
 73
     0
 90
        0
 40
-0.6
 41
-30.0
 62
     5
 63
     7
 74
     1
 91
        4
 64
     7
 65
   257
 75
     1
175
     1
 42
1.0
 92
        8
 66
     7
 43
1.0
 76
     1
 77
     6
 78
     2
 67
     7
 79
     5
170
     0
171
     0
290
     0
174
     0
 93
        1
 44
0.0
173
     0
291
     1
 45
0.0
1001
ACAD
1000
AcDbSavedByObjectVersion
1070
     0
  0
VISUALSTYLE
  5
2B
102
{ACAD_REACTORS
330
2A
102
}
102
{ACAD_XDICTIONARY
360
83A
102
}
330
2A
100
AcDbVisualStyle
  2
Flat
 70
     0
 71
     2
 72
     1
 73
     1
 90
        2
 40
-0.6
 41
30.0
 62
     5
 63
     7
 74
     0
 91
        4
 64
     7
 65
   257
 75
     1
175
     1
 42
1.0
 92
        8
 66
     7
 43
1.0
 76
     1
 77
     6
 78
     2
 67
     7
 79
     5
170
     0
171
     0
290
     0
174
     0
 93
       13
 44
0.0
173
     0
291
     1
 45
0.0
1001
ACAD
1000
AcDbSavedByObjectVersion
1070
     0
  0
VISUALSTYLE
  5
2C
102
{ACAD_REACTORS
330
2A
102
}
102
{ACAD_XDICTIONARY
360
83C
102
}
330
2A
100
AcDbVisualStyle
  2
FlatWithEdges
 70
     1
 71
     2
 72
     1
 73
     1
 90
        2
 40
-0.6
 41
30.0
 62
     5
 63
     7
 74
     1
 91
        4
 64
     7
 65
   257
 75
     1
175
     1
 42
1.0
 92
        0
 66
   257
 43
1.0
 76
     1
 77
     6
 78
     2
 67
     7
 79
     5
170
     0
171
     0
290
     0
174
     0
 93
       13
 44
0.0
173
     0
291
     1
 45
0.0
1001
ACAD
1000
AcDbSavedByObjectVersion
1070
     0
  0
VISUALSTYLE
  5
2D
102
{ACAD_REACTORS
330
2A
102
}
102
{ACAD_XDICTIONARY
360
83E
102
}
330
2A
100
AcDbVisualStyle
  2
Gouraud
 70
     2
 71
     2
 72
     2
 73
     1
 90
        2
 40
-0.6
 41
30.0
 62
     5
 63
     7
 74
     0
 91
        4
 64
     7
 65
   257
 75
     1
175
     1
 42
1.0
 92
        0
 66
     7
 43
1.0
 76
     1
 77
     6
 78
     2
 67
     7
 79
     5
170
     0
171
     0
290
     0
174
     0
 93
       13
 44
0.0
173
     0
291
     1
 45
0.0
1001
ACAD
1000
AcDbSavedByObjectVersion
1070
     0
  0
VISUALSTYLE
  5
2E
102
{ACAD_REACTORS
330
2A
102
}
102
{ACAD_XDICTIONARY
360
840
102
}
330
2A
100
AcDbVisualStyle
  2
GouraudWithEdges
 70
     3
 71
     2
 72
     2
 73
     1
 90
        2
 40
-0.6
 41
30.0
 62
     5
 63
     7
 74
     1
 91
        4
 64
     7
 65
   257
 75
     1
175
     1
 42
1.0
 92
        0
 66
   257
 43
1.0
 76
     1
 77
     6
 78
     2
 67
     7
 79
     5
170
     0
171
     0
290
     0
174
     0
 93
       13
 44
0.0
173
     0
291
     1
 45
0.0
1001
ACAD
1000
AcDbSavedByObjectVersion
1070
     0
  0
VISUALSTYLE
  5
38
102
{ACAD_REACTORS
330
2A
102
}
102
{ACAD_XDICTIONARY
360
854
102
}
330
2A
100
AcDbVisualStyle
  2
Linepattern
 70
    14
 71
     2
 72
     2
 73
     0
 90
        0
 40
-0.6
 41
-30.0
 62
     5
 63
     7
 74
     1
 91
        4
 64
     7
 65
   257
 75
     7
175
     7
 42
1.0
 92
        8
 66
     7
 43
1.0
 76
     1
 77
     6
 78
     2
 67
     7
 79
     5
170
     0
171
     0
290
     0
174
     0
 93
        1
 44
0.0
173
     0
291
     1
 45
0.0
1001
ACAD
1000
AcDbSavedByObjectVersion
1070
     0
  0
VISUALSTYLE
  5
33
102
{ACAD_REACTORS
330
2A
102
}
102
{ACAD_XDICTIONARY
360
84A
102
}
330
2A
100
AcDbVisualStyle
  2
Realistic
 70
     8
 71
     2
 72
     2
 73
     0
 90
        0
 40
-0.6
 41
-30.0
 62
     5
 63
     7
 74
     1
 91
        0
 64
     7
 65
   257
 75
     1
175
     1
 42
1.0
 92
        8
 66
     8
 43
1.0
 76
     1
 77
     6
 78
     2
 67
     7
 79
     5
170
     0
171
     0
290
     0
174
     0
 93
       13
 44
0.0
173
     0
291
     0
 45
0.0
1001
ACAD
1000
AcDbSavedByObjectVersion
1070
     0
  0
VISUALSTYLE
  5
37
102
{ACAD_REACTORS
330
2A
102
}
102
{ACAD_XDICTIONARY
360
852
102
}
330
2A
100
AcDbVisualStyle
  2
Thicken
 70
    13
 71
     2
 72
     2
 73
     0
 90
        0
 40
-0.6
 41
-30.0
 62
     5
 63
     7
 74
     1
 91
        4
 64
     7
 65
   257
 75
     1
175
     1
 42
1.0
 92
       12
 66
     7
 43
1.0
 76
     1
 77
     6
 78
     2
 67
     7
 79
     5
170
     0
171
     0
290
     0
174
     0
 93
        1
 44
0.0
173
     0
291
     1
 45
0.0
1001
ACAD
1000
AcDbSavedByObjectVersion
1070
     0
  0
DICTIONARYVAR
  5
837
102
{ACAD_REACTORS
330
832
102
}
330
832
100
DictionaryVariables
280
     0
  1
1:1
  0
DICTIONARYVAR
  5
838
102
{ACAD_REACTORS
330
832
102
}
330
832
100
DictionaryVariables
280
     0
  1
2
  0
DICTIONARYVAR
  5
839
102
{ACAD_REACTORS
330
832
102
}
330
832
100
DictionaryVariables
280
     0
  1
1
  0
DICTIONARYVAR
  5
836
102
{ACAD_REACTORS
330
832
102
}
330
832
100
DictionaryVariables
280
     0
  1
80.000000
  0
DICTIONARYVAR
  5
835
102
{ACAD_REACTORS
330
832
102
}
330
832
100
DictionaryVariables
280
     0
  1
5.000000
  0
DICTIONARY
  5
85C
330
3D
100
AcDbDictionary
280
     1
281
     1
  3
ACAD_XREC_ROUNDTRIP
360
85D
  0
DICTIONARY
  5
85A
330
3C
100
AcDbDictionary
280
     1
281
     1
  3
ACAD_XREC_ROUNDTRIP
360
85B
  0
DICTIONARY
  5
85E
330
3E
100
AcDbDictionary
280
     1
281
     1
  3
ACAD_XREC_ROUNDTRIP
360
85F
  0
DICTIONARY
  5
842
330
2F
100
AcDbDictionary
280
     1
281
     1
  3
ACAD_XREC_ROUNDTRIP
360
843
  0
DICTIONARY
  5
846
330
31
100
AcDbDictionary
280
     1
281
     1
  3
ACAD_XREC_ROUNDTRIP
360
847
  0
DICTIONARY
  5
844
330
30
100
AcDbDictionary
280
     1
281
     1
  3
ACAD_XREC_ROUNDTRIP
360
845
  0
DICTIONARY
  5
848
330
32
100
AcDbDictionary
280
     1
281
     1
  3
ACAD_XREC_ROUNDTRIP
360
849
  0
DICTIONARY
  5
850
330
36
100
AcDbDictionary
280
     1
281
     1
  3
ACAD_XREC_ROUNDTRIP
360
851
  0
DICTIONARY
  5
858
330
3A
100
AcDbDictionary
280
     1
281
     1
  3
ACAD_XREC_ROUNDTRIP
360
859
  0
DICTIONARY
  5
84C
330
34
100
AcDbDictionary
280
     1
281
     1
  3
ACAD_XREC_ROUNDTRIP
360
84D
  0
DICTIONARY
  5
84E
330
35
100
AcDbDictionary
280
     1
281
     1
  3
ACAD_XREC_ROUNDTRIP
360
84F
  0
DICTIONARY
  5
856
330
39
100
AcDbDictionary
280
     1
281
     1
  3
ACAD_XREC_ROUNDTRIP
360
857
  0
DICTIONARY
  5
83A
330
2B
100
AcDbDictionary
280
     1
281
     1
  3
ACAD_XREC_ROUNDTRIP
360
83B
  0
DICTIONARY
  5
83C
330
2C
100
AcDbDictionary
280
     1
281
     1
  3
ACAD_XREC_ROUNDTRIP
360
83D
  0
DICTIONARY
  5
83E
330
2D
100
AcDbDictionary
280
     1
281
     1
  3
ACAD_XREC_ROUNDTRIP
360
83F
  0
DICTIONARY
  5
840
330
2E
100
AcDbDictionary
280
     1
281
     1
  3
ACAD_XREC_ROUNDTRIP
360
841
  0
DICTIONARY
  5
854
330
38
100
AcDbDictionary
280
     1
281
     1
  3
ACAD_XREC_ROUNDTRIP
360
855
  0
DICTIONARY
  5
84A
330
33
100
AcDbDictionary
280
     1
281
     1
  3
ACAD_XREC_ROUNDTRIP
360
84B
  0
DICTIONARY
  5
852
330
37
100
AcDbDictionary
280
     1
281
     1
  3
ACAD_XREC_ROUNDTRIP
360
853
  0
XRECORD
  5
85D
102
{ACAD_REACTORS
330
85C
102
}
330
85C
100
AcDbXrecord
280
     1
102
MATERIAL
148
0.0
149
0.0
149
0.0
 93
        0
 94
      127
282
     0
 72
     1
 77
     1
171
     1
175
     1
179
     1
273
     0
  0
XRECORD
  5
85B
102
{ACAD_REACTORS
330
85A
102
}
330
85A
100
AcDbXrecord
280
     1
102
MATERIAL
148
0.0
149
0.0
149
0.0
 93
        0
 94
      127
282
     0
 72
     1
 77
     1
171
     1
175
     1
179
     1
273
     0
  0
XRECORD
  5
85F
102
{ACAD_REACTORS
330
85E
102
}
330
85E
100
AcDbXrecord
280
     1
102
MATERIAL
148
0.0
149
0.0
149
0.0
 93
        0
 94
      127
282
     0
 72
     1
 77
     1
171
     1
175
     1
179
     1
273
     0
  0
XRECORD
  5
843
102
{ACAD_REACTORS
330
842
102
}
330
842
100
AcDbXrecord
280
     1
102
RTVSPropertyOp0
 70
     1
102
RTVSPropertyOp1
 70
     1
102
RTVSPropertyOp2
 70
     1
102
RTVSPropertyOp3
 70
     1
102
RTVSPropertyOp4
 70
     1
102
RTVSPropertyOp5
 70
     1
102
RTVSPropertyOp6
 70
     1
102
RTVSPropertyOp7
 70
     1
102
RTVSPropertyOp8
 70
     1
102
RTVSPropertyOp9
 70
     1
102
RTVSPropertyOp10
 70
     1
102
RTVSPropertyOp11
 70
     1
102
RTVSPropertyOp12
 70
     1
102
RTVSPropertyOp13
 70
     1
102
RTVSPropertyOp14
 70
     1
102
RTVSPropertyOp15
 70
     1
102
RTVSPropertyOp16
 70
     1
102
RTVSPropertyOp17
 70
     1
102
RTVSPropertyOp18
 70
     1
102
RTVSPropertyOp19
 70
     1
102
RTVSPropertyOp20
 70
     1
102
RTVSPropertyOp21
 70
     1
102
RTVSPropertyOp22
 70
     1
102
RTVSPropertyOp23
 70
     1
102
RTVSPropertyOp24
 70
     1
102
RTVSPropertyOp25
 70
     1
102
RTVSPropertyOp26
 70
     1
102
RTVSPropertyOp27
 70
     1
  0
XRECORD
  5
847
102
{ACAD_REACTORS
330
846
102
}
330
846
100
AcDbXrecord
280
     1
102
RTVSPropertyOp0
 70
     1
102
RTVSPropertyOp1
 70
     1
102
RTVSPropertyOp2
 70
     1
102
RTVSPropertyOp3
 70
     1
102
RTVSPropertyOp4
 70
     1
102
RTVSPropertyOp5
 70
     1
102
RTVSPropertyOp6
 70
     1
102
RTVSPropertyOp7
 70
     1
102
RTVSPropertyOp8
 70
     1
102
RTVSPropertyOp9
 70
     1
102
RTVSPropertyOp10
 70
     1
102
RTVSPropertyOp11
 70
     1
102
RTVSPropertyOp12
 70
     1
102
RTVSPropertyOp13
 70
     1
102
RTVSPropertyOp14
 70
     1
102
RTVSPropertyOp15
 70
     1
102
RTVSPropertyOp16
 70
     1
102
RTVSPropertyOp17
 70
     1
102
RTVSPropertyOp18
 70
     1
102
RTVSPropertyOp19
 70
     1
102
RTVSPropertyOp20
 70
     1
102
RTVSPropertyOp21
 70
     1
102
RTVSPropertyOp22
 70
     1
102
RTVSPropertyOp23
 70
     1
102
RTVSPropertyOp24
 70
     1
102
RTVSPropertyOp25
 70
     1
102
RTVSPropertyOp26
 70
     1
102
RTVSPropertyOp27
 70
     1
  0
XRECORD
  5
845
102
{ACAD_REACTORS
330
844
102
}
330
844
100
AcDbXrecord
280
     1
102
RTVSPropertyOp0
 70
     1
102
RTVSPropertyOp1
 70
     1
102
RTVSPropertyOp2
 70
     1
102
RTVSPropertyOp3
 70
     1
102
RTVSPropertyOp4
 70
     1
102
RTVSPropertyOp5
 70
     1
102
RTVSPropertyOp6
 70
     1
102
RTVSPropertyOp7
 70
     1
102
RTVSPropertyOp8
 70
     1
102
RTVSPropertyOp9
 70
     1
102
RTVSPropertyOp10
 70
     1
102
RTVSPropertyOp11
 70
     1
102
RTVSPropertyOp12
 70
     1
102
RTVSPropertyOp13
 70
     1
102
RTVSPropertyOp14
 70
     1
102
RTVSPropertyOp15
 70
     1
102
RTVSPropertyOp16
 70
     1
102
RTVSPropertyOp17
 70
     1
102
RTVSPropertyOp18
 70
     1
102
RTVSPropertyOp19
 70
     1
102
RTVSPropertyOp20
 70
     1
102
RTVSPropertyOp21
 70
     1
102
RTVSPropertyOp22
 70
     1
102
RTVSPropertyOp23
 70
     1
102
RTVSPropertyOp24
 70
     1
102
RTVSPropertyOp25
 70
     1
102
RTVSPropertyOp26
 70
     1
102
RTVSPropertyOp27
 70
     1
  0
XRECORD
  5
849
102
{ACAD_REACTORS
330
848
102
}
330
848
100
AcDbXrecord
280
     1
102
RTVSPropertyOp0
 70
     1
102
RTVSPropertyOp1
 70
     1
102
RTVSPropertyOp2
 70
     1
102
RTVSPropertyOp3
 70
     1
102
RTVSPropertyOp4
 70
     1
102
RTVSPropertyOp5
 70
     1
102
RTVSPropertyOp6
 70
     1
102
RTVSPropertyOp7
 70
     1
102
RTVSPropertyOp8
 70
     1
102
RTVSPropertyOp9
 70
     1
102
RTVSPropertyOp10
 70
     1
102
RTVSPropertyOp11
 70
     1
102
RTVSPropertyOp12
 70
     1
102
RTVSPropertyOp13
 70
     1
102
RTVSPropertyOp14
 70
     1
102
RTVSPropertyOp15
 70
     1
102
RTVSPropertyOp16
 70
     1
102
RTVSPropertyOp17
 70
     1
102
RTVSPropertyOp18
 70
     1
102
RTVSPropertyOp19
 70
     1
102
RTVSPropertyOp20
 70
     1
102
RTVSPropertyOp21
 70
     1
102
RTVSPropertyOp22
 70
     1
102
RTVSPropertyOp23
 70
     1
102
RTVSPropertyOp24
 70
     1
102
RTVSPropertyOp25
 70
     1
102
RTVSPropertyOp26
 70
     1
102
RTVSPropertyOp27
 70
     1
  0
XRECORD
  5
851
102
{ACAD_REACTORS
330
850
102
}
330
850
100
AcDbXrecord
280
     1
102
RTVSPropertyOp0
 70
     1
102
RTVSPropertyOp1
 70
     1
102
RTVSPropertyOp2
 70
     1
102
RTVSPropertyOp3
 70
     1
102
RTVSPropertyOp4
 70
     1
102
RTVSPropertyOp5
 70
     1
102
RTVSPropertyOp6
 70
     1
102
RTVSPropertyOp7
 70
     1
102
RTVSPropertyOp8
 70
     1
102
RTVSPropertyOp9
 70
     1
102
RTVSPropertyOp10
 70
     1
102
RTVSPropertyOp11
 70
     1
102
RTVSPropertyOp12
 70
     1
102
RTVSPropertyOp13
 70
     1
102
RTVSPropertyOp14
 70
     1
102
RTVSPropertyOp15
 70
     1
102
RTVSPropertyOp16
 70
     1
102
RTVSPropertyOp17
 70
     1
102
RTVSPropertyOp18
 70
     1
102
RTVSPropertyOp19
 70
     1
102
RTVSPropertyOp20
 70
     1
102
RTVSPropertyOp21
 70
     1
102
RTVSPropertyOp22
 70
     1
102
RTVSPropertyOp23
 70
     1
102
RTVSPropertyOp24
 70
     1
102
RTVSPropertyOp25
 70
     1
102
RTVSPropertyOp26
 70
     1
102
RTVSPropertyOp27
 70
     1
  0
XRECORD
  5
859
102
{ACAD_REACTORS
330
858
102
}
330
858
100
AcDbXrecord
280
     1
102
RTVSPropertyOp0
 70
     1
102
RTVSPropertyOp1
 70
     1
102
RTVSPropertyOp2
 70
     1
102
RTVSPropertyOp3
 70
     1
102
RTVSPropertyOp4
 70
     1
102
RTVSPropertyOp5
 70
     1
102
RTVSPropertyOp6
 70
     1
102
RTVSPropertyOp7
 70
     1
102
RTVSPropertyOp8
 70
     1
102
RTVSPropertyOp9
 70
     1
102
RTVSPropertyOp10
 70
     1
102
RTVSPropertyOp11
 70
     1
102
RTVSPropertyOp12
 70
     1
102
RTVSPropertyOp13
 70
     1
102
RTVSPropertyOp14
 70
     1
102
RTVSPropertyOp15
 70
     1
102
RTVSPropertyOp16
 70
     1
102
RTVSPropertyOp17
 70
     1
102
RTVSPropertyOp18
 70
     1
102
RTVSPropertyOp19
 70
     1
102
RTVSPropertyOp20
 70
     1
102
RTVSPropertyOp21
 70
     1
102
RTVSPropertyOp22
 70
     1
102
RTVSPropertyOp23
 70
     1
102
RTVSPropertyOp24
 70
     1
102
RTVSPropertyOp25
 70
     1
102
RTVSPropertyOp26
 70
     1
102
RTVSPropertyOp27
 70
     1
  0
XRECORD
  5
84D
102
{ACAD_REACTORS
330
84C
102
}
330
84C
100
AcDbXrecord
280
     1
102
RTVSPropertyOp0
 70
     1
102
RTVSPropertyOp1
 70
     1
102
RTVSPropertyOp2
 70
     1
102
RTVSPropertyOp3
 70
     1
102
RTVSPropertyOp4
 70
     1
102
RTVSPropertyOp5
 70
     1
102
RTVSPropertyOp6
 70
     1
102
RTVSPropertyOp7
 70
     1
102
RTVSPropertyOp8
 70
     1
102
RTVSPropertyOp9
 70
     1
102
RTVSPropertyOp10
 70
     1
102
RTVSPropertyOp11
 70
     1
102
RTVSPropertyOp12
 70
     1
102
RTVSPropertyOp13
 70
     1
102
RTVSPropertyOp14
 70
     1
102
RTVSPropertyOp15
 70
     1
102
RTVSPropertyOp16
 70
     1
102
RTVSPropertyOp17
 70
     1
102
RTVSPropertyOp18
 70
     1
102
RTVSPropertyOp19
 70
     1
102
RTVSPropertyOp20
 70
     1
102
RTVSPropertyOp21
 70
     1
102
RTVSPropertyOp22
 70
     1
102
RTVSPropertyOp23
 70
     1
102
RTVSPropertyOp24
 70
     1
102
RTVSPropertyOp25
 70
     1
102
RTVSPropertyOp26
 70
     1
102
RTVSPropertyOp27
 70
     1
  0
XRECORD
  5
84F
102
{ACAD_REACTORS
330
84E
102
}
330
84E
100
AcDbXrecord
280
     1
102
RTVSPropertyOp0
 70
     1
102
RTVSPropertyOp1
 70
     1
102
RTVSPropertyOp2
 70
     1
102
RTVSPropertyOp3
 70
     1
102
RTVSPropertyOp4
 70
     1
102
RTVSPropertyOp5
 70
     1
102
RTVSPropertyOp6
 70
     1
102
RTVSPropertyOp7
 70
     1
102
RTVSPropertyOp8
 70
     1
102
RTVSPropertyOp9
 70
     1
102
RTVSPropertyOp10
 70
     1
102
RTVSPropertyOp11
 70
     1
102
RTVSPropertyOp12
 70
     1
102
RTVSPropertyOp13
 70
     1
102
RTVSPropertyOp14
 70
     1
102
RTVSPropertyOp15
 70
     1
102
RTVSPropertyOp16
 70
     1
102
RTVSPropertyOp17
 70
     1
102
RTVSPropertyOp18
 70
     1
102
RTVSPropertyOp19
 70
     1
102
RTVSPropertyOp20
 70
     1
102
RTVSPropertyOp21
 70
     1
102
RTVSPropertyOp22
 70
     1
102
RTVSPropertyOp23
 70
     1
102
RTVSPropertyOp24
 70
     1
102
RTVSPropertyOp25
 70
     1
102
RTVSPropertyOp26
 70
     1
102
RTVSPropertyOp27
 70
     1
  0
XRECORD
  5
857
102
{ACAD_REACTORS
330
856
102
}
330
856
100
AcDbXrecord
280
     1
102
RTVSPropertyOp0
 70
     1
102
RTVSPropertyOp1
 70
     1
102
RTVSPropertyOp2
 70
     1
102
RTVSPropertyOp3
 70
     1
102
RTVSPropertyOp4
 70
     1
102
RTVSPropertyOp5
 70
     1
102
RTVSPropertyOp6
 70
     1
102
RTVSPropertyOp7
 70
     1
102
RTVSPropertyOp8
 70
     1
102
RTVSPropertyOp9
 70
     1
102
RTVSPropertyOp10
 70
     1
102
RTVSPropertyOp11
 70
     1
102
RTVSPropertyOp12
 70
     1
102
RTVSPropertyOp13
 70
     1
102
RTVSPropertyOp14
 70
     1
102
RTVSPropertyOp15
 70
     1
102
RTVSPropertyOp16
 70
     1
102
RTVSPropertyOp17
 70
     1
102
RTVSPropertyOp18
 70
     1
102
RTVSPropertyOp19
 70
     1
102
RTVSPropertyOp20
 70
     1
102
RTVSPropertyOp21
 70
     1
102
RTVSPropertyOp22
 70
     1
102
RTVSPropertyOp23
 70
     1
102
RTVSPropertyOp24
 70
     1
102
RTVSPropertyOp25
 70
     1
102
RTVSPropertyOp26
 70
     1
102
RTVSPropertyOp27
 70
     1
  0
XRECORD
  5
83B
102
{ACAD_REACTORS
330
83A
102
}
330
83A
100
AcDbXrecord
280
     1
102
RTVSPropertyOp0
 70
     1
102
RTVSPropertyOp1
 70
     1
102
RTVSPropertyOp2
 70
     1
102
RTVSPropertyOp3
 70
     1
102
RTVSPropertyOp4
 70
     1
102
RTVSPropertyOp5
 70
     1
102
RTVSPropertyOp6
 70
     1
102
RTVSPropertyOp7
 70
     1
102
RTVSPropertyOp8
 70
     1
102
RTVSPropertyOp9
 70
     1
102
RTVSPropertyOp10
 70
     1
102
RTVSPropertyOp11
 70
     1
102
RTVSPropertyOp12
 70
     1
102
RTVSPropertyOp13
 70
     1
102
RTVSPropertyOp14
 70
     1
102
RTVSPropertyOp15
 70
     1
102
RTVSPropertyOp16
 70
     1
102
RTVSPropertyOp17
 70
     1
102
RTVSPropertyOp18
 70
     1
102
RTVSPropertyOp19
 70
     1
102
RTVSPropertyOp20
 70
     1
102
RTVSPropertyOp21
 70
     1
102
RTVSPropertyOp22
 70
     1
102
RTVSPropertyOp23
 70
     1
102
RTVSPropertyOp24
 70
     1
102
RTVSPropertyOp25
 70
     1
102
RTVSPropertyOp26
 70
     1
102
RTVSPropertyOp27
 70
     1
  0
XRECORD
  5
83D
102
{ACAD_REACTORS
330
83C
102
}
330
83C
100
AcDbXrecord
280
     1
102
RTVSPropertyOp0
 70
     1
102
RTVSPropertyOp1
 70
     1
102
RTVSPropertyOp2
 70
     1
102
RTVSPropertyOp3
 70
     1
102
RTVSPropertyOp4
 70
     1
102
RTVSPropertyOp5
 70
     1
102
RTVSPropertyOp6
 70
     1
102
RTVSPropertyOp7
 70
     1
102
RTVSPropertyOp8
 70
     1
102
RTVSPropertyOp9
 70
     1
102
RTVSPropertyOp10
 70
     1
102
RTVSPropertyOp11
 70
     1
102
RTVSPropertyOp12
 70
     1
102
RTVSPropertyOp13
 70
     1
102
RTVSPropertyOp14
 70
     1
102
RTVSPropertyOp15
 70
     1
102
RTVSPropertyOp16
 70
     1
102
RTVSPropertyOp17
 70
     1
102
RTVSPropertyOp18
 70
     1
102
RTVSPropertyOp19
 70
     1
102
RTVSPropertyOp20
 70
     1
102
RTVSPropertyOp21
 70
     1
102
RTVSPropertyOp22
 70
     1
102
RTVSPropertyOp23
 70
     1
102
RTVSPropertyOp24
 70
     1
102
RTVSPropertyOp25
 70
     1
102
RTVSPropertyOp26
 70
     1
102
RTVSPropertyOp27
 70
     1
  0
XRECORD
  5
83F
102
{ACAD_REACTORS
330
83E
102
}
330
83E
100
AcDbXrecord
280
     1
102
RTVSPropertyOp0
 70
     1
102
RTVSPropertyOp1
 70
     1
102
RTVSPropertyOp2
 70
     1
102
RTVSPropertyOp3
 70
     1
102
RTVSPropertyOp4
 70
     1
102
RTVSPropertyOp5
 70
     1
102
RTVSPropertyOp6
 70
     1
102
RTVSPropertyOp7
 70
     1
102
RTVSPropertyOp8
 70
     1
102
RTVSPropertyOp9
 70
     1
102
RTVSPropertyOp10
 70
     1
102
RTVSPropertyOp11
 70
     1
102
RTVSPropertyOp12
 70
     1
102
RTVSPropertyOp13
 70
     1
102
RTVSPropertyOp14
 70
     1
102
RTVSPropertyOp15
 70
     1
102
RTVSPropertyOp16
 70
     1
102
RTVSPropertyOp17
 70
     1
102
RTVSPropertyOp18
 70
     1
102
RTVSPropertyOp19
 70
     1
102
RTVSPropertyOp20
 70
     1
102
RTVSPropertyOp21
 70
     1
102
RTVSPropertyOp22
 70
     1
102
RTVSPropertyOp23
 70
     1
102
RTVSPropertyOp24
 70
     1
102
RTVSPropertyOp25
 70
     1
102
RTVSPropertyOp26
 70
     1
102
RTVSPropertyOp27
 70
     1
  0
XRECORD
  5
841
102
{ACAD_REACTORS
330
840
102
}
330
840
100
AcDbXrecord
280
     1
102
RTVSPropertyOp0
 70
     1
102
RTVSPropertyOp1
 70
     1
102
RTVSPropertyOp2
 70
     1
102
RTVSPropertyOp3
 70
     1
102
RTVSPropertyOp4
 70
     1
102
RTVSPropertyOp5
 70
     1
102
RTVSPropertyOp6
 70
     1
102
RTVSPropertyOp7
 70
     1
102
RTVSPropertyOp8
 70
     1
102
RTVSPropertyOp9
 70
     1
102
RTVSPropertyOp10
 70
     1
102
RTVSPropertyOp11
 70
     1
102
RTVSPropertyOp12
 70
     1
102
RTVSPropertyOp13
 70
     1
102
RTVSPropertyOp14
 70
     1
102
RTVSPropertyOp15
 70
     1
102
RTVSPropertyOp16
 70
     1
102
RTVSPropertyOp17
 70
     1
102
RTVSPropertyOp18
 70
     1
102
RTVSPropertyOp19
 70
     1
102
RTVSPropertyOp20
 70
     1
102
RTVSPropertyOp21
 70
     1
102
RTVSPropertyOp22
 70
     1
102
RTVSPropertyOp23
 70
     1
102
RTVSPropertyOp24
 70
     1
102
RTVSPropertyOp25
 70
     1
102
RTVSPropertyOp26
 70
     1
102
RTVSPropertyOp27
 70
     1
  0
XRECORD
  5
855
102
{ACAD_REACTORS
330
854
102
}
330
854
100
AcDbXrecord
280
     1
102
RTVSPropertyOp0
 70
     1
102
RTVSPropertyOp1
 70
     1
102
RTVSPropertyOp2
 70
     1
102
RTVSPropertyOp3
 70
     1
102
RTVSPropertyOp4
 70
     1
102
RTVSPropertyOp5
 70
     1
102
RTVSPropertyOp6
 70
     1
102
RTVSPropertyOp7
 70
     1
102
RTVSPropertyOp8
 70
     1
102
RTVSPropertyOp9
 70
     1
102
RTVSPropertyOp10
 70
     1
102
RTVSPropertyOp11
 70
     1
102
RTVSPropertyOp12
 70
     1
102
RTVSPropertyOp13
 70
     1
102
RTVSPropertyOp14
 70
     1
102
RTVSPropertyOp15
 70
     1
102
RTVSPropertyOp16
 70
     1
102
RTVSPropertyOp17
 70
     1
102
RTVSPropertyOp18
 70
     1
102
RTVSPropertyOp19
 70
     1
102
RTVSPropertyOp20
 70
     1
102
RTVSPropertyOp21
 70
     1
102
RTVSPropertyOp22
 70
     1
102
RTVSPropertyOp23
 70
     1
102
RTVSPropertyOp24
 70
     1
102
RTVSPropertyOp25
 70
     1
102
RTVSPropertyOp26
 70
     1
102
RTVSPropertyOp27
 70
     1
  0
XRECORD
  5
84B
102
{ACAD_REACTORS
330
84A
102
}
330
84A
100
AcDbXrecord
280
     1
102
RTVSPropertyOp0
 70
     1
102
RTVSPropertyOp1
 70
     1
102
RTVSPropertyOp2
 70
     1
102
RTVSPropertyOp3
 70
     1
102
RTVSPropertyOp4
 70
     1
102
RTVSPropertyOp5
 70
     1
102
RTVSPropertyOp6
 70
     1
102
RTVSPropertyOp7
 70
     1
102
RTVSPropertyOp8
 70
     1
102
RTVSPropertyOp9
 70
     1
102
RTVSPropertyOp10
 70
     1
102
RTVSPropertyOp11
 70
     1
102
RTVSPropertyOp12
 70
     1
102
RTVSPropertyOp13
 70
     1
102
RTVSPropertyOp14
 70
     1
102
RTVSPropertyOp15
 70
     1
102
RTVSPropertyOp16
 70
     1
102
RTVSPropertyOp17
 70
     1
102
RTVSPropertyOp18
 70
     1
102
RTVSPropertyOp19
 70
     1
102
RTVSPropertyOp20
 70
     1
102
RTVSPropertyOp21
 70
     1
102
RTVSPropertyOp22
 70
     1
102
RTVSPropertyOp23
 70
     1
102
RTVSPropertyOp24
 70
     1
102
RTVSPropertyOp25
 70
     1
102
RTVSPropertyOp26
 70
     1
102
RTVSPropertyOp27
 70
     1
  0
XRECORD
  5
853
102
{ACAD_REACTORS
330
852
102
}
330
852
100
AcDbXrecord
280
     1
102
RTVSPropertyOp0
 70
     1
102
RTVSPropertyOp1
 70
     1
102
RTVSPropertyOp2
 70
     1
102
RTVSPropertyOp3
 70
     1
102
RTVSPropertyOp4
 70
     1
102
RTVSPropertyOp5
 70
     1
102
RTVSPropertyOp6
 70
     1
102
RTVSPropertyOp7
 70
     1
102
RTVSPropertyOp8
 70
     1
102
RTVSPropertyOp9
 70
     1
102
RTVSPropertyOp10
 70
     1
102
RTVSPropertyOp11
 70
     1
102
RTVSPropertyOp12
 70
     1
102
RTVSPropertyOp13
 70
     1
102
RTVSPropertyOp14
 70
     1
102
RTVSPropertyOp15
 70
     1
102
RTVSPropertyOp16
 70
     1
102
RTVSPropertyOp17
 70
     1
102
RTVSPropertyOp18
 70
     1
102
RTVSPropertyOp19
 70
     1
102
RTVSPropertyOp20
 70
     1
102
RTVSPropertyOp21
 70
     1
102
RTVSPropertyOp22
 70
     1
102
RTVSPropertyOp23
 70
     1
102
RTVSPropertyOp24
 70
     1
102
RTVSPropertyOp25
 70
     1
102
RTVSPropertyOp26
 70
     1
102
RTVSPropertyOp27
 70
     1
  0
ENDSEC
  0
EOF
