  0
SECTION
  2
HEADER
  9
$ACADVER
  1
AC1015
  9
$ACADMAINTVER
 70
     6
  9
$DWGCODEPAGE
  3
ANSI_1252
  9
$INSBASE
 10
0.0
 20
0.0
 30
0.0
  9
$EXTMIN
 10
0.0
 20
0.0
 30
0.0
  9
$EXTMAX
 10
25.0
 20
35.0
 30
0.0
  9
$LIMMIN
 10
0.0
 20
0.0
  9
$LIMMAX
 10
420.0
 20
297.0
  9
$ORTHOMODE
 70
     0
  9
$REGENMODE
 70
     1
  9
$FILLMODE
 70
     1
  9
$QTEXTMODE
 70
     0
  9
$MIRRTEXT
 70
     1
  9
$LTSCALE
 40
4.35
  9
$ATTMODE
 70
     1
  9
$TEXTSIZE
 40
2.5
  9
$TRACEWID
 40
1.0
  9
$TEXTSTYLE
  7
Standard
  9
$CLAYER
  8
0
  9
$CELTYPE
  6
ByLayer
  9
$CECOLOR
 62
   256
  9
$CELTSCALE
 40
1.0
  9
$DISPSILH
 70
     0
  9
$DIMSCALE
 40
1.0
  9
$DIMASZ
 40
2.5
  9
$DIMEXO
 40
0.625
  9
$DIMDLI
 40
3.75
  9
$DIMRND
 40
0.0
  9
$DIMDLE
 40
0.0
  9
$DIMEXE
 40
1.25
  9
$DIMTP
 40
0.0
  9
$DIMTM
 40
0.0
  9
$DIMTXT
 40
2.5
  9
$DIMCEN
 40
2.5
  9
$DIMTSZ
 40
0.0
  9
$DIMTOL
 70
     0
  9
$DIMLIM
 70
     0
  9
$DIMTIH
 70
     0
  9
$DIMTOH
 70
     0
  9
$DIMSE1
 70
     0
  9
$DIMSE2
 70
     0
  9
$DIMTAD
 70
     1
  9
$DIMZIN
 70
     8
  9
$DIMBLK
  1

  9
$DIMASO
 70
     1
  9
$DIMSHO
 70
     1
  9
$DIMPOST
  1

  9
$DIMAPOST
  1

  9
$DIMALT
 70
     0
  9
$DIMALTD
 70
     3
  9
$DIMALTF
 40
0.03937007874016
  9
$DIMLFAC
 40
1.0
  9
$DIMTOFL
 70
     1
  9
$DIMTVP
 40
0.0
  9
$DIMTIX
 70
     0
  9
$DIMSOXD
 70
     0
  9
$DIMSAH
 70
     0
  9
$DIMBLK1
  1

  9
$DIMBLK2
  1

  9
$DIMSTYLE
  2
ISO-25
  9
$DIMCLRD
 70
     0
  9
$DIMCLRE
 70
     0
  9
$DIMCLRT
 70
     0
  9
$DIMTFAC
 40
1.0
  9
$DIMGAP
 40
0.625
  9
$DIMJUST
 70
     0
  9
$DIMSD1
 70
     0
  9
$DIMSD2
 70
     0
  9
$DIMTOLJ
 70
     0
  9
$DIMTZIN
 70
     8
  9
$DIMALTZ
 70
     0
  9
$DIMALTTZ
 70
     0
  9
$DIMUPT
 70
     0
  9
$DIMDEC
 70
     2
  9
$DIMTDEC
 70
     2
  9
$DIMALTU
 70
     2
  9
$DIMALTTD
 70
     3
  9
$DIMTXSTY
  7
Standard
  9
$DIMAUNIT
 70
     0
  9
$DIMADEC
 70
     0
  9
$DIMALTRND
 40
0.0
  9
$DIMAZIN
 70
     0
  9
$DIMDSEP
 70
    44
  9
$DIMATFIT
 70
     3
  9
$DIMFRAC
 70
     0
  9
$DIMLDRBLK
  1

  9
$DIMLUNIT
 70
     2
  9
$DIMLWD
 70
    -2
  9
$DIMLWE
 70
    -2
  9
$DIMTMOVE
 70
     0
  9
$LUNITS
 70
     2
  9
$LUPREC
 70
     4
  9
$SKETCHINC
 40
1.0
  9
$FILLETRAD
 40
10.0
  9
$AUNITS
 70
     0
  9
$AUPREC
 70
     0
  9
$MENU
  1
.
  9
$ELEVATION
 40
0.0
  9
$PELEVATION
 40
0.0
  9
$THICKNESS
 40
0.0
  9
$LIMCHECK
 70
     0
  9
$CHAMFERA
 40
10.0
  9
$CHAMFERB
 40
10.0
  9
$CHAMFERC
 40
20.0
  9
$CHAMFERD
 40
0.0
  9
$SKPOLY
 70
     0
  9
$TDCREATE
 40
2458579.033333333
  9
$TDUCREATE
 40
2458578.95
  9
$TDUPDATE
 40
2458579.036805556
  9
$TDUUPDATE
 40
2458578.953472222
  9
$TDINDWG
 40
0.0000000116
  9
$TDUSRTIMER
 40
0.0000000116
  9
$USRTIMER
 70
     1
  9
$ANGBASE
 50
0.0
  9
$ANGDIR
 70
     0
  9
$PDMODE
 70
     0
  9
$PDSIZE
 40
0.0
  9
$PLINEWID
 40
0.0
  9
$SPLFRAME
 70
     0
  9
$SPLINETYPE
 70
     6
  9
$SPLINESEGS
 70
     8
  9
$HANDSEED
  5
9E5
  9
$SURFTAB1
 70
     6
  9
$SURFTAB2
 70
     6
  9
$SURFTYPE
 70
     6
  9
$SURFU
 70
     6
  9
$SURFV
 70
     6
  9
$UCSBASE
  2

  9
$UCSNAME
  2

  9
$UCSORG
 10
0.0
 20
0.0
 30
0.0
  9
$UCSXDIR
 10
1.0
 20
0.0
 30
0.0
  9
$UCSYDIR
 10
0.0
 20
1.0
 30
0.0
  9
$UCSORTHOREF
  2

  9
$UCSORTHOVIEW
 70
     0
  9
$UCSORGTOP
 10
0.0
 20
0.0
 30
0.0
  9
$UCSORGBOTTOM
 10
0.0
 20
0.0
 30
0.0
  9
$UCSORGLEFT
 10
0.0
 20
0.0
 30
0.0
  9
$UCSORGRIGHT
 10
0.0
 20
0.0
 30
0.0
  9
$UCSORGFRONT
 10
0.0
 20
0.0
 30
0.0
  9
$UCSORGBACK
 10
0.0
 20
0.0
 30
0.0
  9
$PUCSBASE
  2

  9
$PUCSNAME
  2

  9
$PUCSORG
 10
0.0
 20
0.0
 30
0.0
  9
$PUCSXDIR
 10
1.0
 20
0.0
 30
0.0
  9
$PUCSYDIR
 10
0.0
 20
1.0
 30
0.0
  9
$PUCSORTHOREF
  2

  9
$PUCSORTHOVIEW
 70
     0
  9
$PUCSORGTOP
 10
0.0
 20
0.0
 30
0.0
  9
$PUCSORGBOTTOM
 10
0.0
 20
0.0
 30
0.0
  9
$PUCSORGLEFT
 10
0.0
 20
0.0
 30
0.0
  9
$PUCSORGRIGHT
 10
0.0
 20
0.0
 30
0.0
  9
$PUCSORGFRONT
 10
0.0
 20
0.0
 30
0.0
  9
$PUCSORGBACK
 10
0.0
 20
0.0
 30
0.0
  9
$USERI1
 70
     0
  9
$USERI2
 70
     0
  9
$USERI3
 70
     0
  9
$USERI4
 70
     0
  9
$USERI5
 70
     0
  9
$USERR1
 40
0.0
  9
$USERR2
 40
0.0
  9
$USERR3
 40
0.0
  9
$USERR4
 40
0.0
  9
$USERR5
 40
0.0
  9
$WORLDVIEW
 70
     1
  9
$SHADEDGE
 70
     3
  9
$SHADEDIF
 70
    70
  9
$TILEMODE
 70
     1
  9
$MAXACTVP
 70
    64
  9
$PINSBASE
 10
0.0
 20
0.0
 30
0.0
  9
$PLIMCHECK
 70
     0
  9
$PEXTMIN
 10
1.000000000000000E+20
 20
1.000000000000000E+20
 30
1.000000000000000E+20
  9
$PEXTMAX
 10
-1.000000000000000E+20
 20
-1.000000000000000E+20
 30
-1.000000000000000E+20
  9
$PLIMMIN
 10
0.0
 20
0.0
  9
$PLIMMAX
 10
420.0
 20
297.0
  9
$UNITMODE
 70
     0
  9
$VISRETAIN
 70
     1
  9
$PLINEGEN
 70
     0
  9
$PSLTSCALE
 70
     1
  9
$TREEDEPTH
 70
  3020
  9
$CMLSTYLE
  2
Standard
  9
$CMLJUST
 70
     0
  9
$CMLSCALE
 40
20.0
  9
$PROXYGRAPHICS
 70
     1
  9
$MEASUREMENT
 70
     1
  9
$CELWEIGHT
370
    -1
  9
$ENDCAPS
280
     0
  9
$JOINSTYLE
280
     0
  9
$LWDISPLAY
290
     0
  9
$INSUNITS
 70
     4
  9
$HYPERLINKBASE
  1

  9
$STYLESHEET
  1

  9
$XEDIT
290
     1
  9
$CEPSNTYPE
380
     0
  9
$PSTYLEMODE
290
     1
  9
$FINGERPRINTGUID
  2
{B31B9AFB-D43A-407F-B00D-BC83A5308DFF}
  9
$VERSIONGUID
  2
{FAEB1C32-E019-11D5-929B-00C0DF256EC4}
  9
$EXTNAMES
290
     1
  9
$PSVPSCALE
 40
0.0
  9
$OLESTARTUP
290
     0
  0
ENDSEC
  0
SECTION
  2
CLASSES
  0
CLASS
  1
ACDBDICTIONARYWDFLT
  2
AcDbDictionaryWithDefault
  3
ObjectDBX Classes
 90
        0
280
     0
281
     0
  0
CLASS
  1
VISUALSTYLE
  2
AcDbVisualStyle
  3
ObjectDBX Classes
 90
     4095
280
     0
281
     0
  0
CLASS
  1
MATERIAL
  2
AcDbMaterial
  3
ObjectDBX Classes
 90
     1153
280
     0
281
     0
  0
CLASS
  1
SCALE
  2
AcDbScale
  3
ObjectDBX Classes
 90
     1153
280
     0
281
     0
  0
CLASS
  1
DICTIONARYVAR
  2
AcDbDictionaryVar
  3
ObjectDBX Classes
 90
        0
280
     0
281
     0
  0
CLASS
  1
ACDBPLACEHOLDER
  2
AcDbPlaceHolder
  3
ObjectDBX Classes
 90
        0
280
     0
281
     0
  0
CLASS
  1
LAYOUT
  2
AcDbLayout
  3
ObjectDBX Classes
 90
        0
280
     0
281
     0
  0
ENDSEC
  0
SECTION
  2
TABLES
  0
TABLE
  2
VPORT
  5
8
330
0
100
AcDbSymbolTable
 70
     1
  0
VPORT
  5
29
330
8
100
AcDbSymbolTableRecord
100
AcDbViewportTableRecord
  2
*Active
 70
     0
 10
0.0
 20
0.0
 11
1.0
 21
1.0
 12
11.26
 22
4.5
 13
0.0
 23
0.0
 14
10.0
 24
10.0
 15
10.0
 25
10.0
 16
0.0
 26
0.0
 36
1.0
 17
0.0
 27
0.0
 37
0.0
 40
9.0
 41
2.503333333333333
 42
50.0
 43
0.0
 44
0.0
 50
0.0
 51
0.0
 71
     0
 72
   100
 73
     1
 74
     3
 75
     0
 76
     0
 77
     0
 78
     0
281
     0
 65
     1
110
0.0
120
0.0
130
0.0
111
1.0
121
0.0
131
0.0
112
0.0
122
1.0
132
0.0
 79
     0
146
0.0
  0
ENDTAB
  0
TABLE
  2
LTYPE
  5
5
330
0
100
AcDbSymbolTable
 70
    10
  0
LTYPE
  5
14
330
5
100
AcDbSymbolTableRecord
100
AcDbLinetypeTableRecord
  2
ByBlock
 70
     0
  3

 72
    65
 73
     0
 40
0.0
  0
LTYPE
  5
15
330
5
100
AcDbSymbolTableRecord
100
AcDbLinetypeTableRecord
  2
ByLayer
 70
     0
  3

 72
    65
 73
     0
 40
0.0
  0
LTYPE
  5
16
330
5
100
AcDbSymbolTableRecord
100
AcDbLinetypeTableRecord
  2
Continuous
 70
     0
  3
Solid line
 72
    65
 73
     0
 40
0.0
  0
LTYPE
  5
45
330
5
100
AcDbSymbolTableRecord
100
AcDbLinetypeTableRecord
  2
phl_thick
 70
     0
  3
THICK
 72
    65
 73
     0
 40
0.0
  0
LTYPE
  5
29D
330
5
100
AcDbSymbolTableRecord
100
AcDbLinetypeTableRecord
  2
CUT
 70
     0
  3
THICK
 72
    65
 73
     0
 40
0.0
  0
LTYPE
  5
2A4
330
5
100
AcDbSymbolTableRecord
100
AcDbLinetypeTableRecord
  2
NOCUT
 70
     0
  3
THICK
 72
    65
 73
     0
 40
0.0
  0
LTYPE
  5
2AB
330
5
100
AcDbSymbolTableRecord
100
AcDbLinetypeTableRecord
  2
SK1
 70
     0
  3
THICK
 72
    65
 73
     0
 40
0.0
  0
LTYPE
  5
2B3
330
5
100
AcDbSymbolTableRecord
100
AcDbLinetypeTableRecord
  2
ls_SK2
 70
     0
  3
THIN
 72
    65
 73
     0
 40
0.0
  0
LTYPE
  5
35E
330
5
100
AcDbSymbolTableRecord
100
AcDbLinetypeTableRecord
  2
ls_2
 70
     0
  3
THIN
 72
    65
 73
     0
 40
0.0
  0
LTYPE
  5
4CE
330
5
100
AcDbSymbolTableRecord
100
AcDbLinetypeTableRecord
  2
ls_SK1
 70
     0
  3
THICK
 72
    65
 73
     0
 40
0.0
  0
LTYPE
  5
508
330
5
100
AcDbSymbolTableRecord
100
AcDbLinetypeTableRecord
  2
LONGDASH_DASH
 70
     0
  3
THIN_DASHDOT
 72
    65
 73
     4
 40
0.85
 49
0.4
 74
     0
 49
-0.2
 74
     0
 49
0.05
 74
     0
 49
-0.2
 74
     0
  0
LTYPE
  5
50D
330
5
100
AcDbSymbolTableRecord
100
AcDbLinetypeTableRecord
  2
ls1
 70
     0
  3
THICK
 72
    65
 73
     0
 40
0.0
  0
ENDTAB
  0
TABLE
  2
LAYER
  5
2
330
0
100
AcDbSymbolTable
 70
    10
  0
LAYER
  5
10
330
2
100
AcDbSymbolTableRecord
100
AcDbLayerTableRecord
  2
0
 70
     0
 62
     7
  6
Continuous
370
    -3
390
F
  0
LAYER
  5
44
330
2
100
AcDbSymbolTableRecord
100
AcDbLayerTableRecord
  2
1
 70
     0
 62
4
  6
CONTINUOUS
370
50
370
    -3
390
F
  0
LAYER
  5
29C
330
2
100
AcDbSymbolTableRecord
100
AcDbLayerTableRecord
  2
CUT
 70
     0
 62
1
  6
CONTINUOUS
370
25
370
    -3
390
F
  0
LAYER
  5
2A3
330
2
100
AcDbSymbolTableRecord
100
AcDbLayerTableRecord
  2
NOCUT
 70
     0
 62
7
  6
CONTINUOUS
370
25
370
    -3
390
F
  0
LAYER
  5
2AA
330
2
100
AcDbSymbolTableRecord
100
AcDbLayerTableRecord
  2
SK1
 70
     0
 62
4
  6
CONTINUOUS
370
50
370
    -3
390
F
  0
LAYER
  5
2B2
330
2
100
AcDbSymbolTableRecord
100
AcDbLayerTableRecord
  2
SK2
 70
     0
 62
7
  6
CONTINUOUS
370
25
370
    -3
390
F
  0
LAYER
  5
35D
330
2
100
AcDbSymbolTableRecord
100
AcDbLayerTableRecord
  2
2
 70
     0
 62
7
  6
CONTINUOUS
370
25
370
    -3
390
F
  0
LAYER
  5
507
330
2
100
AcDbSymbolTableRecord
100
AcDbLayerTableRecord
  2
4
 70
     0
 62
2
  6
LONGDASH_DASH
370
25
370
    -3
390
F
  0
LAYER
  5
50A
330
2
100
AcDbSymbolTableRecord
100
AcDbLayerTableRecord
  2
SK4
 70
     0
 62
2
  6
LONGDASH_DASH
370
25
370
    -3
390
F
  0
LAYER
  5
50C
330
2
100
AcDbSymbolTableRecord
100
AcDbLayerTableRecord
  2
SK6
 70
     0
 62
5
  6
CONTINUOUS
370
25
370
    -3
390
F
  0
ENDTAB
  0
TABLE
  2
STYLE
  5
3
330
0
100
AcDbSymbolTable
 70
     1
  0
STYLE
  5
11
330
3
100
AcDbSymbolTableRecord
100
AcDbTextStyleTableRecord
  2
Standard
 70
     0
 40
0.0
 41
1.0
 50
0.0
 71
     0
 42
2.5
  3
Monospac821 BT
  4

  0
ENDTAB
  0
TABLE
  2
VIEW
  5
6
330
0
100
AcDbSymbolTable
 70
     0
  0
ENDTAB
  0
TABLE
  2
UCS
  5
7
330
0
100
AcDbSymbolTable
 70
     0
  0
ENDTAB
  0
TABLE
  2
APPID
  5
9
330
0
100
AcDbSymbolTable
 70
     2
  0
APPID
  5
12
330
9
100
AcDbSymbolTableRecord
100
AcDbRegAppTableRecord
  2
ACAD
 70
     0
  0
APPID
  5
3F
330
9
100
AcDbSymbolTableRecord
100
AcDbRegAppTableRecord
  2
ccLab
 70
     0
  0
ENDTAB
  0
TABLE
  2
DIMSTYLE
  5
A
330
0
100
AcDbSymbolTable
 70
     1
100
AcDbDimStyleTable
  0
DIMSTYLE
105
27
330
A
100
AcDbSymbolTableRecord
100
AcDbDimStyleTableRecord
  2
ISO-25
 70
     0
 41
2.5
 42
0.625
 43
3.75
 44
1.25
 73
     0
 74
     0
 77
     1
 78
     8
140
2.5
141
2.5
143
0.03937007874016
147
0.625
171
     3
172
     1
271
     2
272
     2
274
     3
278
    44
283
     0
284
     8
340
11
  0
ENDTAB
  0
TABLE
  2
BLOCK_RECORD
  5
1
330
0
100
AcDbSymbolTable
 70
     2
  0
BLOCK_RECORD
  5
1F
330
1
100
AcDbSymbolTableRecord
100
AcDbBlockTableRecord
  2
*Model_Space
340
22
  0
BLOCK_RECORD
  5
1B
330
1
100
AcDbSymbolTableRecord
100
AcDbBlockTableRecord
  2
*Paper_Space
340
1E
  0
BLOCK_RECORD
  5
23
330
1
100
AcDbSymbolTableRecord
100
AcDbBlockTableRecord
  2
*Paper_Space0
340
26
  0
ENDTAB
  0
ENDSEC
  0
SECTION
  2
BLOCKS
  0
BLOCK
  5
20
330
1F
100
AcDbEntity
  8
0
100
AcDbBlockBegin
  2
*Model_Space
 70
     0
 10
0.0
 20
0.0
 30
0.0
  3
*Model_Space
  1

  0
ENDBLK
  5
21
330
1F
100
AcDbEntity
  8
0
100
AcDbBlockEnd
  0
BLOCK
  5
1C
330
1B
100
AcDbEntity
 67
     1
  8
0
100
AcDbBlockBegin
  2
*Paper_Space
 70
     0
 10
0.0
 20
0.0
 30
0.0
  3
*Paper_Space
  1

  0
ENDBLK
  5
1D
330
1B
100
AcDbEntity
 67
     1
  8
0
100
AcDbBlockEnd
  0
BLOCK
  5
24
330
23
100
AcDbEntity
  8
0
100
AcDbBlockBegin
  2
*Paper_Space0
 70
     0
 10
0.0
 20
0.0
 30
0.0
  3
*Paper_Space0
  1

  0
ENDBLK
  5
25
330
23
100
AcDbEntity
  8
0
100
AcDbBlockEnd
  0
ENDSEC
  0
SECTION
  2
ENTITIES
  0
LINE
  5
517
330
1F
100
AcDbEntity
  8
1
  6
CONTINUOUS
370
50
 62
4
100
AcDbLine
 10
56.50001899999999
 20
1.568998
 30
0.0
 11
56.5
 21
1.625518
 31
0.0
  0
LINE
  5
518
330
1F
100
AcDbEntity
  8
1
  6
CONTINUOUS
370
50
 62
4
100
AcDbLine
 10
59.561749
 20
-1.576404
 30
0.0
 11
59.56052
 21
-1.434276
 31
0.0
  0
LINE
  5
519
330
1F
100
AcDbEntity
  8
1
  6
CONTINUOUS
370
50
 62
4
100
AcDbLine
 10
59.572517
 20
-1.134411
 30
0.0
 11
59.571907
 21
-1.083308
 31
0.0
  0
LINE
  5
51A
330
1F
100
AcDbEntity
  8
1
  6
CONTINUOUS
370
50
 62
4
100
AcDbLine
 10
60.0
 20
1.999998
 30
0.0
 11
59.998238
 21
2.083922
 31
0.0
  0
LINE
  5
51B
330
1F
100
AcDbEntity
  8
1
  6
CONTINUOUS
370
50
 62
4
100
AcDbLine
 10
59.565033
 20
-1.718205
 30
0.0
 11
59.561749
 21
-1.576404
 31
0.0
  0
LINE
  5
51C
330
1F
100
AcDbEntity
  8
1
  6
CONTINUOUS
370
50
 62
4
100
AcDbLine
 10
59.571907
 20
-1.083308
 30
0.0
 11
59.57056
 21
-1.032445
 31
0.0
  0
LINE
  5
51D
330
1F
100
AcDbEntity
  8
1
  6
CONTINUOUS
370
50
 62
4
100
AcDbLine
 10
52.869926
 20
-1.424311
 30
0.0
 11
52.868061
 21
-1.366551
 31
0.0
  0
LINE
  5
51E
330
1F
100
AcDbEntity
  8
1
  6
CONTINUOUS
370
50
 62
4
100
AcDbLine
 10
59.570377
 20
-1.859466
 30
0.0
 11
59.565033
 21
-1.718205
 31
0.0
  0
LINE
  5
51F
330
1F
100
AcDbEntity
  8
1
  6
CONTINUOUS
370
50
 62
4
100
AcDbLine
 10
59.57056
 20
-1.032445
 30
0.0
 11
59.568485
 21
-0.981895
 31
0.0
  0
LINE
  5
520
330
1F
100
AcDbEntity
  8
1
  6
CONTINUOUS
370
50
 62
4
100
AcDbLine
 10
59.577774
 20
-1.999951
 30
0.0
 11
59.570377
 21
-1.859466
 31
0.0
  0
LINE
  5
521
330
1F
100
AcDbEntity
  8
1
  6
CONTINUOUS
370
50
 62
4
100
AcDbLine
 10
59.568485
 20
-0.981895
 30
0.0
 11
59.56568499999999
 21
-0.931732
 31
0.0
  0
LINE
  5
522
330
1F
100
AcDbEntity
  8
1
  6
CONTINUOUS
370
50
 62
4
100
AcDbLine
 10
59.998238
 20
2.083922
 30
0.0
 11
59.992756
 21
2.170068
 31
0.0
  0
LINE
  5
523
330
1F
100
AcDbEntity
  8
1
  6
CONTINUOUS
370
50
 62
4
100
AcDbLine
 10
59.587185
 20
-2.139057
 30
0.0
 11
59.577774
 21
-1.999951
 31
0.0
  0
LINE
  5
524
330
1F
100
AcDbEntity
  8
1
  6
CONTINUOUS
370
50
 62
4
100
AcDbLine
 10
59.56568499999999
 20
-0.931732
 30
0.0
 11
59.562172
 21
-0.8820279999999999
 31
0.0
  0
LINE
  5
525
330
1F
100
AcDbEntity
  8
1
  6
CONTINUOUS
370
50
 62
4
100
AcDbLine
 10
59.59857899999999
 20
-2.276453
 30
0.0
 11
59.587185
 21
-2.139057
 31
0.0
  0
LINE
  5
526
330
1F
100
AcDbEntity
  8
1
  6
CONTINUOUS
370
50
 62
4
100
AcDbLine
 10
59.562172
 20
-0.8820279999999999
 30
0.0
 11
59.557949
 21
-0.832855
 31
0.0
  0
LINE
  5
527
330
1F
100
AcDbEntity
  8
1
  6
CONTINUOUS
370
50
 62
4
100
AcDbLine
 10
59.611931
 20
-2.411944
 30
0.0
 11
59.59857899999999
 21
-2.276453
 31
0.0
  0
LINE
  5
528
330
1F
100
AcDbEntity
  8
1
  6
CONTINUOUS
370
50
 62
4
100
AcDbLine
 10
59.557949
 20
-0.832855
 30
0.0
 11
59.55302
 21
-0.784287
 31
0.0
  0
LINE
  5
529
330
1F
100
AcDbEntity
  8
1
  6
CONTINUOUS
370
50
 62
4
100
AcDbLine
 10
59.992756
 20
2.170068
 30
0.0
 11
59.98328
 21
2.258078
 31
0.0
  0
LINE
  5
52A
330
1F
100
AcDbEntity
  8
1
  6
CONTINUOUS
370
50
 62
4
100
AcDbLine
 10
59.627209
 20
-2.545336
 30
0.0
 11
59.611931
 21
-2.411944
 31
0.0
  0
LINE
  5
52B
330
1F
100
AcDbEntity
  8
1
  6
CONTINUOUS
370
50
 62
4
100
AcDbLine
 10
59.644386
 20
-2.676436
 30
0.0
 11
59.627209
 21
-2.545336
 31
0.0
  0
LINE
  5
52C
330
1F
100
AcDbEntity
  8
1
  6
CONTINUOUS
370
50
 62
4
100
AcDbLine
 10
52.877621
 20
-1.481254
 30
0.0
 11
52.869926
 21
-1.424311
 31
0.0
  0
LINE
  5
52D
330
1F
100
AcDbEntity
  8
1
  6
CONTINUOUS
370
50
 62
4
100
AcDbLine
 10
58.909267
 20
-0.905161
 30
0.0
 11
58.897285
 21
-0.823805
 31
0.0
  0
LINE
  5
52E
330
1F
100
AcDbEntity
  8
1
  6
CONTINUOUS
370
50
 62
4
100
AcDbLine
 10
59.98328
 20
2.258078
 30
0.0
 11
59.969673
 21
2.346966
 31
0.0
  0
LINE
  5
52F
330
1F
100
AcDbEntity
  8
1
  6
CONTINUOUS
370
50
 62
4
100
AcDbLine
 10
58.897285
 20
-0.823805
 30
0.0
 11
58.881943
 21
-0.744377
 31
0.0
  0
LINE
  5
530
330
1F
100
AcDbEntity
  8
1
  6
CONTINUOUS
370
50
 62
4
100
AcDbLine
 10
59.969673
 20
2.346966
 30
0.0
 11
59.95195
 21
2.435762
 31
0.0
  0
LINE
  5
531
330
1F
100
AcDbEntity
  8
1
  6
CONTINUOUS
370
50
 62
4
100
AcDbLine
 10
52.873829
 20
3.291263
 30
0.0
 11
52.868492
 21
3.315884
 31
0.0
  0
LINE
  5
532
330
1F
100
AcDbEntity
  8
1
  6
CONTINUOUS
370
50
 62
4
100
AcDbLine
 10
52.891106
 20
-1.537239
 30
0.0
 11
52.877621
 21
-1.481254
 31
0.0
  0
LINE
  5
533
330
1F
100
AcDbEntity
  8
1
  6
CONTINUOUS
370
50
 62
4
100
AcDbLine
 10
58.881943
 20
-0.744377
 30
0.0
 11
58.86342999999999
 21
-0.6676059999999999
 31
0.0
  0
LINE
  5
534
330
1F
100
AcDbEntity
  8
1
  6
CONTINUOUS
370
50
 62
4
100
AcDbLine
 10
59.95195
 20
2.435762
 30
0.0
 11
59.93026
 21
2.523546
 31
0.0
  0
LINE
  5
535
330
1F
100
AcDbEntity
  8
1
  6
CONTINUOUS
370
50
 62
4
100
AcDbLine
 10
58.86342999999999
 20
-0.6676059999999999
 30
0.0
 11
58.842007
 21
-0.594159
 31
0.0
  0
LINE
  5
536
330
1F
100
AcDbEntity
  8
1
  6
CONTINUOUS
370
50
 62
4
100
AcDbLine
 10
59.93026
 20
2.523546
 30
0.0
 11
59.904892
 21
2.609415
 31
0.0
  0
LINE
  5
537
330
1F
100
AcDbEntity
  8
1
  6
CONTINUOUS
370
50
 62
4
100
AcDbLine
 10
59.561844
 20
1.893047
 30
0.0
 11
59.560513
 21
1.897151
 31
0.0
  0
LINE
  5
538
330
1F
100
AcDbEntity
  8
1
  6
CONTINUOUS
370
50
 62
4
100
AcDbLine
 10
59.55571399999999
 20
1.911911
 30
0.0
 11
59.55439399999999
 21
1.915979
 31
0.0
  0
LINE
  5
539
330
1F
100
AcDbEntity
  8
1
  6
CONTINUOUS
370
50
 62
4
100
AcDbLine
 10
59.99924499999999
 20
0.546866
 30
0.0
 11
59.99697099999999
 21
0.553869
 31
0.0
  0
LINE
  5
53A
330
1F
100
AcDbEntity
  8
1
  6
CONTINUOUS
370
50
 62
4
100
AcDbLine
 10
59.971691
 20
0.6316649999999999
 30
0.0
 11
59.961594
 21
0.6627489999999999
 31
0.0
  0
LINE
  5
53B
330
1F
100
AcDbEntity
  8
1
  6
CONTINUOUS
370
50
 62
4
100
AcDbLine
 10
59.950897
 20
0.6956629999999999
 30
0.0
 11
59.938866
 21
0.732699
 31
0.0
  0
LINE
  5
53C
330
1F
100
AcDbEntity
  8
1
  6
CONTINUOUS
370
50
 62
4
100
AcDbLine
 10
59.911541
 20
0.8167869999999999
 30
0.0
 11
59.897655
 21
0.859532
 31
0.0
  0
LINE
  5
53D
330
1F
100
AcDbEntity
  8
1
  6
CONTINUOUS
370
50
 62
4
100
AcDbLine
 10
59.581787
 20
1.831667
 30
0.0
 11
59.572495
 21
1.86027
 31
0.0
  0
LINE
  5
53E
330
1F
100
AcDbEntity
  8
1
  6
CONTINUOUS
370
50
 62
4
100
AcDbLine
 10
59.83475499999999
 20
1.05311
 30
0.0
 11
59.817783
 21
1.105353
 31
0.0
  0
LINE
  5
53F
330
1F
100
AcDbEntity
  8
1
  6
CONTINUOUS
370
50
 62
4
100
AcDbLine
 10
59.625004
 20
1.698657
 30
0.0
 11
59.608086
 21
1.750733
 31
0.0
  0
LINE
  5
540
330
1F
100
AcDbEntity
  8
1
  6
CONTINUOUS
370
50
 62
4
100
AcDbLine
 10
59.800755
 20
1.157753
 30
0.0
 11
59.783924
 21
1.209561
 31
0.0
  0
LINE
  5
541
330
1F
100
AcDbEntity
  8
1
  6
CONTINUOUS
370
50
 62
4
100
AcDbLine
 10
59.750854
 20
1.311329
 30
0.0
 11
59.73372699999999
 21
1.364046
 31
0.0
  0
LINE
  5
542
330
1F
100
AcDbEntity
  8
1
  6
CONTINUOUS
370
50
 62
4
100
AcDbLine
 10
59.716213
 20
1.417944
 30
0.0
 11
59.698421
 21
1.472707
 31
0.0
  0
LINE
  5
543
330
1F
100
AcDbEntity
  8
1
  6
CONTINUOUS
370
50
 62
4
100
AcDbLine
 10
59.572495
 20
1.86027
 30
0.0
 11
59.565842
 21
1.880747
 31
0.0
  0
LINE
  5
544
330
1F
100
AcDbEntity
  8
1
  6
CONTINUOUS
370
50
 62
4
100
AcDbLine
 10
59.662403
 20
1.583553
 30
0.0
 11
59.644386
 21
1.639006
 31
0.0
  0
LINE
  5
545
330
1F
100
AcDbEntity
  8
1
  6
CONTINUOUS
370
50
 62
4
100
AcDbLine
 10
59.992924
 20
0.5663239999999999
 30
0.0
 11
59.98729299999999
 21
0.5836549999999999
 31
0.0
  0
LINE
  5
546
330
1F
100
AcDbEntity
  8
1
  6
CONTINUOUS
370
50
 62
4
100
AcDbLine
 10
59.897655
 20
0.859532
 30
0.0
 11
59.883083
 21
0.904381
 31
0.0
  0
LINE
  5
547
330
1F
100
AcDbEntity
  8
1
  6
CONTINUOUS
370
50
 62
4
100
AcDbLine
 10
59.644386
 20
1.639006
 30
0.0
 11
59.625004
 21
1.698657
 31
0.0
  0
LINE
  5
548
330
1F
100
AcDbEntity
  8
1
  6
CONTINUOUS
370
50
 62
4
100
AcDbLine
 10
59.698421
 20
1.472707
 30
0.0
 11
59.68045
 21
1.528015
 31
0.0
  0
LINE
  5
549
330
1F
100
AcDbEntity
  8
1
  6
CONTINUOUS
370
50
 62
4
100
AcDbLine
 10
59.558212
 20
1.904226
 30
0.0
 11
59.556988
 21
1.907993
 31
0.0
  0
LINE
  5
54A
330
1F
100
AcDbEntity
  8
1
  6
CONTINUOUS
370
50
 62
4
100
AcDbLine
 10
59.92552199999999
 20
0.773759
 30
0.0
 11
59.911541
 21
0.8167869999999999
 31
0.0
  0
LINE
  5
54B
330
1F
100
AcDbEntity
  8
1
  6
CONTINUOUS
370
50
 62
4
100
AcDbLine
 10
59.867611
 20
0.951993
 30
0.0
 11
59.851437
 21
1.00177
 31
0.0
  0
LINE
  5
54C
330
1F
100
AcDbEntity
  8
1
  6
CONTINUOUS
370
50
 62
4
100
AcDbLine
 10
59.99697099999999
 20
0.553869
 30
0.0
 11
59.992924
 21
0.5663239999999999
 31
0.0
  0
LINE
  5
54D
330
1F
100
AcDbEntity
  8
1
  6
CONTINUOUS
370
50
 62
4
100
AcDbLine
 10
59.851437
 20
1.00177
 30
0.0
 11
59.83475499999999
 21
1.05311
 31
0.0
  0
LINE
  5
54E
330
1F
100
AcDbEntity
  8
1
  6
CONTINUOUS
370
50
 62
4
100
AcDbLine
 10
59.608086
 20
1.750733
 30
0.0
 11
59.593666
 21
1.795111
 31
0.0
  0
LINE
  5
54F
330
1F
100
AcDbEntity
  8
1
  6
CONTINUOUS
370
50
 62
4
100
AcDbLine
 10
59.9804
 20
0.6048629999999999
 30
0.0
 11
59.971691
 21
0.6316649999999999
 31
0.0
  0
LINE
  5
550
330
1F
100
AcDbEntity
  8
1
  6
CONTINUOUS
370
50
 62
4
100
AcDbLine
 10
59.783924
 20
1.209561
 30
0.0
 11
59.767498
 21
1.260112
 31
0.0
  0
LINE
  5
551
330
1F
100
AcDbEntity
  8
1
  6
CONTINUOUS
370
50
 62
4
100
AcDbLine
 10
59.73372699999999
 20
1.364046
 30
0.0
 11
59.716213
 21
1.417944
 31
0.0
  0
LINE
  5
552
330
1F
100
AcDbEntity
  8
1
  6
CONTINUOUS
370
50
 62
4
100
AcDbLine
 10
59.68045
 20
1.528015
 30
0.0
 11
59.662403
 21
1.583553
 31
0.0
  0
LINE
  5
553
330
1F
100
AcDbEntity
  8
1
  6
CONTINUOUS
370
50
 62
4
100
AcDbLine
 10
59.593666
 20
1.795111
 30
0.0
 11
59.581787
 21
1.831667
 31
0.0
  0
LINE
  5
554
330
1F
100
AcDbEntity
  8
1
  6
CONTINUOUS
370
50
 62
4
100
AcDbLine
 10
59.883083
 20
0.904381
 30
0.0
 11
59.867611
 21
0.951993
 31
0.0
  0
LINE
  5
555
330
1F
100
AcDbEntity
  8
1
  6
CONTINUOUS
370
50
 62
4
100
AcDbLine
 10
59.817783
 20
1.105353
 30
0.0
 11
59.800755
 21
1.157753
 31
0.0
  0
LINE
  5
556
330
1F
100
AcDbEntity
  8
1
  6
CONTINUOUS
370
50
 62
4
100
AcDbLine
 10
59.767498
 20
1.260112
 30
0.0
 11
59.750854
 21
1.311329
 31
0.0
  0
LINE
  5
557
330
1F
100
AcDbEntity
  8
1
  6
CONTINUOUS
370
50
 62
4
100
AcDbLine
 10
59.938866
 20
0.732699
 30
0.0
 11
59.92552199999999
 21
0.773759
 31
0.0
  0
LINE
  5
558
330
1F
100
AcDbEntity
  8
1
  6
CONTINUOUS
370
50
 62
4
100
AcDbLine
 10
59.961594
 20
0.6627489999999999
 30
0.0
 11
59.950897
 21
0.6956629999999999
 31
0.0
  0
LINE
  5
559
330
1F
100
AcDbEntity
  8
1
  6
CONTINUOUS
370
50
 62
4
100
AcDbLine
 10
60.0
 20
0.544543
 30
0.0
 11
59.99924499999999
 21
0.546866
 31
0.0
  0
LINE
  5
55A
330
1F
100
AcDbEntity
  8
1
  6
CONTINUOUS
370
50
 62
4
100
AcDbLine
 10
59.98729299999999
 20
0.5836549999999999
 30
0.0
 11
59.9804
 21
0.6048629999999999
 31
0.0
  0
LINE
  5
55B
330
1F
100
AcDbEntity
  8
1
  6
CONTINUOUS
370
50
 62
4
100
AcDbLine
 10
59.55938699999999
 20
1.900611
 30
0.0
 11
59.558212
 21
1.904226
 31
0.0
  0
LINE
  5
55C
330
1F
100
AcDbEntity
  8
1
  6
CONTINUOUS
370
50
 62
4
100
AcDbLine
 10
59.565842
 20
1.880747
 30
0.0
 11
59.561844
 21
1.893047
 31
0.0
  0
LINE
  5
55D
330
1F
100
AcDbEntity
  8
1
  6
CONTINUOUS
370
50
 62
4
100
AcDbLine
 10
59.560513
 20
1.897148
 30
0.0
 11
59.55938699999999
 21
1.900611
 31
0.0
  0
LINE
  5
55E
330
1F
100
AcDbEntity
  8
1
  6
CONTINUOUS
370
50
 62
4
100
AcDbLine
 10
59.556988
 20
1.907993
 30
0.0
 11
59.55571399999999
 21
1.911911
 31
0.0
  0
LINE
  5
55F
330
1F
100
AcDbEntity
  8
1
  6
CONTINUOUS
370
50
 62
4
100
AcDbLine
 10
59.55439399999999
 20
1.915979
 30
0.0
 11
59.55302
 21
1.920198
 31
0.0
  0
LINE
  5
560
330
1F
100
AcDbEntity
  8
1
  6
CONTINUOUS
370
50
 62
4
100
AcDbLine
 10
59.904892
 20
2.609415
 30
0.0
 11
59.876286
 21
2.692495
 31
0.0
  0
LINE
  5
561
330
1F
100
AcDbEntity
  8
1
  6
CONTINUOUS
370
50
 62
4
100
AcDbLine
 10
58.842007
 20
-0.594159
 30
0.0
 11
58.817833
 21
-0.524218
 31
0.0
  0
LINE
  5
562
330
1F
100
AcDbEntity
  8
1
  6
CONTINUOUS
370
50
 62
4
100
AcDbLine
 10
52.910145
 20
-1.591652
 30
0.0
 11
52.891106
 21
-1.537239
 31
0.0
  0
LINE
  5
563
330
1F
100
AcDbEntity
  8
1
  6
CONTINUOUS
370
50
 62
4
100
AcDbLine
 10
59.876286
 20
2.692495
 30
0.0
 11
59.84501299999999
 21
2.771957
 31
0.0
  0
LINE
  5
564
330
1F
100
AcDbEntity
  8
1
  6
CONTINUOUS
370
50
 62
4
100
AcDbLine
 10
58.817833
 20
-0.524218
 30
0.0
 11
58.79108799999999
 21
-0.457966
 31
0.0
  0
LINE
  5
565
330
1F
100
AcDbEntity
  8
1
  6
CONTINUOUS
370
50
 62
4
100
AcDbLine
 10
52.884895
 20
3.265883
 30
0.0
 11
52.873829
 21
3.291263
 31
0.0
  0
LINE
  5
566
330
1F
100
AcDbEntity
  8
1
  6
CONTINUOUS
370
50
 62
4
100
AcDbLine
 10
59.84501299999999
 20
2.771957
 30
0.0
 11
59.810909
 21
2.848882
 31
0.0
  0
LINE
  5
567
330
1F
100
AcDbEntity
  8
1
  6
CONTINUOUS
370
50
 62
4
100
AcDbLine
 10
52.934219
 20
-1.64375
 30
0.0
 11
52.910145
 21
-1.591652
 31
0.0
  0
LINE
  5
568
330
1F
100
AcDbEntity
  8
1
  6
CONTINUOUS
370
50
 62
4
100
AcDbLine
 10
58.79108799999999
 20
-0.457966
 30
0.0
 11
58.76192899999999
 21
-0.395588
 31
0.0
  0
LINE
  5
569
330
1F
100
AcDbEntity
  8
1
  6
CONTINUOUS
370
50
 62
4
100
AcDbLine
 10
59.810909
 20
2.848882
 30
0.0
 11
59.772366
 21
2.92667
 31
0.0
  0
LINE
  5
56A
330
1F
100
AcDbEntity
  8
1
  6
CONTINUOUS
370
50
 62
4
100
AcDbLine
 10
59.772366
 20
2.92667
 30
0.0
 11
59.766026
 21
2.938693
 31
0.0
  0
LINE
  5
56B
330
1F
100
AcDbEntity
  8
1
  6
CONTINUOUS
370
50
 62
4
100
AcDbLine
 10
59.766026
 20
2.938693
 30
0.0
 11
59.759605
 21
2.950677
 31
0.0
  0
LINE
  5
56C
330
1F
100
AcDbEntity
  8
1
  6
CONTINUOUS
370
50
 62
4
100
AcDbLine
 10
58.76192899999999
 20
-0.395588
 30
0.0
 11
58.730648
 21
-0.337458
 31
0.0
  0
LINE
  5
56D
330
1F
100
AcDbEntity
  8
1
  6
CONTINUOUS
370
50
 62
4
100
AcDbLine
 10
59.759605
 20
2.950677
 30
0.0
 11
59.75309799999999
 21
2.962624
 31
0.0
  0
LINE
  5
56E
330
1F
100
AcDbEntity
  8
1
  6
CONTINUOUS
370
50
 62
4
100
AcDbLine
 10
59.75309799999999
 20
2.962624
 30
0.0
 11
59.74651
 21
2.97453
 31
0.0
  0
LINE
  5
56F
330
1F
100
AcDbEntity
  8
1
  6
CONTINUOUS
370
50
 62
4
100
AcDbLine
 10
59.74651
 20
2.97453
 30
0.0
 11
59.73983399999999
 21
2.986396
 31
0.0
  0
LINE
  5
570
330
1F
100
AcDbEntity
  8
1
  6
CONTINUOUS
370
50
 62
4
100
AcDbLine
 10
59.73983399999999
 20
2.986396
 30
0.0
 11
59.733078
 21
2.998221
 31
0.0
  0
LINE
  5
571
330
1F
100
AcDbEntity
  8
1
  6
CONTINUOUS
370
50
 62
4
100
AcDbLine
 10
58.903385
 20
1.897045
 30
0.0
 11
58.889217
 21
1.921808
 31
0.0
  0
LINE
  5
572
330
1F
100
AcDbEntity
  8
1
  6
CONTINUOUS
370
50
 62
4
100
AcDbLine
 10
58.889217
 20
1.921808
 30
0.0
 11
58.87159
 21
1.952556
 31
0.0
  0
LINE
  5
573
330
1F
100
AcDbEntity
  8
1
  6
CONTINUOUS
370
50
 62
4
100
AcDbLine
 10
58.87159
 20
1.952556
 30
0.0
 11
58.8508
 21
1.988774
 31
0.0
  0
LINE
  5
574
330
1F
100
AcDbEntity
  8
1
  6
CONTINUOUS
370
50
 62
4
100
AcDbLine
 10
58.8508
 20
1.988774
 30
0.0
 11
58.827049
 21
2.030111
 31
0.0
  0
LINE
  5
575
330
1F
100
AcDbEntity
  8
1
  6
CONTINUOUS
370
50
 62
4
100
AcDbLine
 10
58.827049
 20
2.030111
 30
0.0
 11
58.800518
 21
2.076254
 31
0.0
  0
LINE
  5
576
330
1F
100
AcDbEntity
  8
1
  6
CONTINUOUS
370
50
 62
4
100
AcDbLine
 10
58.800518
 20
2.076254
 30
0.0
 11
58.771389
 21
2.126889
 31
0.0
  0
LINE
  5
577
330
1F
100
AcDbEntity
  8
1
  6
CONTINUOUS
370
50
 62
4
100
AcDbLine
 10
58.771389
 20
2.126889
 30
0.0
 11
58.739906
 21
2.181582
 31
0.0
  0
LINE
  5
578
330
1F
100
AcDbEntity
  8
1
  6
CONTINUOUS
370
50
 62
4
100
AcDbLine
 10
58.739906
 20
2.181582
 30
0.0
 11
58.706387
 21
2.239794
 31
0.0
  0
LINE
  5
579
330
1F
100
AcDbEntity
  8
1
  6
CONTINUOUS
370
50
 62
4
100
AcDbLine
 10
58.706387
 20
2.239794
 30
0.0
 11
58.671009
 21
2.301208
 31
0.0
  0
LINE
  5
57A
330
1F
100
AcDbEntity
  8
1
  6
CONTINUOUS
370
50
 62
4
100
AcDbLine
 10
58.671009
 20
2.301208
 30
0.0
 11
58.633957
 21
2.365511
 31
0.0
  0
LINE
  5
57B
330
1F
100
AcDbEntity
  8
1
  6
CONTINUOUS
370
50
 62
4
100
AcDbLine
 10
58.633957
 20
2.365511
 30
0.0
 11
58.595409
 21
2.432389
 31
0.0
  0
LINE
  5
57C
330
1F
100
AcDbEntity
  8
1
  6
CONTINUOUS
370
50
 62
4
100
AcDbLine
 10
58.595409
 20
2.432389
 30
0.0
 11
58.55555
 21
2.501532
 31
0.0
  0
LINE
  5
57D
330
1F
100
AcDbEntity
  8
1
  6
CONTINUOUS
370
50
 62
4
100
AcDbLine
 10
58.55555
 20
2.501532
 30
0.0
 11
58.514584
 21
2.572573
 31
0.0
  0
LINE
  5
57E
330
1F
100
AcDbEntity
  8
1
  6
CONTINUOUS
370
50
 62
4
100
AcDbLine
 10
58.514584
 20
2.572573
 30
0.0
 11
58.472721
 21
2.645154
 31
0.0
  0
LINE
  5
57F
330
1F
100
AcDbEntity
  8
1
  6
CONTINUOUS
370
50
 62
4
100
AcDbLine
 10
58.472721
 20
2.645154
 30
0.0
 11
58.430115
 21
2.719012
 31
0.0
  0
LINE
  5
580
330
1F
100
AcDbEntity
  8
1
  6
CONTINUOUS
370
50
 62
4
100
AcDbLine
 10
58.430115
 20
2.719012
 30
0.0
 11
58.386913
 21
2.793886
 31
0.0
  0
LINE
  5
581
330
1F
100
AcDbEntity
  8
1
  6
CONTINUOUS
370
50
 62
4
100
AcDbLine
 10
58.386913
 20
2.793886
 30
0.0
 11
58.343266
 21
2.869516
 31
0.0
  0
LINE
  5
582
330
1F
100
AcDbEntity
  8
1
  6
CONTINUOUS
370
50
 62
4
100
AcDbLine
 10
58.343266
 20
2.869516
 30
0.0
 11
58.299328
 21
2.945641
 31
0.0
  0
LINE
  5
583
330
1F
100
AcDbEntity
  8
1
  6
CONTINUOUS
370
50
 62
4
100
AcDbLine
 10
58.904736
 20
1.897045
 30
0.0
 11
58.299328
 21
2.945641
 31
0.0
  0
LINE
  5
584
330
1F
100
AcDbEntity
  8
1
  6
CONTINUOUS
370
50
 62
4
100
AcDbLine
 10
52.962955
 20
-1.693512
 30
0.0
 11
52.934219
 21
-1.64375
 31
0.0
  0
LINE
  5
585
330
1F
100
AcDbEntity
  8
1
  6
CONTINUOUS
370
50
 62
4
100
AcDbLine
 10
59.733078
 20
2.998221
 30
0.0
 11
59.726238
 21
3.010003
 31
0.0
  0
LINE
  5
586
330
1F
100
AcDbEntity
  8
1
  6
CONTINUOUS
370
50
 62
4
100
AcDbLine
 10
58.730648
 20
-0.337458
 30
0.0
 11
58.697483
 21
-0.283782
 31
0.0
  0
LINE
  5
587
330
1F
100
AcDbEntity
  8
1
  6
CONTINUOUS
370
50
 62
4
100
AcDbLine
 10
59.726238
 20
3.010003
 30
0.0
 11
59.668274
 21
3.103113
 31
0.0
  0
LINE
  5
588
330
1F
100
AcDbEntity
  8
1
  6
CONTINUOUS
370
50
 62
4
100
AcDbLine
 10
52.901592
 20
3.239897
 30
0.0
 11
52.884895
 21
3.265883
 31
0.0
  0
LINE
  5
589
330
1F
100
AcDbEntity
  8
1
  6
CONTINUOUS
370
50
 62
4
100
AcDbLine
 10
52.995995
 20
-1.740921
 30
0.0
 11
52.962955
 21
-1.693512
 31
0.0
  0
LINE
  5
58A
330
1F
100
AcDbEntity
  8
1
  6
CONTINUOUS
370
50
 62
4
100
AcDbLine
 10
59.668274
 20
3.103113
 30
0.0
 11
59.605339
 21
3.192849
 31
0.0
  0
LINE
  5
58B
330
1F
100
AcDbEntity
  8
1
  6
CONTINUOUS
370
50
 62
4
100
AcDbLine
 10
58.697483
 20
-0.283782
 30
0.0
 11
58.662598
 21
-0.234614
 31
0.0
  0
LINE
  5
58C
330
1F
100
AcDbEntity
  8
1
  6
CONTINUOUS
370
50
 62
4
100
AcDbLine
 10
59.605339
 20
3.192849
 30
0.0
 11
59.537571
 21
3.279011
 31
0.0
  0
LINE
  5
58D
330
1F
100
AcDbEntity
  8
1
  6
CONTINUOUS
370
50
 62
4
100
AcDbLine
 10
58.662598
 20
-0.234614
 30
0.0
 11
58.626163
 21
-0.19001
 31
0.0
  0
LINE
  5
58E
330
1F
100
AcDbEntity
  8
1
  6
CONTINUOUS
370
50
 62
4
100
AcDbLine
 10
53.032963
 20
-1.78596
 30
0.0
 11
52.995995
 21
-1.740921
 31
0.0
  0
LINE
  5
58F
330
1F
100
AcDbEntity
  8
1
  6
CONTINUOUS
370
50
 62
4
100
AcDbLine
 10
52.923447
 20
3.213838
 30
0.0
 11
52.901592
 21
3.239897
 31
0.0
  0
LINE
  5
590
330
1F
100
AcDbEntity
  8
1
  6
CONTINUOUS
370
50
 62
4
100
AcDbLine
 10
59.537571
 20
3.279011
 30
0.0
 11
59.465134
 21
3.36139
 31
0.0
  0
LINE
  5
591
330
1F
100
AcDbEntity
  8
1
  6
CONTINUOUS
370
50
 62
4
100
AcDbLine
 10
58.626163
 20
-0.19001
 30
0.0
 11
58.588348
 21
-0.150024
 31
0.0
  0
LINE
  5
592
330
1F
100
AcDbEntity
  8
1
  6
CONTINUOUS
370
50
 62
4
100
AcDbLine
 10
59.465134
 20
3.36139
 30
0.0
 11
59.38834
 21
3.439623
 31
0.0
  0
LINE
  5
593
330
1F
100
AcDbEntity
  8
1
  6
CONTINUOUS
370
50
 62
4
100
AcDbLine
 10
52.95005
 20
3.187901
 30
0.0
 11
52.923447
 21
3.213838
 31
0.0
  0
LINE
  5
594
330
1F
100
AcDbEntity
  8
1
  6
CONTINUOUS
370
50
 62
4
100
AcDbLine
 10
53.453041
 20
-2.182408
 30
0.0
 11
53.316879
 21
-2.053121
 31
0.0
  0
LINE
  5
595
330
1F
100
AcDbEntity
  8
1
  6
CONTINUOUS
370
50
 62
4
100
AcDbLine
 10
53.316879
 20
-2.053121
 30
0.0
 11
53.177372
 21
-1.920844
 31
0.0
  0
LINE
  5
596
330
1F
100
AcDbEntity
  8
1
  6
CONTINUOUS
370
50
 62
4
100
AcDbLine
 10
53.587421
 20
-2.308318
 30
0.0
 11
53.453041
 21
-2.182408
 31
0.0
  0
LINE
  5
597
330
1F
100
AcDbEntity
  8
1
  6
CONTINUOUS
370
50
 62
4
100
AcDbLine
 10
53.177372
 20
-1.920844
 30
0.0
 11
53.032963
 21
-1.78596
 31
0.0
  0
LINE
  5
598
330
1F
100
AcDbEntity
  8
1
  6
CONTINUOUS
370
50
 62
4
100
AcDbLine
 10
59.38834
 20
3.439623
 30
0.0
 11
59.30743
 21
3.51348
 31
0.0
  0
LINE
  5
599
330
1F
100
AcDbEntity
  8
1
  6
CONTINUOUS
370
50
 62
4
100
AcDbLine
 10
53.721577
 20
-2.430468
 30
0.0
 11
53.587421
 21
-2.308318
 31
0.0
  0
LINE
  5
59A
330
1F
100
AcDbEntity
  8
1
  6
CONTINUOUS
370
50
 62
4
100
AcDbLine
 10
58.588348
 20
-0.150024
 30
0.0
 11
58.549313
 21
-0.114711
 31
0.0
  0
LINE
  5
59B
330
1F
100
AcDbEntity
  8
1
  6
CONTINUOUS
370
50
 62
4
100
AcDbLine
 10
53.857056
 20
-2.548457
 30
0.0
 11
53.721577
 21
-2.430468
 31
0.0
  0
LINE
  5
59C
330
1F
100
AcDbEntity
  8
1
  6
CONTINUOUS
370
50
 62
4
100
AcDbLine
 10
52.962185
 20
3.177385
 30
0.0
 11
52.95005
 21
3.187901
 31
0.0
  0
LINE
  5
59D
330
1F
100
AcDbEntity
  8
1
  6
CONTINUOUS
370
50
 62
4
100
AcDbLine
 10
54.196175
 20
2.251042
 30
0.0
 11
54.058823
 21
2.369412
 31
0.0
  0
LINE
  5
59E
330
1F
100
AcDbEntity
  8
1
  6
CONTINUOUS
370
50
 62
4
100
AcDbLine
 10
54.058823
 20
2.369412
 30
0.0
 11
53.920269
 21
2.488734
 31
0.0
  0
LINE
  5
59F
330
1F
100
AcDbEntity
  8
1
  6
CONTINUOUS
370
50
 62
4
100
AcDbLine
 10
54.333588
 20
2.134429
 30
0.0
 11
54.196175
 21
2.251042
 31
0.0
  0
LINE
  5
5A0
330
1F
100
AcDbEntity
  8
1
  6
CONTINUOUS
370
50
 62
4
100
AcDbLine
 10
53.920269
 20
2.488734
 30
0.0
 11
53.77993799999999
 21
2.607494
 31
0.0
  0
LINE
  5
5A1
330
1F
100
AcDbEntity
  8
1
  6
CONTINUOUS
370
50
 62
4
100
AcDbLine
 10
54.47233199999999
 20
2.020379
 30
0.0
 11
54.333588
 21
2.134429
 31
0.0
  0
LINE
  5
5A2
330
1F
100
AcDbEntity
  8
1
  6
CONTINUOUS
370
50
 62
4
100
AcDbLine
 10
53.992096
 20
-2.658887
 30
0.0
 11
53.857056
 21
-2.548457
 31
0.0
  0
LINE
  5
5A3
330
1F
100
AcDbEntity
  8
1
  6
CONTINUOUS
370
50
 62
4
100
AcDbLine
 10
59.30743
 20
3.51348
 30
0.0
 11
59.222599
 21
3.582799
 31
0.0
  0
LINE
  5
5A4
330
1F
100
AcDbEntity
  8
1
  6
CONTINUOUS
370
50
 62
4
100
AcDbLine
 10
52.975025
 20
3.166917
 30
0.0
 11
52.962185
 21
3.177385
 31
0.0
  0
LINE
  5
5A5
330
1F
100
AcDbEntity
  8
1
  6
CONTINUOUS
370
50
 62
4
100
AcDbLine
 10
53.77993799999999
 20
2.607494
 30
0.0
 11
53.640923
 21
2.72053
 31
0.0
  0
LINE
  5
5A6
330
1F
100
AcDbEntity
  8
1
  6
CONTINUOUS
370
50
 62
4
100
AcDbLine
 10
54.613678
 20
1.909697
 30
0.0
 11
54.47233199999999
 21
2.020379
 31
0.0
  0
LINE
  5
5A7
330
1F
100
AcDbEntity
  8
1
  6
CONTINUOUS
370
50
 62
4
100
AcDbLine
 10
52.98854799999999
 20
3.156506
 30
0.0
 11
52.975025
 21
3.166917
 31
0.0
  0
LINE
  5
5A8
330
1F
100
AcDbEntity
  8
1
  6
CONTINUOUS
370
50
 62
4
100
AcDbLine
 10
53.640923
 20
2.72053
 30
0.0
 11
53.502331
 21
2.826879
 31
0.0
  0
LINE
  5
5A9
330
1F
100
AcDbEntity
  8
1
  6
CONTINUOUS
370
50
 62
4
100
AcDbLine
 10
58.549313
 20
-0.114711
 30
0.0
 11
58.509262
 21
-0.084149
 31
0.0
  0
LINE
  5
5AA
330
1F
100
AcDbEntity
  8
1
  6
CONTINUOUS
370
50
 62
4
100
AcDbLine
 10
54.125435
 20
-2.759678
 30
0.0
 11
53.992096
 21
-2.658887
 31
0.0
  0
LINE
  5
5AB
330
1F
100
AcDbEntity
  8
1
  6
CONTINUOUS
370
50
 62
4
100
AcDbLine
 10
54.758888
 20
1.803189
 30
0.0
 11
54.613678
 21
1.909697
 31
0.0
  0
LINE
  5
5AC
330
1F
100
AcDbEntity
  8
1
  6
CONTINUOUS
370
50
 62
4
100
AcDbLine
 10
53.002728
 20
3.146161
 30
0.0
 11
52.98854799999999
 21
3.156506
 31
0.0
  0
LINE
  5
5AD
330
1F
100
AcDbEntity
  8
1
  6
CONTINUOUS
370
50
 62
4
100
AcDbLine
 10
59.222599
 20
3.582799
 30
0.0
 11
59.134026
 21
3.647417
 31
0.0
  0
LINE
  5
5AE
330
1F
100
AcDbEntity
  8
1
  6
CONTINUOUS
370
50
 62
4
100
AcDbLine
 10
53.502331
 20
2.826879
 30
0.0
 11
53.426662
 21
2.881775
 31
0.0
  0
LINE
  5
5AF
330
1F
100
AcDbEntity
  8
1
  6
CONTINUOUS
370
50
 62
4
100
AcDbLine
 10
53.01754
 20
3.135888
 30
0.0
 11
53.002728
 21
3.146161
 31
0.0
  0
LINE
  5
5B0
330
1F
100
AcDbEntity
  8
1
  6
CONTINUOUS
370
50
 62
4
100
AcDbLine
 10
53.426662
 20
2.881775
 30
0.0
 11
53.350338
 21
2.934656
 31
0.0
  0
LINE
  5
5B1
330
1F
100
AcDbEntity
  8
1
  6
CONTINUOUS
370
50
 62
4
100
AcDbLine
 10
54.258224
 20
-2.851285
 30
0.0
 11
54.125435
 21
-2.759678
 31
0.0
  0
LINE
  5
5B2
330
1F
100
AcDbEntity
  8
1
  6
CONTINUOUS
370
50
 62
4
100
AcDbLine
 10
53.76111599999999
 20
2.649091
 30
0.0
 11
53.502419
 21
2.827026
 31
0.0
  0
LINE
  5
5B3
330
1F
100
AcDbEntity
  8
1
  6
CONTINUOUS
370
50
 62
4
100
AcDbLine
 10
54.909229
 20
1.701661
 30
0.0
 11
54.758888
 21
1.803189
 31
0.0
  0
LINE
  5
5B4
330
1F
100
AcDbEntity
  8
1
  6
CONTINUOUS
370
50
 62
4
100
AcDbLine
 10
53.032963
 20
3.125698
 30
0.0
 11
53.01754
 21
3.135888
 31
0.0
  0
LINE
  5
5B5
330
1F
100
AcDbEntity
  8
1
  6
CONTINUOUS
370
50
 62
4
100
AcDbLine
 10
53.350338
 20
2.934656
 30
0.0
 11
53.273083
 21
2.985505
 31
0.0
  0
LINE
  5
5B6
330
1F
100
AcDbEntity
  8
1
  6
CONTINUOUS
370
50
 62
4
100
AcDbLine
 10
59.134026
 20
3.647417
 30
0.0
 11
59.042023
 21
3.707098
 31
0.0
  0
LINE
  5
5B7
330
1F
100
AcDbEntity
  8
1
  6
CONTINUOUS
370
50
 62
4
100
AcDbLine
 10
58.509262
 20
-0.084149
 30
0.0
 11
58.468384
 21
-0.058375
 31
0.0
  0
LINE
  5
5B8
330
1F
100
AcDbEntity
  8
1
  6
CONTINUOUS
370
50
 62
4
100
AcDbLine
 10
53.273083
 20
2.985505
 30
0.0
 11
53.194618
 21
3.034305
 31
0.0
  0
LINE
  5
5B9
330
1F
100
AcDbEntity
  8
1
  6
CONTINUOUS
370
50
 62
4
100
AcDbLine
 10
54.391609
 20
-2.934164
 30
0.0
 11
54.258224
 21
-2.851285
 31
0.0
  0
LINE
  5
5BA
330
1F
100
AcDbEntity
  8
1
  6
CONTINUOUS
370
50
 62
4
100
AcDbLine
 10
55.06597499999999
 20
1.605917
 30
0.0
 11
54.909229
 21
1.701661
 31
0.0
  0
LINE
  5
5BB
330
1F
100
AcDbEntity
  8
1
  6
CONTINUOUS
370
50
 62
4
100
AcDbLine
 10
54.033401
 20
2.488337
 30
0.0
 11
53.76111599999999
 21
2.649091
 31
0.0
  0
LINE
  5
5BC
330
1F
100
AcDbEntity
  8
1
  6
CONTINUOUS
370
50
 62
4
100
AcDbLine
 10
53.194618
 20
3.034305
 30
0.0
 11
53.11467
 21
3.081042
 31
0.0
  0
LINE
  5
5BD
330
1F
100
AcDbEntity
  8
1
  6
CONTINUOUS
370
50
 62
4
100
AcDbLine
 10
59.042023
 20
3.707098
 30
0.0
 11
58.947029
 21
3.761571
 31
0.0
  0
LINE
  5
5BE
330
1F
100
AcDbEntity
  8
1
  6
CONTINUOUS
370
50
 62
4
100
AcDbLine
 10
54.526737
 20
-3.008772
 30
0.0
 11
54.391609
 21
-2.934164
 31
0.0
  0
LINE
  5
5BF
330
1F
100
AcDbEntity
  8
1
  6
CONTINUOUS
370
50
 62
4
100
AcDbLine
 10
53.11467
 20
3.081042
 30
0.0
 11
53.032963
 21
3.125698
 31
0.0
  0
LINE
  5
5C0
330
1F
100
AcDbEntity
  8
1
  6
CONTINUOUS
370
50
 62
4
100
AcDbLine
 10
55.229588
 20
1.517188
 30
0.0
 11
55.06597499999999
 21
1.605917
 31
0.0
  0
LINE
  5
5C1
330
1F
100
AcDbEntity
  8
1
  6
CONTINUOUS
370
50
 62
4
100
AcDbLine
 10
58.468384
 20
-0.058375
 30
0.0
 11
58.426811
 21
-0.037395
 31
0.0
  0
LINE
  5
5C2
330
1F
100
AcDbEntity
  8
1
  6
CONTINUOUS
370
50
 62
4
100
AcDbLine
 10
58.947029
 20
3.761571
 30
0.0
 11
58.84927399999999
 21
3.810726
 31
0.0
  0
LINE
  5
5C3
330
1F
100
AcDbEntity
  8
1
  6
CONTINUOUS
370
50
 62
4
100
AcDbLine
 10
54.36751599999999
 20
2.322619
 30
0.0
 11
54.033401
 21
2.488337
 31
0.0
  0
LINE
  5
5C4
330
1F
100
AcDbEntity
  8
1
  6
CONTINUOUS
370
50
 62
4
100
AcDbLine
 10
54.66475699999999
 20
-3.075564
 30
0.0
 11
54.526737
 21
-3.008772
 31
0.0
  0
LINE
  5
5C5
330
1F
100
AcDbEntity
  8
1
  6
CONTINUOUS
370
50
 62
4
100
AcDbLine
 10
55.398155
 20
1.43768
 30
0.0
 11
55.229588
 21
1.517188
 31
0.0
  0
LINE
  5
5C6
330
1F
100
AcDbEntity
  8
1
  6
CONTINUOUS
370
50
 62
4
100
AcDbLine
 10
58.84927399999999
 20
3.810726
 30
0.0
 11
58.748981
 21
3.854461
 31
0.0
  0
LINE
  5
5C7
330
1F
100
AcDbEntity
  8
1
  6
CONTINUOUS
370
50
 62
4
100
AcDbLine
 10
54.80681999999999
 20
-3.134997
 30
0.0
 11
54.66475699999999
 21
-3.075564
 31
0.0
  0
LINE
  5
5C8
330
1F
100
AcDbEntity
  8
1
  6
CONTINUOUS
370
50
 62
4
100
AcDbLine
 10
54.695721
 20
2.189198
 30
0.0
 11
54.36751599999999
 21
2.322619
 31
0.0
  0
LINE
  5
5C9
330
1F
100
AcDbEntity
  8
1
  6
CONTINUOUS
370
50
 62
4
100
AcDbLine
 10
55.571644
 20
1.368273
 30
0.0
 11
55.398155
 21
1.43768
 31
0.0
  0
LINE
  5
5CA
330
1F
100
AcDbEntity
  8
1
  6
CONTINUOUS
370
50
 62
4
100
AcDbLine
 10
58.426811
 20
-0.037395
 30
0.0
 11
58.384682
 21
-0.021214
 31
0.0
  0
LINE
  5
5CB
330
1F
100
AcDbEntity
  8
1
  6
CONTINUOUS
370
50
 62
4
100
AcDbLine
 10
58.748981
 20
3.854461
 30
0.0
 11
58.64637399999999
 21
3.89267
 31
0.0
  0
LINE
  5
5CC
330
1F
100
AcDbEntity
  8
1
  6
CONTINUOUS
370
50
 62
4
100
AcDbLine
 10
54.954075
 20
-3.187526
 30
0.0
 11
54.80681999999999
 21
-3.134997
 31
0.0
  0
LINE
  5
5CD
330
1F
100
AcDbEntity
  8
1
  6
CONTINUOUS
370
50
 62
4
100
AcDbLine
 10
55.750221
 20
1.309734
 30
0.0
 11
55.571644
 21
1.368273
 31
0.0
  0
LINE
  5
5CE
330
1F
100
AcDbEntity
  8
1
  6
CONTINUOUS
370
50
 62
4
100
AcDbLine
 10
55.03954299999999
 20
2.07711
 30
0.0
 11
54.695721
 21
2.189198
 31
0.0
  0
LINE
  5
5CF
330
1F
100
AcDbEntity
  8
1
  6
CONTINUOUS
370
50
 62
4
100
AcDbLine
 10
58.64637399999999
 20
3.89267
 30
0.0
 11
58.541676
 21
3.925249
 31
0.0
  0
LINE
  5
5D0
330
1F
100
AcDbEntity
  8
1
  6
CONTINUOUS
370
50
 62
4
100
AcDbLine
 10
55.10767
 20
-3.233609
 30
0.0
 11
54.954075
 21
-3.187526
 31
0.0
  0
LINE
  5
5D1
330
1F
100
AcDbEntity
  8
1
  6
CONTINUOUS
370
50
 62
4
100
AcDbLine
 10
58.384682
 20
-0.021214
 30
0.0
 11
58.342144
 21
-0.009835
 31
0.0
  0
LINE
  5
5D2
330
1F
100
AcDbEntity
  8
1
  6
CONTINUOUS
370
50
 62
4
100
AcDbLine
 10
55.933933
 20
1.262854
 30
0.0
 11
55.750221
 21
1.309734
 31
0.0
  0
LINE
  5
5D3
330
1F
100
AcDbEntity
  8
1
  6
CONTINUOUS
370
50
 62
4
100
AcDbLine
 10
58.541676
 20
3.925249
 30
0.0
 11
58.435314
 21
3.95205
 31
0.0
  0
LINE
  5
5D4
330
1F
100
AcDbEntity
  8
1
  6
CONTINUOUS
370
50
 62
4
100
AcDbLine
 10
55.393745
 20
1.988605
 30
0.0
 11
55.03954299999999
 21
2.07711
 31
0.0
  0
LINE
  5
5D5
330
1F
100
AcDbEntity
  8
1
  6
CONTINUOUS
370
50
 62
4
100
AcDbLine
 10
55.267273
 20
-3.27334
 30
0.0
 11
55.10767
 21
-3.233609
 31
0.0
  0
LINE
  5
5D6
330
1F
100
AcDbEntity
  8
1
  6
CONTINUOUS
370
50
 62
4
100
AcDbLine
 10
55.431385
 20
-3.306668
 30
0.0
 11
55.267273
 21
-3.27334
 31
0.0
  0
LINE
  5
5D7
330
1F
100
AcDbEntity
  8
1
  6
CONTINUOUS
370
50
 62
4
100
AcDbLine
 10
58.435314
 20
3.95205
 30
0.0
 11
58.327675
 21
3.972975
 31
0.0
  0
LINE
  5
5D8
330
1F
100
AcDbEntity
  8
1
  6
CONTINUOUS
370
50
 62
4
100
AcDbLine
 10
56.120811
 20
1.22872
 30
0.0
 11
55.933933
 21
1.262854
 31
0.0
  0
LINE
  5
5D9
330
1F
100
AcDbEntity
  8
1
  6
CONTINUOUS
370
50
 62
4
100
AcDbLine
 10
55.757786
 20
1.924175
 30
0.0
 11
55.393745
 21
1.988605
 31
0.0
  0
LINE
  5
5DA
330
1F
100
AcDbEntity
  8
1
  6
CONTINUOUS
370
50
 62
4
100
AcDbLine
 10
55.600136
 20
-3.334034
 30
0.0
 11
55.431385
 21
-3.306668
 31
0.0
  0
LINE
  5
5DB
330
1F
100
AcDbEntity
  8
1
  6
CONTINUOUS
370
50
 62
4
100
AcDbLine
 10
58.342144
 20
-0.009835
 30
0.0
 11
58.299328
 21
-0.003265
 31
0.0
  0
LINE
  5
5DC
330
1F
100
AcDbEntity
  8
1
  6
CONTINUOUS
370
50
 62
4
100
AcDbLine
 10
58.327675
 20
3.972975
 30
0.0
 11
58.219002
 21
3.987973
 31
0.0
  0
LINE
  5
5DD
330
1F
100
AcDbEntity
  8
1
  6
CONTINUOUS
370
50
 62
4
100
AcDbLine
 10
59.662403
 20
-2.678901
 30
0.0
 11
59.644386
 21
-2.676436
 31
0.0
  0
LINE
  5
5DE
330
1F
100
AcDbEntity
  8
1
  6
CONTINUOUS
370
50
 62
4
100
AcDbLine
 10
59.772366
 20
-0.004265
 30
0.0
 11
59.766026
 21
-0.003455
 31
0.0
  0
LINE
  5
5DF
330
1F
100
AcDbEntity
  8
1
  6
CONTINUOUS
370
50
 62
4
100
AcDbLine
 10
55.77367
 20
-3.355883
 30
0.0
 11
55.600136
 21
-3.334034
 31
0.0
  0
LINE
  5
5E0
330
1F
100
AcDbEntity
  8
1
  6
CONTINUOUS
370
50
 62
4
100
AcDbLine
 10
56.309677
 20
1.207803
 30
0.0
 11
56.120811
 21
1.22872
 31
0.0
  0
LINE
  5
5E1
330
1F
100
AcDbEntity
  8
1
  6
CONTINUOUS
370
50
 62
4
100
AcDbLine
 10
56.12719
 20
1.884922
 30
0.0
 11
55.757786
 21
1.924175
 31
0.0
  0
LINE
  5
5E2
330
1F
100
AcDbEntity
  8
1
  6
CONTINUOUS
370
50
 62
4
100
AcDbLine
 10
59.766026
 20
-0.003455
 30
0.0
 11
59.759605
 21
-0.002773
 31
0.0
  0
LINE
  5
5E3
330
1F
100
AcDbEntity
  8
1
  6
CONTINUOUS
370
50
 62
4
100
AcDbLine
 10
55.951939
 20
-3.372637
 30
0.0
 11
55.77367
 21
-3.355883
 31
0.0
  0
LINE
  5
5E4
330
1F
100
AcDbEntity
  8
1
  6
CONTINUOUS
370
50
 62
4
100
AcDbLine
 10
59.759605
 20
-0.002773
 30
0.0
 11
59.75309799999999
 21
-0.002219
 31
0.0
  0
LINE
  5
5E5
330
1F
100
AcDbEntity
  8
1
  6
CONTINUOUS
370
50
 62
4
100
AcDbLine
 10
58.219002
 20
3.987973
 30
0.0
 11
58.109669
 21
3.996991
 31
0.0
  0
LINE
  5
5E6
330
1F
100
AcDbEntity
  8
1
  6
CONTINUOUS
370
50
 62
4
100
AcDbLine
 10
56.132957
 20
-3.384454
 30
0.0
 11
55.951939
 21
-3.372637
 31
0.0
  0
LINE
  5
5E7
330
1F
100
AcDbEntity
  8
1
  6
CONTINUOUS
370
50
 62
4
100
AcDbLine
 10
59.75309799999999
 20
-0.002219
 30
0.0
 11
59.74651
 21
-0.00179
 31
0.0
  0
LINE
  5
5E8
330
1F
100
AcDbEntity
  8
1
  6
CONTINUOUS
370
50
 62
4
100
AcDbLine
 10
59.74651
 20
-0.00179
 30
0.0
 11
59.73983399999999
 21
-0.001485
 31
0.0
  0
LINE
  5
5E9
330
1F
100
AcDbEntity
  8
1
  6
CONTINUOUS
370
50
 62
4
100
AcDbLine
 10
56.5
 20
1.200366
 30
0.0
 11
56.309677
 21
1.207803
 31
0.0
  0
LINE
  5
5EA
330
1F
100
AcDbEntity
  8
1
  6
CONTINUOUS
370
50
 62
4
100
AcDbLine
 10
56.315804
 20
-3.391488
 30
0.0
 11
56.132957
 21
-3.384454
 31
0.0
  0
LINE
  5
5EB
330
1F
100
AcDbEntity
  8
1
  6
CONTINUOUS
370
50
 62
4
100
AcDbLine
 10
56.5
 20
1.871183
 30
0.0
 11
56.12719
 21
1.884922
 31
0.0
  0
LINE
  5
5EC
330
1F
100
AcDbEntity
  8
1
  6
CONTINUOUS
370
50
 62
4
100
AcDbLine
 10
58.109669
 20
3.996991
 30
0.0
 11
58.0
 21
4.0
 31
0.0
  0
LINE
  5
5ED
330
1F
100
AcDbEntity
  8
1
  6
CONTINUOUS
370
50
 62
4
100
AcDbLine
 10
59.73983399999999
 20
-0.001485
 30
0.0
 11
59.733078
 21
-0.001304
 31
0.0
  0
LINE
  5
5EE
330
1F
100
AcDbEntity
  8
1
  6
CONTINUOUS
370
50
 62
4
100
AcDbLine
 10
59.68045
 20
-2.679371
 30
0.0
 11
59.662403
 21
-2.678901
 31
0.0
  0
LINE
  5
5EF
330
1F
100
AcDbEntity
  8
1
  6
CONTINUOUS
370
50
 62
4
100
AcDbLine
 10
58.511391
 20
2.942594
 30
0.0
 11
58.299328
 21
2.945641
 31
0.0
  0
LINE
  5
5F0
330
1F
100
AcDbEntity
  8
1
  6
CONTINUOUS
370
50
 62
4
100
AcDbLine
 10
58.72501
 20
2.939649
 30
0.0
 11
58.511391
 21
2.942594
 31
0.0
  0
LINE
  5
5F1
330
1F
100
AcDbEntity
  8
1
  6
CONTINUOUS
370
50
 62
4
100
AcDbLine
 10
56.5
 20
-3.39393
 30
0.0
 11
56.315804
 21
-3.391488
 31
0.0
  0
LINE
  5
5F2
330
1F
100
AcDbEntity
  8
1
  6
CONTINUOUS
370
50
 62
4
100
AcDbLine
 10
58.938927
 20
2.936815
 30
0.0
 11
58.72501
 21
2.939649
 31
0.0
  0
LINE
  5
5F3
330
1F
100
AcDbEntity
  8
1
  6
CONTINUOUS
370
50
 62
4
100
AcDbLine
 10
59.151882
 20
2.934096
 30
0.0
 11
58.938927
 21
2.936815
 31
0.0
  0
LINE
  5
5F4
330
1F
100
AcDbEntity
  8
1
  6
CONTINUOUS
370
50
 62
4
100
AcDbLine
 10
59.36261
 20
2.931497
 30
0.0
 11
59.151882
 21
2.934096
 31
0.0
  0
LINE
  5
5F5
330
1F
100
AcDbEntity
  8
1
  6
CONTINUOUS
370
50
 62
4
100
AcDbLine
 10
59.56985899999999
 20
2.92902
 30
0.0
 11
59.36261
 21
2.931497
 31
0.0
  0
LINE
  5
5F6
330
1F
100
AcDbEntity
  8
1
  6
CONTINUOUS
370
50
 62
4
100
AcDbLine
 10
59.772366
 20
2.92667
 30
0.0
 11
59.56985899999999
 21
2.92902
 31
0.0
  0
LINE
  5
5F7
330
1F
100
AcDbEntity
  8
1
  6
CONTINUOUS
370
50
 62
4
100
AcDbLine
 10
59.733078
 20
-0.001304
 30
0.0
 11
59.726238
 21
-0.001244
 31
0.0
  0
LINE
  5
5F8
330
1F
100
AcDbEntity
  8
1
  6
CONTINUOUS
370
50
 62
4
100
AcDbLine
 10
59.772366
 20
-0.004265
 30
0.0
 11
59.56985899999999
 21
-0.004127
 31
0.0
  0
LINE
  5
5F9
330
1F
100
AcDbEntity
  8
1
  6
CONTINUOUS
370
50
 62
4
100
AcDbLine
 10
59.56985899999999
 20
-0.004127
 30
0.0
 11
59.36261
 21
-0.003986
 31
0.0
  0
LINE
  5
5FA
330
1F
100
AcDbEntity
  8
1
  6
CONTINUOUS
370
50
 62
4
100
AcDbLine
 10
59.151882
 20
-0.003843
 30
0.0
 11
58.938927
 21
-0.003698
 31
0.0
  0
LINE
  5
5FB
330
1F
100
AcDbEntity
  8
1
  6
CONTINUOUS
370
50
 62
4
100
AcDbLine
 10
59.36261
 20
-0.003986
 30
0.0
 11
59.151882
 21
-0.003843
 31
0.0
  0
LINE
  5
5FC
330
1F
100
AcDbEntity
  8
1
  6
CONTINUOUS
370
50
 62
4
100
AcDbLine
 10
58.938927
 20
-0.003698
 30
0.0
 11
58.72501
 21
-0.003553
 31
0.0
  0
LINE
  5
5FD
330
1F
100
AcDbEntity
  8
1
  6
CONTINUOUS
370
50
 62
4
100
AcDbLine
 10
58.72501
 20
-0.003553
 30
0.0
 11
58.511391
 21
-0.003408
 31
0.0
  0
LINE
  5
5FE
330
1F
100
AcDbEntity
  8
1
  6
CONTINUOUS
370
50
 62
4
100
AcDbLine
 10
58.511391
 20
-0.003408
 30
0.0
 11
58.299328
 21
-0.003265
 31
0.0
  0
LINE
  5
5FF
330
1F
100
AcDbEntity
  8
1
  6
CONTINUOUS
370
50
 62
4
100
AcDbLine
 10
58.0
 20
-4.0
 30
0.0
 11
56.5
 21
-3.9999
 31
0.0
  0
LINE
  5
600
330
1F
100
AcDbEntity
  8
1
  6
CONTINUOUS
370
50
 62
4
100
AcDbLine
 10
58.0
 20
-3.946779
 30
0.0
 11
57.25
 21
-3.946737
 31
0.0
  0
LINE
  5
601
330
1F
100
AcDbEntity
  8
1
  6
CONTINUOUS
370
50
 62
4
100
AcDbLine
 10
57.0
 20
-3.946724
 30
0.0
 11
56.75
 21
-3.94671
 31
0.0
  0
LINE
  5
602
330
1F
100
AcDbEntity
  8
1
  6
CONTINUOUS
370
50
 62
4
100
AcDbLine
 10
56.75
 20
-3.94671
 30
0.0
 11
56.5
 21
-3.946696
 31
0.0
  0
LINE
  5
603
330
1F
100
AcDbEntity
  8
1
  6
CONTINUOUS
370
50
 62
4
100
AcDbLine
 10
57.25
 20
-3.946737
 30
0.0
 11
57.0
 21
-3.946724
 31
0.0
  0
LINE
  5
604
330
1F
100
AcDbEntity
  8
1
  6
CONTINUOUS
370
50
 62
4
100
AcDbLine
 10
56.5
 20
3.599946
 30
0.0
 11
56.167877
 21
3.599954
 31
0.0
  0
LINE
  5
605
330
1F
100
AcDbEntity
  8
1
  6
CONTINUOUS
370
50
 62
4
100
AcDbLine
 10
59.564266
 20
-1.14989
 30
0.0
 11
59.05351599999999
 21
-1.149883
 31
0.0
  0
LINE
  5
606
330
1F
100
AcDbEntity
  8
1
  6
CONTINUOUS
370
50
 62
4
100
AcDbLine
 10
58.542732
 20
-1.149877
 30
0.0
 11
58.031952
 21
-1.14987
 31
0.0
  0
LINE
  5
607
330
1F
100
AcDbEntity
  8
1
  6
CONTINUOUS
370
50
 62
4
100
AcDbLine
 10
57.521214
 20
-1.149864
 30
0.0
 11
57.010555
 21
-1.149857
 31
0.0
  0
LINE
  5
608
330
1F
100
AcDbEntity
  8
1
  6
CONTINUOUS
370
50
 62
4
100
AcDbLine
 10
59.05351599999999
 20
-1.149883
 30
0.0
 11
58.542732
 21
-1.149877
 31
0.0
  0
LINE
  5
609
330
1F
100
AcDbEntity
  8
1
  6
CONTINUOUS
370
50
 62
4
100
AcDbLine
 10
58.031952
 20
-1.14987
 30
0.0
 11
57.521214
 21
-1.149864
 31
0.0
  0
LINE
  5
60A
330
1F
100
AcDbEntity
  8
1
  6
CONTINUOUS
370
50
 62
4
100
AcDbLine
 10
57.010555
 20
-1.149857
 30
0.0
 11
56.5
 21
-1.149851
 31
0.0
  0
LINE
  5
60B
330
1F
100
AcDbEntity
  8
1
  6
CONTINUOUS
370
50
 62
4
100
AcDbLine
 10
58.650734
 20
3.010003
 30
0.0
 11
58.112949
 21
3.010004
 31
0.0
  0
LINE
  5
60C
330
1F
100
AcDbEntity
  8
1
  6
CONTINUOUS
370
50
 62
4
100
AcDbLine
 10
57.57520299999999
 20
3.010004
 30
0.0
 11
57.037544
 21
3.010005
 31
0.0
  0
LINE
  5
60D
330
1F
100
AcDbEntity
  8
1
  6
CONTINUOUS
370
50
 62
4
100
AcDbLine
 10
28.0
 20
-3.59995
 30
0.0
 11
56.5
 21
-3.59995
 31
0.0
  0
LINE
  5
60E
330
1F
100
AcDbEntity
  8
1
  6
CONTINUOUS
370
50
 62
4
100
AcDbLine
 10
58.650734
 20
3.010003
 30
0.0
 11
59.726238
 21
3.010003
 31
0.0
  0
LINE
  5
60F
330
1F
100
AcDbEntity
  8
1
  6
CONTINUOUS
370
50
 62
4
100
AcDbLine
 10
57.57520299999999
 20
3.010004
 30
0.0
 11
58.112949
 21
3.010004
 31
0.0
  0
LINE
  5
610
330
1F
100
AcDbEntity
  8
1
  6
CONTINUOUS
370
50
 62
4
100
AcDbLine
 10
56.5
 20
3.010005
 30
0.0
 11
57.037544
 21
3.010005
 31
0.0
  0
LINE
  5
611
330
1F
100
AcDbEntity
  8
1
  6
CONTINUOUS
370
50
 62
4
100
AcDbLine
 10
28.0
 20
3.59995
 30
0.0
 11
56.5
 21
3.59995
 31
0.0
  0
LINE
  5
612
330
1F
100
AcDbEntity
  8
1
  6
CONTINUOUS
370
50
 62
4
100
AcDbLine
 10
59.668274
 20
-0.001247
 30
0.0
 11
59.726238
 21
-0.001244
 31
0.0
  0
LINE
  5
613
330
1F
100
AcDbEntity
  8
1
  6
CONTINUOUS
370
50
 62
4
100
AcDbLine
 10
59.605339
 20
-0.001251
 30
0.0
 11
59.668274
 21
-0.001247
 31
0.0
  0
LINE
  5
614
330
1F
100
AcDbEntity
  8
1
  6
CONTINUOUS
370
50
 62
4
100
AcDbLine
 10
56.5
 20
3.9999
 30
0.0
 11
56.92857
 21
3.999928
 31
0.0
  0
LINE
  5
615
330
1F
100
AcDbEntity
  8
1
  6
CONTINUOUS
370
50
 62
4
100
AcDbLine
 10
57.142857
 20
3.999943
 30
0.0
 11
57.57143
 21
3.999971
 31
0.0
  0
LINE
  5
616
330
1F
100
AcDbEntity
  8
1
  6
CONTINUOUS
370
50
 62
4
100
AcDbLine
 10
57.57143
 20
3.999971
 30
0.0
 11
57.78571299999999
 21
3.999985
 31
0.0
  0
LINE
  5
617
330
1F
100
AcDbEntity
  8
1
  6
CONTINUOUS
370
50
 62
4
100
AcDbLine
 10
56.92857
 20
3.999928
 30
0.0
 11
57.142857
 21
3.999943
 31
0.0
  0
LINE
  5
618
330
1F
100
AcDbEntity
  8
1
  6
CONTINUOUS
370
50
 62
4
100
AcDbLine
 10
57.78571299999999
 20
3.999985
 30
0.0
 11
58.0
 21
4.0
 31
0.0
  0
LINE
  5
619
330
1F
100
AcDbEntity
  8
1
  6
CONTINUOUS
370
50
 62
4
100
AcDbLine
 10
59.537571
 20
-0.001256
 30
0.0
 11
59.605339
 21
-0.001251
 31
0.0
  0
LINE
  5
61A
330
1F
100
AcDbEntity
  8
1
  6
CONTINUOUS
370
50
 62
4
100
AcDbLine
 10
56.75
 20
0.650242
 30
0.0
 11
57.5
 21
0.650299
 31
0.0
  0
LINE
  5
61B
330
1F
100
AcDbEntity
  8
1
  6
CONTINUOUS
370
50
 62
4
100
AcDbLine
 10
57.75
 20
0.650319
 30
0.0
 11
58.0
 21
0.650338
 31
0.0
  0
LINE
  5
61C
330
1F
100
AcDbEntity
  8
1
  6
CONTINUOUS
370
50
 62
4
100
AcDbLine
 10
59.38834
 20
-0.001268
 30
0.0
 11
59.465134
 21
-0.001262
 31
0.0
  0
LINE
  5
61D
330
1F
100
AcDbEntity
  8
1
  6
CONTINUOUS
370
50
 62
4
100
AcDbLine
 10
56.5
 20
0.650222
 30
0.0
 11
56.75
 21
0.650242
 31
0.0
  0
LINE
  5
61E
330
1F
100
AcDbEntity
  8
1
  6
CONTINUOUS
370
50
 62
4
100
AcDbLine
 10
57.5
 20
0.650299
 30
0.0
 11
57.75
 21
0.650319
 31
0.0
  0
LINE
  5
61F
330
1F
100
AcDbEntity
  8
1
  6
CONTINUOUS
370
50
 62
4
100
AcDbLine
 10
59.465134
 20
-0.001262
 30
0.0
 11
59.537571
 21
-0.001256
 31
0.0
  0
LINE
  5
620
330
1F
100
AcDbEntity
  8
1
  6
CONTINUOUS
370
50
 62
4
100
AcDbLine
 10
59.30743
 20
-0.001275
 30
0.0
 11
59.38834
 21
-0.001268
 31
0.0
  0
LINE
  5
621
330
1F
100
AcDbEntity
  8
1
  6
CONTINUOUS
370
50
 62
4
100
AcDbLine
 10
59.134026
 20
-0.001292
 30
0.0
 11
59.222599
 21
-0.001284
 31
0.0
  0
LINE
  5
622
330
1F
100
AcDbEntity
  8
1
  6
CONTINUOUS
370
50
 62
4
100
AcDbLine
 10
57.524174
 20
-1.134602
 30
0.0
 11
58.03625899999999
 21
-1.134555
 31
0.0
  0
LINE
  5
623
330
1F
100
AcDbEntity
  8
1
  6
CONTINUOUS
370
50
 62
4
100
AcDbLine
 10
58.03625899999999
 20
-1.134555
 30
0.0
 11
59.572517
 21
-1.134411
 31
0.0
  0
LINE
  5
624
330
1F
100
AcDbEntity
  8
1
  6
CONTINUOUS
370
50
 62
4
100
AcDbLine
 10
57.012085
 20
-1.13465
 30
0.0
 11
57.524174
 21
-1.134602
 31
0.0
  0
LINE
  5
625
330
1F
100
AcDbEntity
  8
1
  6
CONTINUOUS
370
50
 62
4
100
AcDbLine
 10
56.5
 20
-1.134698
 30
0.0
 11
57.012085
 21
-1.13465
 31
0.0
  0
LINE
  5
626
330
1F
100
AcDbEntity
  8
1
  6
CONTINUOUS
370
50
 62
4
100
AcDbLine
 10
58.947029
 20
-0.001312
 30
0.0
 11
59.042023
 21
-0.001302
 31
0.0
  0
LINE
  5
627
330
1F
100
AcDbEntity
  8
1
  6
CONTINUOUS
370
50
 62
4
100
AcDbLine
 10
59.222599
 20
-0.001284
 30
0.0
 11
59.30743
 21
-0.001275
 31
0.0
  0
LINE
  5
628
330
1F
100
AcDbEntity
  8
1
  6
CONTINUOUS
370
50
 62
4
100
AcDbLine
 10
59.042023
 20
-0.001302
 30
0.0
 11
59.134026
 21
-0.001292
 31
0.0
  0
LINE
  5
629
330
1F
100
AcDbEntity
  8
1
  6
CONTINUOUS
370
50
 62
4
100
AcDbLine
 10
58.84927399999999
 20
-0.001323
 30
0.0
 11
58.947029
 21
-0.001312
 31
0.0
  0
LINE
  5
62A
330
1F
100
AcDbEntity
  8
1
  6
CONTINUOUS
370
50
 62
4
100
AcDbLine
 10
58.64637399999999
 20
-0.001347
 30
0.0
 11
58.748981
 21
-0.001335
 31
0.0
  0
LINE
  5
62B
330
1F
100
AcDbEntity
  8
1
  6
CONTINUOUS
370
50
 62
4
100
AcDbLine
 10
58.748981
 20
-0.001335
 30
0.0
 11
58.84927399999999
 21
-0.001323
 31
0.0
  0
LINE
  5
62C
330
1F
100
AcDbEntity
  8
1
  6
CONTINUOUS
370
50
 62
4
100
AcDbLine
 10
58.541676
 20
-0.00136
 30
0.0
 11
58.64637399999999
 21
-0.001347
 31
0.0
  0
LINE
  5
62D
330
1F
100
AcDbEntity
  8
1
  6
CONTINUOUS
370
50
 62
4
100
AcDbLine
 10
58.219002
 20
-0.001402
 30
0.0
 11
58.327675
 21
-0.001388
 31
0.0
  0
LINE
  5
62E
330
1F
100
AcDbEntity
  8
1
  6
CONTINUOUS
370
50
 62
4
100
AcDbLine
 10
58.327675
 20
-0.001388
 30
0.0
 11
58.435314
 21
-0.001374
 31
0.0
  0
LINE
  5
62F
330
1F
100
AcDbEntity
  8
1
  6
CONTINUOUS
370
50
 62
4
100
AcDbLine
 10
58.435314
 20
-0.001374
 30
0.0
 11
58.541676
 21
-0.00136
 31
0.0
  0
LINE
  5
630
330
1F
100
AcDbEntity
  8
1
  6
CONTINUOUS
370
50
 62
4
100
AcDbLine
 10
58.109669
 20
-0.001417
 30
0.0
 11
58.219002
 21
-0.001402
 31
0.0
  0
LINE
  5
631
330
1F
100
AcDbEntity
  8
1
  6
CONTINUOUS
370
50
 62
4
100
AcDbLine
 10
56.92857
 20
-0.001586
 30
0.0
 11
57.142857
 21
-0.001556
 31
0.0
  0
LINE
  5
632
330
1F
100
AcDbEntity
  8
1
  6
CONTINUOUS
370
50
 62
4
100
AcDbLine
 10
57.78571299999999
 20
-0.001463
 30
0.0
 11
58.0
 21
-0.001433
 31
0.0
  0
LINE
  5
633
330
1F
100
AcDbEntity
  8
1
  6
CONTINUOUS
370
50
 62
4
100
AcDbLine
 10
56.5
 20
-0.001648
 30
0.0
 11
56.92857
 21
-0.001586
 31
0.0
  0
LINE
  5
634
330
1F
100
AcDbEntity
  8
1
  6
CONTINUOUS
370
50
 62
4
100
AcDbLine
 10
57.142857
 20
-0.001556
 30
0.0
 11
57.57143
 21
-0.001494
 31
0.0
  0
LINE
  5
635
330
1F
100
AcDbEntity
  8
1
  6
CONTINUOUS
370
50
 62
4
100
AcDbLine
 10
57.57143
 20
-0.001494
 30
0.0
 11
57.78571299999999
 21
-0.001463
 31
0.0
  0
LINE
  5
636
330
1F
100
AcDbEntity
  8
1
  6
CONTINUOUS
370
50
 62
4
100
AcDbLine
 10
58.0
 20
-0.001433
 30
0.0
 11
58.109669
 21
-0.001417
 31
0.0
  0
LINE
  5
637
330
1F
100
AcDbEntity
  8
1
  6
CONTINUOUS
370
50
 62
4
100
AcDbLine
 10
56.5
 20
1.896656
 30
0.0
 11
59.560513
 21
1.897151
 31
0.0
  0
LINE
  5
638
330
1F
100
AcDbEntity
  8
1
  6
CONTINUOUS
370
50
 62
4
100
AcDbLine
 10
55.837101
 20
3.599846
 30
0.0
 11
56.167877
 21
3.599954
 31
0.0
  0
LINE
  5
639
330
1F
100
AcDbEntity
  8
1
  6
CONTINUOUS
370
50
 62
4
100
AcDbLine
 10
55.506714
 20
3.599423
 30
0.0
 11
55.837101
 21
3.599846
 31
0.0
  0
LINE
  5
63A
330
1F
100
AcDbEntity
  8
1
  6
CONTINUOUS
370
50
 62
4
100
AcDbLine
 10
59.772366
 20
-0.004265
 30
0.0
 11
59.810909
 21
-0.004174
 31
0.0
  0
LINE
  5
63B
330
1F
100
AcDbEntity
  8
1
  6
CONTINUOUS
370
50
 62
4
100
AcDbLine
 10
59.810909
 20
-0.004174
 30
0.0
 11
59.84501299999999
 21
-0.004082
 31
0.0
  0
LINE
  5
63C
330
1F
100
AcDbEntity
  8
1
  6
CONTINUOUS
370
50
 62
4
100
AcDbLine
 10
55.176888
 20
3.598451
 30
0.0
 11
55.506714
 21
3.599423
 31
0.0
  0
LINE
  5
63D
330
1F
100
AcDbEntity
  8
1
  6
CONTINUOUS
370
50
 62
4
100
AcDbLine
 10
59.84501299999999
 20
-0.004082
 30
0.0
 11
59.876286
 21
-0.003983
 31
0.0
  0
LINE
  5
63E
330
1F
100
AcDbEntity
  8
1
  6
CONTINUOUS
370
50
 62
4
100
AcDbLine
 10
59.876286
 20
-0.003983
 30
0.0
 11
59.904892
 21
-0.003878
 31
0.0
  0
LINE
  5
63F
330
1F
100
AcDbEntity
  8
1
  6
CONTINUOUS
370
50
 62
4
100
AcDbLine
 10
59.904892
 20
-0.003878
 30
0.0
 11
59.93026
 21
-0.003766
 31
0.0
  0
LINE
  5
640
330
1F
100
AcDbEntity
  8
1
  6
CONTINUOUS
370
50
 62
4
100
AcDbLine
 10
59.93026
 20
-0.003766
 30
0.0
 11
59.95195
 21
-0.003648
 31
0.0
  0
LINE
  5
641
330
1F
100
AcDbEntity
  8
1
  6
CONTINUOUS
370
50
 62
4
100
AcDbLine
 10
54.849346
 20
3.596528
 30
0.0
 11
55.176888
 21
3.598451
 31
0.0
  0
LINE
  5
642
330
1F
100
AcDbEntity
  8
1
  6
CONTINUOUS
370
50
 62
4
100
AcDbLine
 10
59.95195
 20
-0.003648
 30
0.0
 11
59.969673
 21
-0.003526
 31
0.0
  0
LINE
  5
643
330
1F
100
AcDbEntity
  8
1
  6
CONTINUOUS
370
50
 62
4
100
AcDbLine
 10
59.969673
 20
-0.003526
 30
0.0
 11
59.98328
 21
-0.003401
 31
0.0
  0
LINE
  5
644
330
1F
100
AcDbEntity
  8
1
  6
CONTINUOUS
370
50
 62
4
100
AcDbLine
 10
54.523731
 20
3.593204
 30
0.0
 11
54.849346
 21
3.596528
 31
0.0
  0
LINE
  5
645
330
1F
100
AcDbEntity
  8
1
  6
CONTINUOUS
370
50
 62
4
100
AcDbLine
 10
59.98328
 20
-0.003401
 30
0.0
 11
59.992756
 21
-0.003275
 31
0.0
  0
LINE
  5
646
330
1F
100
AcDbEntity
  8
1
  6
CONTINUOUS
370
50
 62
4
100
AcDbLine
 10
54.19961199999999
 20
3.58803
 30
0.0
 11
54.523731
 21
3.593204
 31
0.0
  0
LINE
  5
647
330
1F
100
AcDbEntity
  8
1
  6
CONTINUOUS
370
50
 62
4
100
AcDbLine
 10
56.167877
 20
-0.011996
 30
0.0
 11
56.5
 21
-0.005498
 31
0.0
  0
LINE
  5
648
330
1F
100
AcDbEntity
  8
1
  6
CONTINUOUS
370
50
 62
4
100
AcDbLine
 10
54.122074
 20
3.586416
 30
0.0
 11
54.19961199999999
 21
3.58803
 31
0.0
  0
LINE
  5
649
330
1F
100
AcDbEntity
  8
1
  6
CONTINUOUS
370
50
 62
4
100
AcDbLine
 10
59.992756
 20
-0.003275
 30
0.0
 11
59.998238
 21
-0.003149
 31
0.0
  0
LINE
  5
64A
330
1F
100
AcDbEntity
  8
1
  6
CONTINUOUS
370
50
 62
4
100
AcDbLine
 10
54.044853
 20
3.584538
 30
0.0
 11
54.122074
 21
3.586416
 31
0.0
  0
LINE
  5
64B
330
1F
100
AcDbEntity
  8
1
  6
CONTINUOUS
370
50
 62
4
100
AcDbLine
 10
53.968121
 20
3.58234
 30
0.0
 11
54.044853
 21
3.584538
 31
0.0
  0
LINE
  5
64C
330
1F
100
AcDbEntity
  8
1
  6
CONTINUOUS
370
50
 62
4
100
AcDbLine
 10
58.0
 20
-3.946779
 30
0.0
 11
58.09439099999999
 21
-3.943897
 31
0.0
  0
LINE
  5
64D
330
1F
100
AcDbEntity
  8
1
  6
CONTINUOUS
370
50
 62
4
100
AcDbLine
 10
53.892033
 20
3.579771
 30
0.0
 11
53.968121
 21
3.58234
 31
0.0
  0
LINE
  5
64E
330
1F
100
AcDbEntity
  8
1
  6
CONTINUOUS
370
50
 62
4
100
AcDbLine
 10
53.816753
 20
3.576776
 30
0.0
 11
53.892033
 21
3.579771
 31
0.0
  0
LINE
  5
64F
330
1F
100
AcDbEntity
  8
1
  6
CONTINUOUS
370
50
 62
4
100
AcDbLine
 10
58.0
 20
0.650338
 30
0.0
 11
58.09439099999999
 21
0.654107
 31
0.0
  0
LINE
  5
650
330
1F
100
AcDbEntity
  8
1
  6
CONTINUOUS
370
50
 62
4
100
AcDbLine
 10
53.742451
 20
3.573301
 30
0.0
 11
53.816753
 21
3.576776
 31
0.0
  0
LINE
  5
651
330
1F
100
AcDbEntity
  8
1
  6
CONTINUOUS
370
50
 62
4
100
AcDbLine
 10
59.129898
 20
1.896744
 30
0.0
 11
59.20041699999999
 21
1.900266
 31
0.0
  0
LINE
  5
652
330
1F
100
AcDbEntity
  8
1
  6
CONTINUOUS
370
50
 62
4
100
AcDbLine
 10
59.20041699999999
 20
1.900266
 30
0.0
 11
59.270947
 21
1.903943
 31
0.0
  0
LINE
  5
653
330
1F
100
AcDbEntity
  8
1
  6
CONTINUOUS
370
50
 62
4
100
AcDbLine
 10
59.270947
 20
1.903943
 30
0.0
 11
59.34148
 21
1.907775
 31
0.0
  0
LINE
  5
654
330
1F
100
AcDbEntity
  8
1
  6
CONTINUOUS
370
50
 62
4
100
AcDbLine
 10
53.669285
 20
3.569293
 30
0.0
 11
53.742451
 21
3.573301
 31
0.0
  0
LINE
  5
655
330
1F
100
AcDbEntity
  8
1
  6
CONTINUOUS
370
50
 62
4
100
AcDbLine
 10
59.34148
 20
1.907775
 30
0.0
 11
59.412006
 21
1.911762
 31
0.0
  0
LINE
  5
656
330
1F
100
AcDbEntity
  8
1
  6
CONTINUOUS
370
50
 62
4
100
AcDbLine
 10
55.837101
 20
-0.030824
 30
0.0
 11
56.167877
 21
-0.011996
 31
0.0
  0
LINE
  5
657
330
1F
100
AcDbEntity
  8
1
  6
CONTINUOUS
370
50
 62
4
100
AcDbLine
 10
59.412006
 20
1.911762
 30
0.0
 11
59.482525
 21
1.915901
 31
0.0
  0
LINE
  5
658
330
1F
100
AcDbEntity
  8
1
  6
CONTINUOUS
370
50
 62
4
100
AcDbLine
 10
59.482525
 20
1.915901
 30
0.0
 11
59.55302
 21
1.920198
 31
0.0
  0
LINE
  5
659
330
1F
100
AcDbEntity
  8
1
  6
CONTINUOUS
370
50
 62
4
100
AcDbLine
 10
53.597443
 20
3.564699
 30
0.0
 11
53.669285
 21
3.569293
 31
0.0
  0
LINE
  5
65A
330
1F
100
AcDbEntity
  8
1
  6
CONTINUOUS
370
50
 62
4
100
AcDbLine
 10
59.998238
 20
-0.003149
 30
0.0
 11
60.0
 21
-0.003023
 31
0.0
  0
LINE
  5
65B
330
1F
100
AcDbEntity
  8
1
  6
CONTINUOUS
370
50
 62
4
100
AcDbLine
 10
53.528305
 20
3.559534
 30
0.0
 11
53.597443
 21
3.564699
 31
0.0
  0
LINE
  5
65C
330
1F
100
AcDbEntity
  8
1
  6
CONTINUOUS
370
50
 62
4
100
AcDbLine
 10
53.462624
 20
3.553804
 30
0.0
 11
53.528305
 21
3.559534
 31
0.0
  0
LINE
  5
65D
330
1F
100
AcDbEntity
  8
1
  6
CONTINUOUS
370
50
 62
4
100
AcDbLine
 10
59.68045
 20
-2.679371
 30
0.0
 11
59.698421
 21
-2.677773
 31
0.0
  0
LINE
  5
65E
330
1F
100
AcDbEntity
  8
1
  6
CONTINUOUS
370
50
 62
4
100
AcDbLine
 10
58.09439099999999
 20
-3.943897
 30
0.0
 11
58.187725
 21
-3.935349
 31
0.0
  0
LINE
  5
65F
330
1F
100
AcDbEntity
  8
1
  6
CONTINUOUS
370
50
 62
4
100
AcDbLine
 10
55.506714
 20
-0.061697
 30
0.0
 11
55.837101
 21
-0.030824
 31
0.0
  0
LINE
  5
660
330
1F
100
AcDbEntity
  8
1
  6
CONTINUOUS
370
50
 62
4
100
AcDbLine
 10
53.40038699999999
 20
3.547487
 30
0.0
 11
53.462624
 21
3.553804
 31
0.0
  0
LINE
  5
661
330
1F
100
AcDbEntity
  8
1
  6
CONTINUOUS
370
50
 62
4
100
AcDbLine
 10
53.341583
 20
3.540557
 30
0.0
 11
53.40038699999999
 21
3.547487
 31
0.0
  0
LINE
  5
662
330
1F
100
AcDbEntity
  8
1
  6
CONTINUOUS
370
50
 62
4
100
AcDbLine
 10
58.09439099999999
 20
0.654107
 30
0.0
 11
58.187725
 21
0.665191
 31
0.0
  0
LINE
  5
663
330
1F
100
AcDbEntity
  8
1
  6
CONTINUOUS
370
50
 62
4
100
AcDbLine
 10
55.176888
 20
-0.104169
 30
0.0
 11
55.506714
 21
-0.061697
 31
0.0
  0
LINE
  5
664
330
1F
100
AcDbEntity
  8
1
  6
CONTINUOUS
370
50
 62
4
100
AcDbLine
 10
53.286198
 20
3.532991
 30
0.0
 11
53.341583
 21
3.540557
 31
0.0
  0
LINE
  5
665
330
1F
100
AcDbEntity
  8
1
  6
CONTINUOUS
370
50
 62
4
100
AcDbLine
 10
58.187725
 20
-3.935349
 30
0.0
 11
58.279472
 21
-3.921314
 31
0.0
  0
LINE
  5
666
330
1F
100
AcDbEntity
  8
1
  6
CONTINUOUS
370
50
 62
4
100
AcDbLine
 10
53.234222
 20
3.524764
 30
0.0
 11
53.286198
 21
3.532991
 31
0.0
  0
LINE
  5
667
330
1F
100
AcDbEntity
  8
1
  6
CONTINUOUS
370
50
 62
4
100
AcDbLine
 10
54.849346
 20
-0.157346
 30
0.0
 11
55.176888
 21
-0.104169
 31
0.0
  0
LINE
  5
668
330
1F
100
AcDbEntity
  8
1
  6
CONTINUOUS
370
50
 62
4
100
AcDbLine
 10
53.18565
 20
3.515853
 30
0.0
 11
53.234222
 21
3.524764
 31
0.0
  0
LINE
  5
669
330
1F
100
AcDbEntity
  8
1
  6
CONTINUOUS
370
50
 62
4
100
AcDbLine
 10
59.46106
 20
-0.801268
 30
0.0
 11
59.55302
 21
-0.784287
 31
0.0
  0
LINE
  5
66A
330
1F
100
AcDbEntity
  8
1
  6
CONTINUOUS
370
50
 62
4
100
AcDbLine
 10
59.369068
 20
-0.8183499999999999
 30
0.0
 11
59.46106
 21
-0.801268
 31
0.0
  0
LINE
  5
66B
330
1F
100
AcDbEntity
  8
1
  6
CONTINUOUS
370
50
 62
4
100
AcDbLine
 10
59.277065
 20
-0.83553
 30
0.0
 11
59.369068
 21
-0.8183499999999999
 31
0.0
  0
LINE
  5
66C
330
1F
100
AcDbEntity
  8
1
  6
CONTINUOUS
370
50
 62
4
100
AcDbLine
 10
59.185066
 20
-0.852803
 30
0.0
 11
59.277065
 21
-0.83553
 31
0.0
  0
LINE
  5
66D
330
1F
100
AcDbEntity
  8
1
  6
CONTINUOUS
370
50
 62
4
100
AcDbLine
 10
59.093086
 20
-0.8701669999999999
 30
0.0
 11
59.185066
 21
-0.852803
 31
0.0
  0
LINE
  5
66E
330
1F
100
AcDbEntity
  8
1
  6
CONTINUOUS
370
50
 62
4
100
AcDbLine
 10
59.001148
 20
-0.8876189999999999
 30
0.0
 11
59.093086
 21
-0.8701669999999999
 31
0.0
  0
LINE
  5
66F
330
1F
100
AcDbEntity
  8
1
  6
CONTINUOUS
370
50
 62
4
100
AcDbLine
 10
58.909267
 20
-0.905161
 30
0.0
 11
59.001148
 21
-0.8876189999999999
 31
0.0
  0
LINE
  5
670
330
1F
100
AcDbEntity
  8
1
  6
CONTINUOUS
370
50
 62
4
100
AcDbLine
 10
54.523731
 20
-0.220449
 30
0.0
 11
54.849346
 21
-0.157346
 31
0.0
  0
LINE
  5
671
330
1F
100
AcDbEntity
  8
1
  6
CONTINUOUS
370
50
 62
4
100
AcDbLine
 10
58.187725
 20
0.665191
 30
0.0
 11
58.279472
 21
0.683163
 31
0.0
  0
LINE
  5
672
330
1F
100
AcDbEntity
  8
1
  6
CONTINUOUS
370
50
 62
4
100
AcDbLine
 10
59.698421
 20
-2.677773
 30
0.0
 11
59.716213
 21
-2.67416
 31
0.0
  0
LINE
  5
673
330
1F
100
AcDbEntity
  8
1
  6
CONTINUOUS
370
50
 62
4
100
AcDbLine
 10
53.139996
 20
3.506129
 30
0.0
 11
53.18565
 21
3.515853
 31
0.0
  0
LINE
  5
674
330
1F
100
AcDbEntity
  8
1
  6
CONTINUOUS
370
50
 62
4
100
AcDbLine
 10
58.279472
 20
-3.921314
 30
0.0
 11
58.368649
 21
-3.902155
 31
0.0
  0
LINE
  5
675
330
1F
100
AcDbEntity
  8
1
  6
CONTINUOUS
370
50
 62
4
100
AcDbLine
 10
54.19961199999999
 20
-0.292709
 30
0.0
 11
54.523731
 21
-0.220449
 31
0.0
  0
LINE
  5
676
330
1F
100
AcDbEntity
  8
1
  6
CONTINUOUS
370
50
 62
4
100
AcDbLine
 10
54.170902
 20
-0.29963
 30
0.0
 11
54.19961199999999
 21
-0.292709
 31
0.0
  0
LINE
  5
677
330
1F
100
AcDbEntity
  8
1
  6
CONTINUOUS
370
50
 62
4
100
AcDbLine
 10
53.09660299999999
 20
3.495348
 30
0.0
 11
53.139996
 21
3.506129
 31
0.0
  0
LINE
  5
678
330
1F
100
AcDbEntity
  8
1
  6
CONTINUOUS
370
50
 62
4
100
AcDbLine
 10
54.14222299999999
 20
-0.306797
 30
0.0
 11
54.170902
 21
-0.29963
 31
0.0
  0
LINE
  5
679
330
1F
100
AcDbEntity
  8
1
  6
CONTINUOUS
370
50
 62
4
100
AcDbLine
 10
54.11357899999999
 20
-0.314215
 30
0.0
 11
54.14222299999999
 21
-0.306797
 31
0.0
  0
LINE
  5
67A
330
1F
100
AcDbEntity
  8
1
  6
CONTINUOUS
370
50
 62
4
100
AcDbLine
 10
54.084984
 20
-0.321886
 30
0.0
 11
54.11357899999999
 21
-0.314215
 31
0.0
  0
LINE
  5
67B
330
1F
100
AcDbEntity
  8
1
  6
CONTINUOUS
370
50
 62
4
100
AcDbLine
 10
58.279472
 20
0.683163
 30
0.0
 11
58.368649
 21
0.707272
 31
0.0
  0
LINE
  5
67C
330
1F
100
AcDbEntity
  8
1
  6
CONTINUOUS
370
50
 62
4
100
AcDbLine
 10
58.368649
 20
-3.902155
 30
0.0
 11
58.454956
 21
-3.878209
 31
0.0
  0
LINE
  5
67D
330
1F
100
AcDbEntity
  8
1
  6
CONTINUOUS
370
50
 62
4
100
AcDbLine
 10
54.056442
 20
-0.329815
 30
0.0
 11
54.084984
 21
-0.321886
 31
0.0
  0
LINE
  5
67E
330
1F
100
AcDbEntity
  8
1
  6
CONTINUOUS
370
50
 62
4
100
AcDbLine
 10
54.027962
 20
-0.338004
 30
0.0
 11
54.056442
 21
-0.329815
 31
0.0
  0
LINE
  5
67F
330
1F
100
AcDbEntity
  8
1
  6
CONTINUOUS
370
50
 62
4
100
AcDbLine
 10
53.055813
 20
3.483423
 30
0.0
 11
53.09660299999999
 21
3.495348
 31
0.0
  0
LINE
  5
680
330
1F
100
AcDbEntity
  8
1
  6
CONTINUOUS
370
50
 62
4
100
AcDbLine
 10
53.950813
 20
-0.361649
 30
0.0
 11
54.027962
 21
-0.338004
 31
0.0
  0
LINE
  5
681
330
1F
100
AcDbEntity
  8
1
  6
CONTINUOUS
370
50
 62
4
100
AcDbLine
 10
59.716213
 20
-2.67416
 30
0.0
 11
59.73372699999999
 21
-2.668582
 31
0.0
  0
LINE
  5
682
330
1F
100
AcDbEntity
  8
1
  6
CONTINUOUS
370
50
 62
4
100
AcDbLine
 10
53.87435499999999
 20
-0.387325
 30
0.0
 11
53.950813
 21
-0.361649
 31
0.0
  0
LINE
  5
683
330
1F
100
AcDbEntity
  8
1
  6
CONTINUOUS
370
50
 62
4
100
AcDbLine
 10
58.454956
 20
-3.878209
 30
0.0
 11
58.538315
 21
-3.849783
 31
0.0
  0
LINE
  5
684
330
1F
100
AcDbEntity
  8
1
  6
CONTINUOUS
370
50
 62
4
100
AcDbLine
 10
58.368649
 20
0.707272
 30
0.0
 11
58.454956
 21
0.7367349999999999
 31
0.0
  0
LINE
  5
685
330
1F
100
AcDbEntity
  8
1
  6
CONTINUOUS
370
50
 62
4
100
AcDbLine
 10
53.01799
 20
3.470271
 30
0.0
 11
53.055813
 21
3.483423
 31
0.0
  0
LINE
  5
686
330
1F
100
AcDbEntity
  8
1
  6
CONTINUOUS
370
50
 62
4
100
AcDbLine
 10
53.798759
 20
-0.415105
 30
0.0
 11
53.87435499999999
 21
-0.387325
 31
0.0
  0
LINE
  5
687
330
1F
100
AcDbEntity
  8
1
  6
CONTINUOUS
370
50
 62
4
100
AcDbLine
 10
53.724194
 20
-0.445058
 30
0.0
 11
53.798759
 21
-0.415105
 31
0.0
  0
LINE
  5
688
330
1F
100
AcDbEntity
  8
1
  6
CONTINUOUS
370
50
 62
4
100
AcDbLine
 10
58.538315
 20
-3.849783
 30
0.0
 11
58.618645
 21
-3.817186
 31
0.0
  0
LINE
  5
689
330
1F
100
AcDbEntity
  8
1
  6
CONTINUOUS
370
50
 62
4
100
AcDbLine
 10
58.454956
 20
0.7367349999999999
 30
0.0
 11
58.538315
 21
0.770799
 31
0.0
  0
LINE
  5
68A
330
1F
100
AcDbEntity
  8
1
  6
CONTINUOUS
370
50
 62
4
100
AcDbLine
 10
52.98349
 20
3.45581
 30
0.0
 11
53.01799
 21
3.470271
 31
0.0
  0
LINE
  5
68B
330
1F
100
AcDbEntity
  8
1
  6
CONTINUOUS
370
50
 62
4
100
AcDbLine
 10
59.73372699999999
 20
-2.668582
 30
0.0
 11
59.750854
 21
-2.661093
 31
0.0
  0
LINE
  5
68C
330
1F
100
AcDbEntity
  8
1
  6
CONTINUOUS
370
50
 62
4
100
AcDbLine
 10
53.650822
 20
-0.477259
 30
0.0
 11
53.724194
 21
-0.445058
 31
0.0
  0
LINE
  5
68D
330
1F
100
AcDbEntity
  8
1
  6
CONTINUOUS
370
50
 62
4
100
AcDbLine
 10
58.538315
 20
0.770799
 30
0.0
 11
58.618645
 21
0.808713
 31
0.0
  0
LINE
  5
68E
330
1F
100
AcDbEntity
  8
1
  6
CONTINUOUS
370
50
 62
4
100
AcDbLine
 10
58.618645
 20
-3.817186
 30
0.0
 11
58.696095
 21
-3.780611
 31
0.0
  0
LINE
  5
68F
330
1F
100
AcDbEntity
  8
1
  6
CONTINUOUS
370
50
 62
4
100
AcDbLine
 10
53.578979
 20
-0.5116959999999999
 30
0.0
 11
53.650822
 21
-0.477259
 31
0.0
  0
LINE
  5
690
330
1F
100
AcDbEntity
  8
1
  6
CONTINUOUS
370
50
 62
4
100
AcDbLine
 10
52.952682
 20
3.439959
 30
0.0
 11
52.98349
 21
3.45581
 31
0.0
  0
LINE
  5
691
330
1F
100
AcDbEntity
  8
1
  6
CONTINUOUS
370
50
 62
4
100
AcDbLine
 10
53.51027699999999
 20
-0.547636
 30
0.0
 11
53.578979
 21
-0.5116959999999999
 31
0.0
  0
LINE
  5
692
330
1F
100
AcDbEntity
  8
1
  6
CONTINUOUS
370
50
 62
4
100
AcDbLine
 10
58.618645
 20
0.808713
 30
0.0
 11
58.696095
 21
0.8498589999999999
 31
0.0
  0
LINE
  5
693
330
1F
100
AcDbEntity
  8
1
  6
CONTINUOUS
370
50
 62
4
100
AcDbLine
 10
58.696095
 20
-3.780611
 30
0.0
 11
58.77192299999999
 21
-3.739569
 31
0.0
  0
LINE
  5
694
330
1F
100
AcDbEntity
  8
1
  6
CONTINUOUS
370
50
 62
4
100
AcDbLine
 10
59.750854
 20
-2.661093
 30
0.0
 11
59.767498
 21
-2.651745
 31
0.0
  0
LINE
  5
695
330
1F
100
AcDbEntity
  8
1
  6
CONTINUOUS
370
50
 62
4
100
AcDbLine
 10
53.445072
 20
-0.584828
 30
0.0
 11
53.51027699999999
 21
-0.547636
 31
0.0
  0
LINE
  5
696
330
1F
100
AcDbEntity
  8
1
  6
CONTINUOUS
370
50
 62
4
100
AcDbLine
 10
58.696095
 20
0.8498589999999999
 30
0.0
 11
58.77192299999999
 21
0.894376
 31
0.0
  0
LINE
  5
697
330
1F
100
AcDbEntity
  8
1
  6
CONTINUOUS
370
50
 62
4
100
AcDbLine
 10
58.77192299999999
 20
-3.739569
 30
0.0
 11
58.846291
 21
-3.693925
 31
0.0
  0
LINE
  5
698
330
1F
100
AcDbEntity
  8
1
  6
CONTINUOUS
370
50
 62
4
100
AcDbLine
 10
53.383362
 20
-0.623192
 30
0.0
 11
53.445072
 21
-0.584828
 31
0.0
  0
LINE
  5
699
330
1F
100
AcDbEntity
  8
1
  6
CONTINUOUS
370
50
 62
4
100
AcDbLine
 10
58.77192299999999
 20
0.894376
 30
0.0
 11
58.846291
 21
0.941947
 31
0.0
  0
LINE
  5
69A
330
1F
100
AcDbEntity
  8
1
  6
CONTINUOUS
370
50
 62
4
100
AcDbLine
 10
52.926064
 20
3.422715
 30
0.0
 11
52.952682
 21
3.439959
 31
0.0
  0
LINE
  5
69B
330
1F
100
AcDbEntity
  8
1
  6
CONTINUOUS
370
50
 62
4
100
AcDbLine
 10
53.32512999999999
 20
-0.662646
 30
0.0
 11
53.383362
 21
-0.623192
 31
0.0
  0
LINE
  5
69C
330
1F
100
AcDbEntity
  8
1
  6
CONTINUOUS
370
50
 62
4
100
AcDbLine
 10
58.846291
 20
0.941947
 30
0.0
 11
58.919128
 21
0.992147
 31
0.0
  0
LINE
  5
69D
330
1F
100
AcDbEntity
  8
1
  6
CONTINUOUS
370
50
 62
4
100
AcDbLine
 10
58.846291
 20
-3.693925
 30
0.0
 11
58.919128
 21
-3.643632
 31
0.0
  0
LINE
  5
69E
330
1F
100
AcDbEntity
  8
1
  6
CONTINUOUS
370
50
 62
4
100
AcDbLine
 10
59.767498
 20
-2.651745
 30
0.0
 11
59.783924
 21
-2.640332
 31
0.0
  0
LINE
  5
69F
330
1F
100
AcDbEntity
  8
1
  6
CONTINUOUS
370
50
 62
4
100
AcDbLine
 10
58.919128
 20
0.992147
 30
0.0
 11
58.990379
 21
1.04455
 31
0.0
  0
LINE
  5
6A0
330
1F
100
AcDbEntity
  8
1
  6
CONTINUOUS
370
50
 62
4
100
AcDbLine
 10
53.270363
 20
-0.7031109999999999
 30
0.0
 11
53.32512999999999
 21
-0.662646
 31
0.0
  0
LINE
  5
6A1
330
1F
100
AcDbEntity
  8
1
  6
CONTINUOUS
370
50
 62
4
100
AcDbLine
 10
58.919128
 20
-3.643632
 30
0.0
 11
58.990379
 21
-3.588645
 31
0.0
  0
LINE
  5
6A2
330
1F
100
AcDbEntity
  8
1
  6
CONTINUOUS
370
50
 62
4
100
AcDbLine
 10
58.990379
 20
1.04455
 30
0.0
 11
59.05997799999999
 21
1.09873
 31
0.0
  0
LINE
  5
6A3
330
1F
100
AcDbEntity
  8
1
  6
CONTINUOUS
370
50
 62
4
100
AcDbLine
 10
53.219051
 20
-0.744506
 30
0.0
 11
53.270363
 21
-0.7031109999999999
 31
0.0
  0
LINE
  5
6A4
330
1F
100
AcDbEntity
  8
1
  6
CONTINUOUS
370
50
 62
4
100
AcDbLine
 10
59.05997799999999
 20
1.09873
 30
0.0
 11
59.127869
 21
1.154261
 31
0.0
  0
LINE
  5
6A5
330
1F
100
AcDbEntity
  8
1
  6
CONTINUOUS
370
50
 62
4
100
AcDbLine
 10
58.909267
 20
-0.905161
 30
0.0
 11
59.998348
 21
-0.00137
 31
0.0
  0
LINE
  5
6A6
330
1F
100
AcDbEntity
  8
1
  6
CONTINUOUS
370
50
 62
4
100
AcDbLine
 10
59.783924
 20
-2.640332
 30
0.0
 11
59.800755
 21
-2.626296
 31
0.0
  0
LINE
  5
6A7
330
1F
100
AcDbEntity
  8
1
  6
CONTINUOUS
370
50
 62
4
100
AcDbLine
 10
52.904053
 20
3.40408
 30
0.0
 11
52.926064
 21
3.422715
 31
0.0
  0
LINE
  5
6A8
330
1F
100
AcDbEntity
  8
1
  6
CONTINUOUS
370
50
 62
4
100
AcDbLine
 10
59.127869
 20
1.154261
 30
0.0
 11
59.19398899999999
 21
1.210719
 31
0.0
  0
LINE
  5
6A9
330
1F
100
AcDbEntity
  8
1
  6
CONTINUOUS
370
50
 62
4
100
AcDbLine
 10
58.990379
 20
-3.588645
 30
0.0
 11
59.05997799999999
 21
-3.52892
 31
0.0
  0
LINE
  5
6AA
330
1F
100
AcDbEntity
  8
1
  6
CONTINUOUS
370
50
 62
4
100
AcDbLine
 10
53.171169
 20
-0.786766
 30
0.0
 11
53.219051
 21
-0.744506
 31
0.0
  0
LINE
  5
6AB
330
1F
100
AcDbEntity
  8
1
  6
CONTINUOUS
370
50
 62
4
100
AcDbLine
 10
59.19398899999999
 20
1.210719
 30
0.0
 11
59.25827
 21
1.267671
 31
0.0
  0
LINE
  5
6AC
330
1F
100
AcDbEntity
  8
1
  6
CONTINUOUS
370
50
 62
4
100
AcDbLine
 10
59.25827
 20
1.267671
 30
0.0
 11
59.320457
 21
1.324478
 31
0.0
  0
LINE
  5
6AD
330
1F
100
AcDbEntity
  8
1
  6
CONTINUOUS
370
50
 62
4
100
AcDbLine
 10
59.320457
 20
1.324478
 30
0.0
 11
59.38038299999999
 21
1.380633
 31
0.0
  0
LINE
  5
6AE
330
1F
100
AcDbEntity
  8
1
  6
CONTINUOUS
370
50
 62
4
100
AcDbLine
 10
59.05997799999999
 20
-3.52892
 30
0.0
 11
59.127869
 21
-3.464411
 31
0.0
  0
LINE
  5
6AF
330
1F
100
AcDbEntity
  8
1
  6
CONTINUOUS
370
50
 62
4
100
AcDbLine
 10
59.38038299999999
 20
1.380633
 30
0.0
 11
59.438004
 21
1.435776
 31
0.0
  0
LINE
  5
6B0
330
1F
100
AcDbEntity
  8
1
  6
CONTINUOUS
370
50
 62
4
100
AcDbLine
 10
53.125885
 20
-0.830666
 30
0.0
 11
53.171169
 21
-0.786766
 31
0.0
  0
LINE
  5
6B1
330
1F
100
AcDbEntity
  8
1
  6
CONTINUOUS
370
50
 62
4
100
AcDbLine
 10
59.438004
 20
1.435776
 30
0.0
 11
59.493271
 21
1.489542
 31
0.0
  0
LINE
  5
6B2
330
1F
100
AcDbEntity
  8
1
  6
CONTINUOUS
370
50
 62
4
100
AcDbLine
 10
59.800755
 20
-2.626296
 30
0.0
 11
59.817783
 21
-2.609576
 31
0.0
  0
LINE
  5
6B3
330
1F
100
AcDbEntity
  8
1
  6
CONTINUOUS
370
50
 62
4
100
AcDbLine
 10
59.493271
 20
1.489542
 30
0.0
 11
59.546131
 21
1.54157
 31
0.0
  0
LINE
  5
6B4
330
1F
100
AcDbEntity
  8
1
  6
CONTINUOUS
370
50
 62
4
100
AcDbLine
 10
59.546131
 20
1.54157
 30
0.0
 11
59.596542
 21
1.591497
 31
0.0
  0
LINE
  5
6B5
330
1F
100
AcDbEntity
  8
1
  6
CONTINUOUS
370
50
 62
4
100
AcDbLine
 10
59.596542
 20
1.591497
 30
0.0
 11
59.644386
 21
1.639006
 31
0.0
  0
LINE
  5
6B6
330
1F
100
AcDbEntity
  8
1
  6
CONTINUOUS
370
50
 62
4
100
AcDbLine
 10
59.127869
 20
-3.464411
 30
0.0
 11
59.19398899999999
 21
-3.395073
 31
0.0
  0
LINE
  5
6B7
330
1F
100
AcDbEntity
  8
1
  6
CONTINUOUS
370
50
 62
4
100
AcDbLine
 10
53.082989
 20
-0.876652
 30
0.0
 11
53.125885
 21
-0.830666
 31
0.0
  0
LINE
  5
6B8
330
1F
100
AcDbEntity
  8
1
  6
CONTINUOUS
370
50
 62
4
100
AcDbLine
 10
59.817783
 20
-2.609576
 30
0.0
 11
59.83475499999999
 21
-2.590123
 31
0.0
  0
LINE
  5
6B9
330
1F
100
AcDbEntity
  8
1
  6
CONTINUOUS
370
50
 62
4
100
AcDbLine
 10
59.19398899999999
 20
-3.395073
 30
0.0
 11
59.25827
 21
-3.320865
 31
0.0
  0
LINE
  5
6BA
330
1F
100
AcDbEntity
  8
1
  6
CONTINUOUS
370
50
 62
4
100
AcDbLine
 10
52.886971
 20
3.384021
 30
0.0
 11
52.904053
 21
3.40408
 31
0.0
  0
LINE
  5
6BB
330
1F
100
AcDbEntity
  8
1
  6
CONTINUOUS
370
50
 62
4
100
AcDbLine
 10
53.042854
 20
-0.924674
 30
0.0
 11
53.082989
 21
-0.876652
 31
0.0
  0
LINE
  5
6BC
330
1F
100
AcDbEntity
  8
1
  6
CONTINUOUS
370
50
 62
4
100
AcDbLine
 10
59.25827
 20
-3.320865
 30
0.0
 11
59.320457
 21
-3.242028
 31
0.0
  0
LINE
  5
6BD
330
1F
100
AcDbEntity
  8
1
  6
CONTINUOUS
370
50
 62
4
100
AcDbLine
 10
59.55302
 20
-0.784287
 30
0.0
 11
60.0
 21
-0.196239
 31
0.0
  0
LINE
  5
6BE
330
1F
100
AcDbEntity
  8
1
  6
CONTINUOUS
370
50
 62
4
100
AcDbLine
 10
59.83475499999999
 20
-2.590123
 30
0.0
 11
59.851437
 21
-2.567909
 31
0.0
  0
LINE
  5
6BF
330
1F
100
AcDbEntity
  8
1
  6
CONTINUOUS
370
50
 62
4
100
AcDbLine
 10
53.005848
 20
-0.9746819999999999
 30
0.0
 11
53.042854
 21
-0.924674
 31
0.0
  0
LINE
  5
6C0
330
1F
100
AcDbEntity
  8
1
  6
CONTINUOUS
370
50
 62
4
100
AcDbLine
 10
59.320457
 20
-3.242028
 30
0.0
 11
59.38038299999999
 21
-3.158739
 31
0.0
  0
LINE
  5
6C1
330
1F
100
AcDbEntity
  8
1
  6
CONTINUOUS
370
50
 62
4
100
AcDbLine
 10
59.38038299999999
 20
-3.158739
 30
0.0
 11
59.438004
 21
-3.071023
 31
0.0
  0
LINE
  5
6C2
330
1F
100
AcDbEntity
  8
1
  6
CONTINUOUS
370
50
 62
4
100
AcDbLine
 10
59.851437
 20
-2.567909
 30
0.0
 11
59.867611
 21
-2.543127
 31
0.0
  0
LINE
  5
6C3
330
1F
100
AcDbEntity
  8
1
  6
CONTINUOUS
370
50
 62
4
100
AcDbLine
 10
52.972343
 20
-1.026628
 30
0.0
 11
53.005848
 21
-0.9746819999999999
 31
0.0
  0
LINE
  5
6C4
330
1F
100
AcDbEntity
  8
1
  6
CONTINUOUS
370
50
 62
4
100
AcDbLine
 10
59.438004
 20
-3.071023
 30
0.0
 11
59.493271
 21
-2.978909
 31
0.0
  0
LINE
  5
6C5
330
1F
100
AcDbEntity
  8
1
  6
CONTINUOUS
370
50
 62
4
100
AcDbLine
 10
59.726238
 20
-3.010003
 30
0.0
 11
59.733078
 21
-2.998221
 31
0.0
  0
LINE
  5
6C6
330
1F
100
AcDbEntity
  8
1
  6
CONTINUOUS
370
50
 62
4
100
AcDbLine
 10
59.867611
 20
-2.543127
 30
0.0
 11
59.883083
 21
-2.516124
 31
0.0
  0
LINE
  5
6C7
330
1F
100
AcDbEntity
  8
1
  6
CONTINUOUS
370
50
 62
4
100
AcDbLine
 10
59.733078
 20
-2.998221
 30
0.0
 11
59.73983399999999
 21
-2.986396
 31
0.0
  0
LINE
  5
6C8
330
1F
100
AcDbEntity
  8
1
  6
CONTINUOUS
370
50
 62
4
100
AcDbLine
 10
59.73983399999999
 20
-2.986396
 30
0.0
 11
59.74651
 21
-2.97453
 31
0.0
  0
LINE
  5
6C9
330
1F
100
AcDbEntity
  8
1
  6
CONTINUOUS
370
50
 62
4
100
AcDbLine
 10
59.74651
 20
-2.97453
 30
0.0
 11
59.75309799999999
 21
-2.962624
 31
0.0
  0
LINE
  5
6CA
330
1F
100
AcDbEntity
  8
1
  6
CONTINUOUS
370
50
 62
4
100
AcDbLine
 10
52.94273399999999
 20
-1.080411
 30
0.0
 11
52.972343
 21
-1.026628
 31
0.0
  0
LINE
  5
6CB
330
1F
100
AcDbEntity
  8
1
  6
CONTINUOUS
370
50
 62
4
100
AcDbLine
 10
52.875141
 20
3.362507
 30
0.0
 11
52.886971
 21
3.384021
 31
0.0
  0
LINE
  5
6CC
330
1F
100
AcDbEntity
  8
1
  6
CONTINUOUS
370
50
 62
4
100
AcDbLine
 10
59.493271
 20
-2.978909
 30
0.0
 11
59.546131
 21
-2.882423
 31
0.0
  0
LINE
  5
6CD
330
1F
100
AcDbEntity
  8
1
  6
CONTINUOUS
370
50
 62
4
100
AcDbLine
 10
59.75309799999999
 20
-2.962624
 30
0.0
 11
59.759605
 21
-2.950677
 31
0.0
  0
LINE
  5
6CE
330
1F
100
AcDbEntity
  8
1
  6
CONTINUOUS
370
50
 62
4
100
AcDbLine
 10
59.759605
 20
-2.950677
 30
0.0
 11
59.766026
 21
-2.938693
 31
0.0
  0
LINE
  5
6CF
330
1F
100
AcDbEntity
  8
1
  6
CONTINUOUS
370
50
 62
4
100
AcDbLine
 10
59.565445
 20
-1.147678
 30
0.0
 11
59.566624
 21
-1.145467
 31
0.0
  0
LINE
  5
6D0
330
1F
100
AcDbEntity
  8
1
  6
CONTINUOUS
370
50
 62
4
100
AcDbLine
 10
59.567802
 20
-1.143256
 30
0.0
 11
59.57133899999999
 21
-1.136623
 31
0.0
  0
LINE
  5
6D1
330
1F
100
AcDbEntity
  8
1
  6
CONTINUOUS
370
50
 62
4
100
AcDbLine
 10
59.564266
 20
-1.14989
 30
0.0
 11
59.565445
 21
-1.147678
 31
0.0
  0
LINE
  5
6D2
330
1F
100
AcDbEntity
  8
1
  6
CONTINUOUS
370
50
 62
4
100
AcDbLine
 10
59.566624
 20
-1.145467
 30
0.0
 11
59.567802
 21
-1.143256
 31
0.0
  0
LINE
  5
6D3
330
1F
100
AcDbEntity
  8
1
  6
CONTINUOUS
370
50
 62
4
100
AcDbLine
 10
59.57133899999999
 20
-1.136623
 30
0.0
 11
59.572517
 21
-1.134411
 31
0.0
  0
LINE
  5
6D4
330
1F
100
AcDbEntity
  8
1
  6
CONTINUOUS
370
50
 62
4
100
AcDbLine
 10
59.766026
 20
-2.938693
 30
0.0
 11
59.772366
 21
-2.92667
 31
0.0
  0
LINE
  5
6D5
330
1F
100
AcDbEntity
  8
1
  6
CONTINUOUS
370
50
 62
4
100
AcDbLine
 10
59.883083
 20
-2.516124
 30
0.0
 11
59.897655
 21
-2.487256
 31
0.0
  0
LINE
  5
6D6
330
1F
100
AcDbEntity
  8
1
  6
CONTINUOUS
370
50
 62
4
100
AcDbLine
 10
59.546131
 20
-2.882423
 30
0.0
 11
59.596542
 21
-2.781593
 31
0.0
  0
LINE
  5
6D7
330
1F
100
AcDbEntity
  8
1
  6
CONTINUOUS
370
50
 62
4
100
AcDbLine
 10
59.772366
 20
-2.92667
 30
0.0
 11
59.810909
 21
-2.848882
 31
0.0
  0
LINE
  5
6D8
330
1F
100
AcDbEntity
  8
1
  6
CONTINUOUS
370
50
 62
4
100
AcDbLine
 10
52.917549
 20
-1.135626
 30
0.0
 11
52.94273399999999
 21
-1.080411
 31
0.0
  0
LINE
  5
6D9
330
1F
100
AcDbEntity
  8
1
  6
CONTINUOUS
370
50
 62
4
100
AcDbLine
 10
59.596542
 20
-2.781593
 30
0.0
 11
59.644386
 21
-2.676436
 31
0.0
  0
LINE
  5
6DA
330
1F
100
AcDbEntity
  8
1
  6
CONTINUOUS
370
50
 62
4
100
AcDbLine
 10
59.897655
 20
-2.487256
 30
0.0
 11
59.911541
 21
-2.455938
 31
0.0
  0
LINE
  5
6DB
330
1F
100
AcDbEntity
  8
1
  6
CONTINUOUS
370
50
 62
4
100
AcDbLine
 10
59.810909
 20
-2.848882
 30
0.0
 11
59.84501299999999
 21
-2.771957
 31
0.0
  0
LINE
  5
6DC
330
1F
100
AcDbEntity
  8
1
  6
CONTINUOUS
370
50
 62
4
100
AcDbLine
 10
59.84501299999999
 20
-2.771957
 30
0.0
 11
59.876286
 21
-2.692495
 31
0.0
  0
LINE
  5
6DD
330
1F
100
AcDbEntity
  8
1
  6
CONTINUOUS
370
50
 62
4
100
AcDbLine
 10
59.911541
 20
-2.455938
 30
0.0
 11
59.92552199999999
 21
-2.420006
 31
0.0
  0
LINE
  5
6DE
330
1F
100
AcDbEntity
  8
1
  6
CONTINUOUS
370
50
 62
4
100
AcDbLine
 10
52.89716
 20
-1.192077
 30
0.0
 11
52.917549
 21
-1.135626
 31
0.0
  0
LINE
  5
6DF
330
1F
100
AcDbEntity
  8
1
  6
CONTINUOUS
370
50
 62
4
100
AcDbLine
 10
59.876286
 20
-2.692495
 30
0.0
 11
59.904892
 21
-2.609415
 31
0.0
  0
LINE
  5
6E0
330
1F
100
AcDbEntity
  8
1
  6
CONTINUOUS
370
50
 62
4
100
AcDbLine
 10
59.92552199999999
 20
-2.420006
 30
0.0
 11
59.938866
 21
-2.380473
 31
0.0
  0
LINE
  5
6E1
330
1F
100
AcDbEntity
  8
1
  6
CONTINUOUS
370
50
 62
4
100
AcDbLine
 10
59.904892
 20
-2.609415
 30
0.0
 11
59.93026
 21
-2.523546
 31
0.0
  0
LINE
  5
6E2
330
1F
100
AcDbEntity
  8
1
  6
CONTINUOUS
370
50
 62
4
100
AcDbLine
 10
59.938866
 20
-2.380473
 30
0.0
 11
59.950897
 21
-2.339186
 31
0.0
  0
LINE
  5
6E3
330
1F
100
AcDbEntity
  8
1
  6
CONTINUOUS
370
50
 62
4
100
AcDbLine
 10
52.868916
 20
3.339664
 30
0.0
 11
52.875141
 21
3.362507
 31
0.0
  0
LINE
  5
6E4
330
1F
100
AcDbEntity
  8
1
  6
CONTINUOUS
370
50
 62
4
100
AcDbLine
 10
52.881889
 20
-1.249626
 30
0.0
 11
52.89716
 21
-1.192077
 31
0.0
  0
LINE
  5
6E5
330
1F
100
AcDbEntity
  8
1
  6
CONTINUOUS
370
50
 62
4
100
AcDbLine
 10
59.950897
 20
-2.339186
 30
0.0
 11
59.961594
 21
-2.296307
 31
0.0
  0
LINE
  5
6E6
330
1F
100
AcDbEntity
  8
1
  6
CONTINUOUS
370
50
 62
4
100
AcDbLine
 10
59.93026
 20
-2.523546
 30
0.0
 11
59.95195
 21
-2.435762
 31
0.0
  0
LINE
  5
6E7
330
1F
100
AcDbEntity
  8
1
  6
CONTINUOUS
370
50
 62
4
100
AcDbLine
 10
59.961594
 20
-2.296307
 30
0.0
 11
59.971691
 21
-2.248254
 31
0.0
  0
LINE
  5
6E8
330
1F
100
AcDbEntity
  8
1
  6
CONTINUOUS
370
50
 62
4
100
AcDbLine
 10
59.95195
 20
-2.435762
 30
0.0
 11
59.969673
 21
-2.346966
 31
0.0
  0
LINE
  5
6E9
330
1F
100
AcDbEntity
  8
1
  6
CONTINUOUS
370
50
 62
4
100
AcDbLine
 10
59.971691
 20
-2.248254
 30
0.0
 11
59.9804
 21
-2.197526
 31
0.0
  0
LINE
  5
6EA
330
1F
100
AcDbEntity
  8
1
  6
CONTINUOUS
370
50
 62
4
100
AcDbLine
 10
52.87207
 20
-1.308114
 30
0.0
 11
52.881889
 21
-1.249626
 31
0.0
  0
LINE
  5
6EB
330
1F
100
AcDbEntity
  8
1
  6
CONTINUOUS
370
50
 62
4
100
AcDbLine
 10
59.969673
 20
-2.346966
 30
0.0
 11
59.98328
 21
-2.258078
 31
0.0
  0
LINE
  5
6EC
330
1F
100
AcDbEntity
  8
1
  6
CONTINUOUS
370
50
 62
4
100
AcDbLine
 10
59.9804
 20
-2.197526
 30
0.0
 11
59.98729299999999
 21
-2.147159
 31
0.0
  0
LINE
  5
6ED
330
1F
100
AcDbEntity
  8
1
  6
CONTINUOUS
370
50
 62
4
100
AcDbLine
 10
59.98328
 20
-2.258078
 30
0.0
 11
59.992756
 21
-2.170068
 31
0.0
  0
LINE
  5
6EE
330
1F
100
AcDbEntity
  8
1
  6
CONTINUOUS
370
50
 62
4
100
AcDbLine
 10
59.98729299999999
 20
-2.147159
 30
0.0
 11
59.992924
 21
-2.0928
 31
0.0
  0
LINE
  5
6EF
330
1F
100
AcDbEntity
  8
1
  6
CONTINUOUS
370
50
 62
4
100
AcDbLine
 10
59.992924
 20
-2.0928
 30
0.0
 11
59.99697099999999
 21
-2.035914
 31
0.0
  0
LINE
  5
6F0
330
1F
100
AcDbEntity
  8
1
  6
CONTINUOUS
370
50
 62
4
100
AcDbLine
 10
52.868061
 20
-1.366551
 30
0.0
 11
52.87207
 21
-1.308114
 31
0.0
  0
LINE
  5
6F1
330
1F
100
AcDbEntity
  8
1
  6
CONTINUOUS
370
50
 62
4
100
AcDbLine
 10
59.992756
 20
-2.170068
 30
0.0
 11
59.998238
 21
-2.083922
 31
0.0
  0
LINE
  5
6F2
330
1F
100
AcDbEntity
  8
1
  6
CONTINUOUS
370
50
 62
4
100
AcDbLine
 10
59.99697099999999
 20
-2.035914
 30
0.0
 11
59.99924499999999
 21
-1.980807
 31
0.0
  0
LINE
  5
6F3
330
1F
100
AcDbEntity
  8
1
  6
CONTINUOUS
370
50
 62
4
100
AcDbLine
 10
59.998238
 20
-2.083922
 30
0.0
 11
60.0
 21
-1.999998
 31
0.0
  0
LINE
  5
6F4
330
1F
100
AcDbEntity
  8
1
  6
CONTINUOUS
370
50
 62
4
100
AcDbLine
 10
59.561359
 20
-1.292033
 30
0.0
 11
59.564266
 21
-1.14989
 31
0.0
  0
LINE
  5
6F5
330
1F
100
AcDbEntity
  8
1
  6
CONTINUOUS
370
50
 62
4
100
AcDbLine
 10
52.868492
 20
3.315884
 30
0.0
 11
52.868916
 21
3.339664
 31
0.0
  0
LINE
  5
6F6
330
1F
100
AcDbEntity
  8
1
  6
CONTINUOUS
370
50
 62
4
100
AcDbLine
 10
59.99924499999999
 20
-1.980807
 30
0.0
 11
60.0
 21
-1.924441
 31
0.0
  0
LINE
  5
6F7
330
1F
100
AcDbEntity
  8
1
  6
CONTINUOUS
370
50
 62
4
100
AcDbLine
 10
56.5
 20
-1.149851
 30
0.0
 11
56.50001899999999
 21
-1.147686
 31
0.0
  0
LINE
  5
6F8
330
1F
100
AcDbEntity
  8
1
  6
CONTINUOUS
370
50
 62
4
100
AcDbLine
 10
59.56052
 20
-1.434276
 30
0.0
 11
59.561359
 21
-1.292033
 31
0.0
  0
LINE
  5
6F9
330
1F
100
AcDbEntity
  8
1
  6
CONTINUOUS
370
50
 62
4
100
AcDbLine
 10
59.999989
 20
-2.007033
 30
0.0
 11
60.0
 21
-2.000004
 31
0.0
  0
LINE
  5
6FA
330
1F
100
AcDbEntity
  8
1
  6
CONTINUOUS
370
50
 62
4
100
AcDbLine
 10
56.5
 20
1.625518
 30
0.0
 11
56.50001899999999
 21
1.667936
 31
0.0
  0
LINE
  5
6FB
330
1F
100
AcDbEntity
  8
1
  6
CONTINUOUS
370
50
 62
4
100
AcDbLine
 10
28.0
 20
-3.59995
 30
0.0
 11
28.0
 21
3.59995
 31
0.0
  0
LINE
  5
6FC
330
1F
100
AcDbEntity
  8
1
  6
CONTINUOUS
370
50
 62
4
100
AcDbLine
 10
56.5
 20
-1.13363
 30
0.0
 11
56.5
 21
3.59995
 31
0.0
  0
LINE
  5
6FD
330
1F
100
AcDbEntity
  8
1
  6
CONTINUOUS
370
50
 62
4
100
AcDbLine
 10
56.5
 20
-3.59995
 30
0.0
 11
56.5
 21
-3.39393
 31
0.0
  0
LINE
  5
6FE
330
1F
100
AcDbEntity
  8
1
  6
CONTINUOUS
370
50
 62
4
100
AcDbLine
 10
56.5
 20
-1.152839
 30
0.0
 11
56.5
 21
-1.147971
 31
0.0
  0
LINE
  5
6FF
330
1F
100
AcDbEntity
  8
1
  6
CONTINUOUS
370
50
 62
4
100
AcDbLine
 10
56.5
 20
-3.39393
 30
0.0
 11
56.5
 21
-1.152839
 31
0.0
  0
LINE
  5
700
330
1F
100
AcDbEntity
  8
1
  6
CONTINUOUS
370
50
 62
4
100
AcDbLine
 10
56.5
 20
-3.9999
 30
0.0
 11
56.5
 21
-3.946696
 31
0.0
  0
LINE
  5
701
330
1F
100
AcDbEntity
  8
1
  6
CONTINUOUS
370
50
 62
4
100
AcDbLine
 10
56.50001899999999
 20
0.6501239999999999
 30
0.0
 11
56.50001899999999
 21
1.568998
 31
0.0
  0
LINE
  5
702
330
1F
100
AcDbEntity
  8
1
  6
CONTINUOUS
370
50
 62
4
100
AcDbLine
 10
56.50001899999999
 20
1.667936
 30
0.0
 11
56.50001899999999
 21
1.707203
 31
0.0
  0
LINE
  5
703
330
1F
100
AcDbEntity
  8
1
  6
CONTINUOUS
370
50
 62
4
100
AcDbLine
 10
56.50001899999999
 20
1.707203
 30
0.0
 11
56.50001899999999
 21
1.742903
 31
0.0
  0
LINE
  5
704
330
1F
100
AcDbEntity
  8
1
  6
CONTINUOUS
370
50
 62
4
100
AcDbLine
 10
56.50001899999999
 20
1.742903
 30
0.0
 11
56.50001899999999
 21
1.774985
 31
0.0
  0
LINE
  5
705
330
1F
100
AcDbEntity
  8
1
  6
CONTINUOUS
370
50
 62
4
100
AcDbLine
 10
56.50001899999999
 20
1.774985
 30
0.0
 11
56.50001899999999
 21
1.803398
 31
0.0
  0
LINE
  5
706
330
1F
100
AcDbEntity
  8
1
  6
CONTINUOUS
370
50
 62
4
100
AcDbLine
 10
56.50001899999999
 20
1.803398
 30
0.0
 11
56.50001899999999
 21
1.82809
 31
0.0
  0
LINE
  5
707
330
1F
100
AcDbEntity
  8
1
  6
CONTINUOUS
370
50
 62
4
100
AcDbLine
 10
56.50001899999999
 20
1.82809
 30
0.0
 11
56.50001899999999
 21
1.849013
 31
0.0
  0
LINE
  5
708
330
1F
100
AcDbEntity
  8
1
  6
CONTINUOUS
370
50
 62
4
100
AcDbLine
 10
56.50001899999999
 20
1.849013
 30
0.0
 11
56.50001899999999
 21
1.866141
 31
0.0
  0
LINE
  5
709
330
1F
100
AcDbEntity
  8
1
  6
CONTINUOUS
370
50
 62
4
100
AcDbLine
 10
56.50001899999999
 20
1.866141
 30
0.0
 11
56.50001899999999
 21
1.87947
 31
0.0
  0
LINE
  5
70A
330
1F
100
AcDbEntity
  8
1
  6
CONTINUOUS
370
50
 62
4
100
AcDbLine
 10
56.50001899999999
 20
1.87947
 30
0.0
 11
56.50001899999999
 21
1.888997
 31
0.0
  0
LINE
  5
70B
330
1F
100
AcDbEntity
  8
1
  6
CONTINUOUS
370
50
 62
4
100
AcDbLine
 10
56.50001899999999
 20
1.888997
 30
0.0
 11
56.50001899999999
 21
1.894718
 31
0.0
  0
LINE
  5
70C
330
1F
100
AcDbEntity
  8
1
  6
CONTINUOUS
370
50
 62
4
100
AcDbLine
 10
56.50001899999999
 20
1.894718
 30
0.0
 11
56.50001899999999
 21
1.89663
 31
0.0
  0
LINE
  5
70D
330
1F
100
AcDbEntity
  8
1
  6
CONTINUOUS
370
50
 62
4
100
AcDbLine
 10
56.50001899999999
 20
1.896657
 30
0.0
 11
56.50001899999999
 21
1.898678
 31
0.0
  0
LINE
  5
70E
330
1F
100
AcDbEntity
  8
1
  6
CONTINUOUS
370
50
 62
4
100
AcDbLine
 10
56.50001899999999
 20
1.898678
 30
0.0
 11
56.50001899999999
 21
1.900752
 31
0.0
  0
LINE
  5
70F
330
1F
100
AcDbEntity
  8
1
  6
CONTINUOUS
370
50
 62
4
100
AcDbLine
 10
56.50001899999999
 20
1.900752
 30
0.0
 11
56.50001899999999
 21
1.90288
 31
0.0
  0
LINE
  5
710
330
1F
100
AcDbEntity
  8
1
  6
CONTINUOUS
370
50
 62
4
100
AcDbLine
 10
56.50001899999999
 20
1.90288
 30
0.0
 11
56.50001899999999
 21
1.905061
 31
0.0
  0
LINE
  5
711
330
1F
100
AcDbEntity
  8
1
  6
CONTINUOUS
370
50
 62
4
100
AcDbLine
 10
56.50001899999999
 20
1.905061
 30
0.0
 11
56.50001899999999
 21
1.907296
 31
0.0
  0
LINE
  5
712
330
1F
100
AcDbEntity
  8
1
  6
CONTINUOUS
370
50
 62
4
100
AcDbLine
 10
56.50001899999999
 20
1.907296
 30
0.0
 11
56.50001899999999
 21
1.909583
 31
0.0
  0
LINE
  5
713
330
1F
100
AcDbEntity
  8
1
  6
CONTINUOUS
370
50
 62
4
100
AcDbLine
 10
56.50001899999999
 20
1.909583
 30
0.0
 11
56.50001899999999
 21
1.926282
 31
0.0
  0
LINE
  5
714
330
1F
100
AcDbEntity
  8
1
  6
CONTINUOUS
370
50
 62
4
100
AcDbLine
 10
56.50001899999999
 20
1.926282
 30
0.0
 11
56.50001899999999
 21
1.94534
 31
0.0
  0
LINE
  5
715
330
1F
100
AcDbEntity
  8
1
  6
CONTINUOUS
370
50
 62
4
100
AcDbLine
 10
56.50001899999999
 20
1.94534
 30
0.0
 11
56.50001899999999
 21
1.966731
 31
0.0
  0
LINE
  5
716
330
1F
100
AcDbEntity
  8
1
  6
CONTINUOUS
370
50
 62
4
100
AcDbLine
 10
56.50001899999999
 20
1.966731
 30
0.0
 11
56.50001899999999
 21
1.990399
 31
0.0
  0
LINE
  5
717
330
1F
100
AcDbEntity
  8
1
  6
CONTINUOUS
370
50
 62
4
100
AcDbLine
 10
56.50001899999999
 20
1.990399
 30
0.0
 11
56.50001899999999
 21
2.016279
 31
0.0
  0
LINE
  5
718
330
1F
100
AcDbEntity
  8
1
  6
CONTINUOUS
370
50
 62
4
100
AcDbLine
 10
56.50001899999999
 20
2.016279
 30
0.0
 11
56.50001899999999
 21
2.044306
 31
0.0
  0
LINE
  5
719
330
1F
100
AcDbEntity
  8
1
  6
CONTINUOUS
370
50
 62
4
100
AcDbLine
 10
56.50001899999999
 20
2.044306
 30
0.0
 11
56.50001899999999
 21
2.071061
 31
0.0
  0
LINE
  5
71A
330
1F
100
AcDbEntity
  8
1
  6
CONTINUOUS
370
50
 62
4
100
AcDbLine
 10
56.50001899999999
 20
2.071061
 30
0.0
 11
56.50001899999999
 21
2.099426
 31
0.0
  0
LINE
  5
71B
330
1F
100
AcDbEntity
  8
1
  6
CONTINUOUS
370
50
 62
4
100
AcDbLine
 10
56.50001899999999
 20
2.099426
 30
0.0
 11
56.50001899999999
 21
2.129355
 31
0.0
  0
LINE
  5
71C
330
1F
100
AcDbEntity
  8
1
  6
CONTINUOUS
370
50
 62
4
100
AcDbLine
 10
56.50001899999999
 20
2.129355
 30
0.0
 11
56.50001899999999
 21
2.160802
 31
0.0
  0
LINE
  5
71D
330
1F
100
AcDbEntity
  8
1
  6
CONTINUOUS
370
50
 62
4
100
AcDbLine
 10
56.50001899999999
 20
2.160802
 30
0.0
 11
56.50001899999999
 21
2.193721
 31
0.0
  0
LINE
  5
71E
330
1F
100
AcDbEntity
  8
1
  6
CONTINUOUS
370
50
 62
4
100
AcDbLine
 10
56.50001899999999
 20
2.193721
 30
0.0
 11
56.50001899999999
 21
2.228062
 31
0.0
  0
LINE
  5
71F
330
1F
100
AcDbEntity
  8
1
  6
CONTINUOUS
370
50
 62
4
100
AcDbLine
 10
56.50001899999999
 20
2.228062
 30
0.0
 11
56.50001899999999
 21
2.263763
 31
0.0
  0
LINE
  5
720
330
1F
100
AcDbEntity
  8
1
  6
CONTINUOUS
370
50
 62
4
100
AcDbLine
 10
56.50001899999999
 20
2.263763
 30
0.0
 11
56.50001899999999
 21
2.300753
 31
0.0
  0
LINE
  5
721
330
1F
100
AcDbEntity
  8
1
  6
CONTINUOUS
370
50
 62
4
100
AcDbLine
 10
56.50001899999999
 20
2.300753
 30
0.0
 11
56.50001899999999
 21
2.338965
 31
0.0
  0
LINE
  5
722
330
1F
100
AcDbEntity
  8
1
  6
CONTINUOUS
370
50
 62
4
100
AcDbLine
 10
56.50001899999999
 20
2.338965
 30
0.0
 11
56.50001899999999
 21
2.378328
 31
0.0
  0
LINE
  5
723
330
1F
100
AcDbEntity
  8
1
  6
CONTINUOUS
370
50
 62
4
100
AcDbLine
 10
56.50001899999999
 20
2.378328
 30
0.0
 11
56.50001899999999
 21
2.418774
 31
0.0
  0
LINE
  5
724
330
1F
100
AcDbEntity
  8
1
  6
CONTINUOUS
370
50
 62
4
100
AcDbLine
 10
56.50001899999999
 20
2.418774
 30
0.0
 11
56.50001899999999
 21
2.460234
 31
0.0
  0
LINE
  5
725
330
1F
100
AcDbEntity
  8
1
  6
CONTINUOUS
370
50
 62
4
100
AcDbLine
 10
56.50001899999999
 20
2.460234
 30
0.0
 11
56.50001899999999
 21
2.502638
 31
0.0
  0
LINE
  5
726
330
1F
100
AcDbEntity
  8
1
  6
CONTINUOUS
370
50
 62
4
100
AcDbLine
 10
56.50001899999999
 20
2.502638
 30
0.0
 11
56.50001899999999
 21
2.545919
 31
0.0
  0
LINE
  5
727
330
1F
100
AcDbEntity
  8
1
  6
CONTINUOUS
370
50
 62
4
100
AcDbLine
 10
56.50001899999999
 20
2.545919
 30
0.0
 11
56.50001899999999
 21
2.590006
 31
0.0
  0
LINE
  5
728
330
1F
100
AcDbEntity
  8
1
  6
CONTINUOUS
370
50
 62
4
100
AcDbLine
 10
56.50001899999999
 20
2.590006
 30
0.0
 11
56.50001899999999
 21
2.634825
 31
0.0
  0
LINE
  5
729
330
1F
100
AcDbEntity
  8
1
  6
CONTINUOUS
370
50
 62
4
100
AcDbLine
 10
56.50001899999999
 20
2.634825
 30
0.0
 11
56.50001899999999
 21
2.680295
 31
0.0
  0
LINE
  5
72A
330
1F
100
AcDbEntity
  8
1
  6
CONTINUOUS
370
50
 62
4
100
AcDbLine
 10
56.50001899999999
 20
2.680295
 30
0.0
 11
56.50001899999999
 21
2.726335
 31
0.0
  0
LINE
  5
72B
330
1F
100
AcDbEntity
  8
1
  6
CONTINUOUS
370
50
 62
4
100
AcDbLine
 10
56.50001899999999
 20
2.726335
 30
0.0
 11
56.50001899999999
 21
2.772864
 31
0.0
  0
LINE
  5
72C
330
1F
100
AcDbEntity
  8
1
  6
CONTINUOUS
370
50
 62
4
100
AcDbLine
 10
56.50001899999999
 20
2.772864
 30
0.0
 11
56.50001899999999
 21
2.819801
 31
0.0
  0
LINE
  5
72D
330
1F
100
AcDbEntity
  8
1
  6
CONTINUOUS
370
50
 62
4
100
AcDbLine
 10
56.50001899999999
 20
2.819801
 30
0.0
 11
56.50001899999999
 21
2.867065
 31
0.0
  0
LINE
  5
72E
330
1F
100
AcDbEntity
  8
1
  6
CONTINUOUS
370
50
 62
4
100
AcDbLine
 10
56.50001899999999
 20
2.867065
 30
0.0
 11
56.50001899999999
 21
2.914574
 31
0.0
  0
LINE
  5
72F
330
1F
100
AcDbEntity
  8
1
  6
CONTINUOUS
370
50
 62
4
100
AcDbLine
 10
56.50001899999999
 20
2.914574
 30
0.0
 11
56.50001899999999
 21
2.962248
 31
0.0
  0
LINE
  5
730
330
1F
100
AcDbEntity
  8
1
  6
CONTINUOUS
370
50
 62
4
100
AcDbLine
 10
56.50001899999999
 20
2.962248
 30
0.0
 11
56.50001899999999
 21
3.010005
 31
0.0
  0
LINE
  5
731
330
1F
100
AcDbEntity
  8
1
  6
CONTINUOUS
370
50
 62
4
100
AcDbLine
 10
56.50001899999999
 20
-3.946561
 30
0.0
 11
56.50001899999999
 21
-3.863491
 31
0.0
  0
LINE
  5
732
330
1F
100
AcDbEntity
  8
1
  6
CONTINUOUS
370
50
 62
4
100
AcDbLine
 10
56.50001899999999
 20
-3.863491
 30
0.0
 11
56.50001899999999
 21
-3.776188
 31
0.0
  0
LINE
  5
733
330
1F
100
AcDbEntity
  8
1
  6
CONTINUOUS
370
50
 62
4
100
AcDbLine
 10
56.50001899999999
 20
-3.776188
 30
0.0
 11
56.50001899999999
 21
-3.68481
 31
0.0
  0
LINE
  5
734
330
1F
100
AcDbEntity
  8
1
  6
CONTINUOUS
370
50
 62
4
100
AcDbLine
 10
56.50001899999999
 20
-3.68481
 30
0.0
 11
56.50001899999999
 21
-3.589515
 31
0.0
  0
LINE
  5
735
330
1F
100
AcDbEntity
  8
1
  6
CONTINUOUS
370
50
 62
4
100
AcDbLine
 10
56.50001899999999
 20
-3.589515
 30
0.0
 11
56.50001899999999
 21
-3.490464
 31
0.0
  0
LINE
  5
736
330
1F
100
AcDbEntity
  8
1
  6
CONTINUOUS
370
50
 62
4
100
AcDbLine
 10
56.50001899999999
 20
-3.490464
 30
0.0
 11
56.50001899999999
 21
-3.387814
 31
0.0
  0
LINE
  5
737
330
1F
100
AcDbEntity
  8
1
  6
CONTINUOUS
370
50
 62
4
100
AcDbLine
 10
56.50001899999999
 20
-1.94443
 30
0.0
 11
56.50001899999999
 21
-1.812948
 31
0.0
  0
LINE
  5
738
330
1F
100
AcDbEntity
  8
1
  6
CONTINUOUS
370
50
 62
4
100
AcDbLine
 10
56.50001899999999
 20
-1.812948
 30
0.0
 11
56.50001899999999
 21
-1.680775
 31
0.0
  0
LINE
  5
739
330
1F
100
AcDbEntity
  8
1
  6
CONTINUOUS
370
50
 62
4
100
AcDbLine
 10
56.50001899999999
 20
-1.680775
 30
0.0
 11
56.50001899999999
 21
-1.548145
 31
0.0
  0
LINE
  5
73A
330
1F
100
AcDbEntity
  8
1
  6
CONTINUOUS
370
50
 62
4
100
AcDbLine
 10
56.50001899999999
 20
-1.548145
 30
0.0
 11
56.50001899999999
 21
-1.415291
 31
0.0
  0
LINE
  5
73B
330
1F
100
AcDbEntity
  8
1
  6
CONTINUOUS
370
50
 62
4
100
AcDbLine
 10
56.50001899999999
 20
-1.415291
 30
0.0
 11
56.50001899999999
 21
-1.282449
 31
0.0
  0
LINE
  5
73C
330
1F
100
AcDbEntity
  8
1
  6
CONTINUOUS
370
50
 62
4
100
AcDbLine
 10
56.50001899999999
 20
-1.282449
 30
0.0
 11
56.50001899999999
 21
-1.149851
 31
0.0
  0
LINE
  5
73D
330
1F
100
AcDbEntity
  8
1
  6
CONTINUOUS
370
50
 62
4
100
AcDbLine
 10
56.50001899999999
 20
-1.147686
 30
0.0
 11
56.50001899999999
 21
-1.145522
 31
0.0
  0
LINE
  5
73E
330
1F
100
AcDbEntity
  8
1
  6
CONTINUOUS
370
50
 62
4
100
AcDbLine
 10
56.50001899999999
 20
-1.145522
 30
0.0
 11
56.50001899999999
 21
-1.143357
 31
0.0
  0
LINE
  5
73F
330
1F
100
AcDbEntity
  8
1
  6
CONTINUOUS
370
50
 62
4
100
AcDbLine
 10
56.50001899999999
 20
-1.143357
 30
0.0
 11
56.50001899999999
 21
-1.141192
 31
0.0
  0
LINE
  5
740
330
1F
100
AcDbEntity
  8
1
  6
CONTINUOUS
370
50
 62
4
100
AcDbLine
 10
56.50001899999999
 20
-1.141192
 30
0.0
 11
56.50001899999999
 21
-1.139027
 31
0.0
  0
LINE
  5
741
330
1F
100
AcDbEntity
  8
1
  6
CONTINUOUS
370
50
 62
4
100
AcDbLine
 10
56.50001899999999
 20
-1.139027
 30
0.0
 11
56.50001899999999
 21
-1.136863
 31
0.0
  0
LINE
  5
742
330
1F
100
AcDbEntity
  8
1
  6
CONTINUOUS
370
50
 62
4
100
AcDbLine
 10
56.50001899999999
 20
-1.136863
 30
0.0
 11
56.50001899999999
 21
-1.134698
 31
0.0
  0
LINE
  5
743
330
1F
100
AcDbEntity
  8
1
  6
CONTINUOUS
370
50
 62
4
100
AcDbLine
 10
56.50001899999999
 20
-1.134698
 30
0.0
 11
56.50001899999999
 21
-1.081179
 31
0.0
  0
LINE
  5
744
330
1F
100
AcDbEntity
  8
1
  6
CONTINUOUS
370
50
 62
4
100
AcDbLine
 10
56.50001899999999
 20
-1.081179
 30
0.0
 11
56.50001899999999
 21
-1.027814
 31
0.0
  0
LINE
  5
745
330
1F
100
AcDbEntity
  8
1
  6
CONTINUOUS
370
50
 62
4
100
AcDbLine
 10
56.50001899999999
 20
-1.027814
 30
0.0
 11
56.50001899999999
 21
-0.9747159999999999
 31
0.0
  0
LINE
  5
746
330
1F
100
AcDbEntity
  8
1
  6
CONTINUOUS
370
50
 62
4
100
AcDbLine
 10
56.50001899999999
 20
-0.9747159999999999
 30
0.0
 11
56.50001899999999
 21
-0.9219999999999999
 31
0.0
  0
LINE
  5
747
330
1F
100
AcDbEntity
  8
1
  6
CONTINUOUS
370
50
 62
4
100
AcDbLine
 10
56.50001899999999
 20
-0.9219999999999999
 30
0.0
 11
56.50001899999999
 21
-0.8697809999999999
 31
0.0
  0
LINE
  5
748
330
1F
100
AcDbEntity
  8
1
  6
CONTINUOUS
370
50
 62
4
100
AcDbLine
 10
56.50001899999999
 20
-0.8697809999999999
 30
0.0
 11
56.50001899999999
 21
-0.8181729999999999
 31
0.0
  0
LINE
  5
749
330
1F
100
AcDbEntity
  8
1
  6
CONTINUOUS
370
50
 62
4
100
AcDbLine
 10
56.50001899999999
 20
-0.8181729999999999
 30
0.0
 11
56.50001899999999
 21
-0.767289
 31
0.0
  0
LINE
  5
74A
330
1F
100
AcDbEntity
  8
1
  6
CONTINUOUS
370
50
 62
4
100
AcDbLine
 10
56.50001899999999
 20
-0.767289
 30
0.0
 11
56.50001899999999
 21
-0.717245
 31
0.0
  0
LINE
  5
74B
330
1F
100
AcDbEntity
  8
1
  6
CONTINUOUS
370
50
 62
4
100
AcDbLine
 10
56.50001899999999
 20
-0.717245
 30
0.0
 11
56.50001899999999
 21
-0.668153
 31
0.0
  0
LINE
  5
74C
330
1F
100
AcDbEntity
  8
1
  6
CONTINUOUS
370
50
 62
4
100
AcDbLine
 10
56.50001899999999
 20
-0.668153
 30
0.0
 11
56.50001899999999
 21
-0.620113
 31
0.0
  0
LINE
  5
74D
330
1F
100
AcDbEntity
  8
1
  6
CONTINUOUS
370
50
 62
4
100
AcDbLine
 10
56.50001899999999
 20
-0.620113
 30
0.0
 11
56.50001899999999
 21
-0.5732229999999999
 31
0.0
  0
LINE
  5
74E
330
1F
100
AcDbEntity
  8
1
  6
CONTINUOUS
370
50
 62
4
100
AcDbLine
 10
56.50001899999999
 20
-0.5732229999999999
 30
0.0
 11
56.50001899999999
 21
-0.527581
 31
0.0
  0
LINE
  5
74F
330
1F
100
AcDbEntity
  8
1
  6
CONTINUOUS
370
50
 62
4
100
AcDbLine
 10
56.50001899999999
 20
-0.527581
 30
0.0
 11
56.50001899999999
 21
-0.488007
 31
0.0
  0
LINE
  5
750
330
1F
100
AcDbEntity
  8
1
  6
CONTINUOUS
370
50
 62
4
100
AcDbLine
 10
56.50001899999999
 20
-0.488007
 30
0.0
 11
56.50001899999999
 21
-0.44957
 31
0.0
  0
LINE
  5
751
330
1F
100
AcDbEntity
  8
1
  6
CONTINUOUS
370
50
 62
4
100
AcDbLine
 10
56.50001899999999
 20
-0.44957
 30
0.0
 11
56.50001899999999
 21
-0.412342
 31
0.0
  0
LINE
  5
752
330
1F
100
AcDbEntity
  8
1
  6
CONTINUOUS
370
50
 62
4
100
AcDbLine
 10
56.50001899999999
 20
-0.412342
 30
0.0
 11
56.50001899999999
 21
-0.37639
 31
0.0
  0
LINE
  5
753
330
1F
100
AcDbEntity
  8
1
  6
CONTINUOUS
370
50
 62
4
100
AcDbLine
 10
56.50001899999999
 20
-0.37639
 30
0.0
 11
56.50001899999999
 21
-0.341784
 31
0.0
  0
LINE
  5
754
330
1F
100
AcDbEntity
  8
1
  6
CONTINUOUS
370
50
 62
4
100
AcDbLine
 10
56.50001899999999
 20
-0.341784
 30
0.0
 11
56.50001899999999
 21
-0.308589
 31
0.0
  0
LINE
  5
755
330
1F
100
AcDbEntity
  8
1
  6
CONTINUOUS
370
50
 62
4
100
AcDbLine
 10
56.50001899999999
 20
-0.308589
 30
0.0
 11
56.50001899999999
 21
-0.276858
 31
0.0
  0
LINE
  5
756
330
1F
100
AcDbEntity
  8
1
  6
CONTINUOUS
370
50
 62
4
100
AcDbLine
 10
56.50001899999999
 20
-0.276858
 30
0.0
 11
56.50001899999999
 21
-0.246636
 31
0.0
  0
LINE
  5
757
330
1F
100
AcDbEntity
  8
1
  6
CONTINUOUS
370
50
 62
4
100
AcDbLine
 10
56.50001899999999
 20
-0.246636
 30
0.0
 11
56.50001899999999
 21
-0.217969
 31
0.0
  0
LINE
  5
758
330
1F
100
AcDbEntity
  8
1
  6
CONTINUOUS
370
50
 62
4
100
AcDbLine
 10
56.50001899999999
 20
-0.217969
 30
0.0
 11
56.50001899999999
 21
-0.190903
 31
0.0
  0
LINE
  5
759
330
1F
100
AcDbEntity
  8
1
  6
CONTINUOUS
370
50
 62
4
100
AcDbLine
 10
56.50001899999999
 20
-0.190903
 30
0.0
 11
56.50001899999999
 21
-0.165485
 31
0.0
  0
LINE
  5
75A
330
1F
100
AcDbEntity
  8
1
  6
CONTINUOUS
370
50
 62
4
100
AcDbLine
 10
56.50001899999999
 20
-0.165485
 30
0.0
 11
56.50001899999999
 21
-0.14176
 31
0.0
  0
LINE
  5
75B
330
1F
100
AcDbEntity
  8
1
  6
CONTINUOUS
370
50
 62
4
100
AcDbLine
 10
56.50001899999999
 20
-0.14176
 30
0.0
 11
56.50001899999999
 21
-0.119775
 31
0.0
  0
LINE
  5
75C
330
1F
100
AcDbEntity
  8
1
  6
CONTINUOUS
370
50
 62
4
100
AcDbLine
 10
56.50001899999999
 20
-0.119775
 30
0.0
 11
56.50001899999999
 21
-0.099576
 31
0.0
  0
LINE
  5
75D
330
1F
100
AcDbEntity
  8
1
  6
CONTINUOUS
370
50
 62
4
100
AcDbLine
 10
56.50001899999999
 20
-0.099576
 30
0.0
 11
56.50001899999999
 21
-0.081209
 31
0.0
  0
LINE
  5
75E
330
1F
100
AcDbEntity
  8
1
  6
CONTINUOUS
370
50
 62
4
100
AcDbLine
 10
56.50001899999999
 20
-0.081209
 30
0.0
 11
56.50001899999999
 21
-0.064705
 31
0.0
  0
LINE
  5
75F
330
1F
100
AcDbEntity
  8
1
  6
CONTINUOUS
370
50
 62
4
100
AcDbLine
 10
56.50001899999999
 20
-0.064705
 30
0.0
 11
56.50001899999999
 21
-0.050082
 31
0.0
  0
LINE
  5
760
330
1F
100
AcDbEntity
  8
1
  6
CONTINUOUS
370
50
 62
4
100
AcDbLine
 10
56.50001899999999
 20
-0.050082
 30
0.0
 11
56.50001899999999
 21
-0.037355
 31
0.0
  0
LINE
  5
761
330
1F
100
AcDbEntity
  8
1
  6
CONTINUOUS
370
50
 62
4
100
AcDbLine
 10
56.50001899999999
 20
-0.037355
 30
0.0
 11
56.50001899999999
 21
-0.026542
 31
0.0
  0
LINE
  5
762
330
1F
100
AcDbEntity
  8
1
  6
CONTINUOUS
370
50
 62
4
100
AcDbLine
 10
56.50001899999999
 20
-0.026542
 30
0.0
 11
56.50001899999999
 21
-0.017657
 31
0.0
  0
LINE
  5
763
330
1F
100
AcDbEntity
  8
1
  6
CONTINUOUS
370
50
 62
4
100
AcDbLine
 10
56.50001899999999
 20
-0.017657
 30
0.0
 11
56.50001899999999
 21
-0.010717
 31
0.0
  0
LINE
  5
764
330
1F
100
AcDbEntity
  8
1
  6
CONTINUOUS
370
50
 62
4
100
AcDbLine
 10
56.50001899999999
 20
-0.010717
 30
0.0
 11
56.50001899999999
 21
-0.005738
 31
0.0
  0
LINE
  5
765
330
1F
100
AcDbEntity
  8
1
  6
CONTINUOUS
370
50
 62
4
100
AcDbLine
 10
56.50001899999999
 20
-0.005738
 30
0.0
 11
56.50001899999999
 21
-0.002737
 31
0.0
  0
LINE
  5
766
330
1F
100
AcDbEntity
  8
1
  6
CONTINUOUS
370
50
 62
4
100
AcDbLine
 10
56.50001899999999
 20
-0.002737
 30
0.0
 11
56.50001899999999
 21
-0.001729
 31
0.0
  0
LINE
  5
767
330
1F
100
AcDbEntity
  8
1
  6
CONTINUOUS
370
50
 62
4
100
AcDbLine
 10
58.0
 20
-0.001433
 30
0.0
 11
58.0
 21
0.650338
 31
0.0
  0
LINE
  5
768
330
1F
100
AcDbEntity
  8
1
  6
CONTINUOUS
370
50
 62
4
100
AcDbLine
 10
58.0
 20
-4.0
 30
0.0
 11
58.0
 21
-3.946779
 31
0.0
  0
LINE
  5
769
330
1F
100
AcDbEntity
  8
1
  6
CONTINUOUS
370
50
 62
4
100
AcDbLine
 10
60.0
 20
-2.000004
 30
0.0
 11
60.0
 21
1.999998
 31
0.0
  0
ELLIPSE
  5
76A
330
1F
100
AcDbEntity
  8
1
  6
CONTINUOUS
370
50
 62
4
100
AcDbEllipse
 10
56.511017
 20
-3.385637
 30
0.0
 11
-4.977488999999366
 21
0.00434700072737239
 31
0.0
210
0.0
220
0.0
230
0.9999999999999997
 40
0.4485783896309911
 41
4.714994007082131
 42
5.486439184271357
  0
ELLIPSE
  5
76B
330
1F
100
AcDbEntity
  8
1
  6
CONTINUOUS
370
50
 62
4
100
AcDbEllipse
 10
56.512221
 20
6.998932
 30
0.0
 11
-4.463191999936555
 21
0.007766036461087414
 31
0.0
210
0.0
220
0.0
230
1.0
 40
0.8937433120353397
 41
1.027664495927133
 42
1.569613327714673
  0
ARC
  5
76C
330
1F
100
AcDbEntity
  8
1
  6
CONTINUOUS
370
50
 62
4
100
AcDbCircle
 10
58.0
 20
-2.0
 30
0.0
 40
2.0
100
AcDbArc
 50
270.0
 51
0.0
  0
LINE
  5
76D
330
1F
100
AcDbEntity
  8
CUT
  6
CONTINUOUS
370
25
 62
1
100
AcDbLine
 10
56.5
 20
0.0
 30
0.0
 11
60.0
 21
0.0
 31
0.0
  0
LINE
  5
76E
330
1F
100
AcDbEntity
  8
CUT
  6
CONTINUOUS
370
25
 62
1
100
AcDbLine
 10
60.0
 20
0.0
 30
0.0
 11
60.0
 21
2.0
 31
0.0
  0
ARC
  5
76F
330
1F
100
AcDbEntity
  8
CUT
  6
CONTINUOUS
370
25
 62
1
100
AcDbCircle
 10
58.0
 20
2.0
 30
0.0
 40
2.0
100
AcDbArc
 50
0.0
 51
90.0
  0
LINE
  5
770
330
1F
100
AcDbEntity
  8
CUT
  6
CONTINUOUS
370
25
 62
1
100
AcDbLine
 10
58.0
 20
4.0
 30
0.0
 11
56.5
 21
3.9999
 31
0.0
  0
LINE
  5
771
330
1F
100
AcDbEntity
  8
CUT
  6
CONTINUOUS
370
25
 62
1
100
AcDbLine
 10
56.5
 20
3.9999
 30
0.0
 11
56.5
 21
0.0
 31
0.0
  0
LINE
  5
772
330
1F
100
AcDbEntity
  8
NOCUT
  6
CONTINUOUS
370
25
 62
7
100
AcDbLine
 10
28.0
 20
0.0
 30
0.0
 11
56.5
 21
0.0
 31
0.0
  0
LINE
  5
773
330
1F
100
AcDbEntity
  8
NOCUT
  6
CONTINUOUS
370
25
 62
7
100
AcDbLine
 10
56.5
 20
0.0
 30
0.0
 11
56.5
 21
3.59995
 31
0.0
  0
LINE
  5
774
330
1F
100
AcDbEntity
  8
NOCUT
  6
CONTINUOUS
370
25
 62
7
100
AcDbLine
 10
56.5
 20
3.59995
 30
0.0
 11
28.0
 21
3.59995
 31
0.0
  0
LINE
  5
775
330
1F
100
AcDbEntity
  8
NOCUT
  6
CONTINUOUS
370
25
 62
7
100
AcDbLine
 10
28.0
 20
3.59995
 30
0.0
 11
28.0
 21
3.99995
 31
0.0
  0
LINE
  5
776
330
1F
100
AcDbEntity
  8
NOCUT
  6
CONTINUOUS
370
25
 62
7
100
AcDbLine
 10
28.0
 20
3.99995
 30
0.0
 11
28.0
 21
0.0
 31
0.0
  0
LINE
  5
777
330
1F
100
AcDbEntity
  8
SK1
  6
CONTINUOUS
370
50
 62
4
100
AcDbLine
 10
28.0
 20
4.0
 30
0.0
 11
0.3999999999999986
 21
4.0
 31
0.0
  0
LINE
  5
778
330
1F
100
AcDbEntity
  8
SK1
  6
CONTINUOUS
370
50
 62
4
100
AcDbLine
 10
0.3999999999999986
 20
4.0
 30
0.0
 11
0.0
 21
3.6
 31
0.0
  0
LINE
  5
779
330
1F
100
AcDbEntity
  8
SK1
  6
CONTINUOUS
370
50
 62
4
100
AcDbLine
 10
0.0
 20
3.6
 30
0.0
 11
0.0
 21
-3.6
 31
0.0
  0
LINE
  5
77A
330
1F
100
AcDbEntity
  8
SK1
  6
CONTINUOUS
370
50
 62
4
100
AcDbLine
 10
0.0
 20
-3.6
 30
0.0
 11
0.3999999999999986
 21
-4.0
 31
0.0
  0
LINE
  5
77B
330
1F
100
AcDbEntity
  8
SK1
  6
CONTINUOUS
370
50
 62
4
100
AcDbLine
 10
0.3999999999999986
 20
-4.0
 30
0.0
 11
28.0
 21
-4.0
 31
0.0
  0
LINE
  5
77C
330
1F
100
AcDbEntity
  8
SK1
  6
CONTINUOUS
370
50
 62
4
100
AcDbLine
 10
0.3999999999999986
 20
4.0
 30
0.0
 11
0.3999999999999986
 21
-4.0
 31
0.0
  0
LINE
  5
77D
330
1F
100
AcDbEntity
  8
SK2
  6
CONTINUOUS
370
25
 62
7
100
AcDbLine
 10
-12.0000002
 20
-4.000001
 30
0.0
 11
-13.00000000000008
 21
-4.000001
 31
0.0
  0
LINE
  5
77E
330
1F
100
AcDbEntity
  8
SK2
  6
CONTINUOUS
370
25
 62
7
100
AcDbLine
 10
0.0
 20
-4.000001
 30
0.0
 11
-11.9999998
 21
-4.000001
 31
0.0
  0
LINE
  5
77F
330
1F
100
AcDbEntity
  8
SK2
  6
CONTINUOUS
370
25
 62
7
100
AcDbLine
 10
-13.0
 20
4.0
 30
0.0
 11
0.0
 21
4.0
 31
0.0
  0
LINE
  5
780
330
1F
100
AcDbEntity
  8
SK2
  6
CONTINUOUS
370
25
 62
7
100
AcDbLine
 10
-12.0
 20
-11.0
 30
0.0
 11
-12.0
 21
11.0
 31
0.0
  0
LINE
  5
781
330
1F
100
AcDbEntity
  8
SK2
  6
CONTINUOUS
370
25
 62
7
100
AcDbLine
 10
-12.0
 20
-4.0
 30
0.0
 11
-11.0
 21
-9.0
 31
0.0
  0
LINE
  5
782
330
1F
100
AcDbEntity
  8
SK2
  6
CONTINUOUS
370
25
 62
7
100
AcDbLine
 10
-11.0
 20
-9.0
 30
0.0
 11
-13.0
 21
-9.0
 31
0.0
  0
LINE
  5
783
330
1F
100
AcDbEntity
  8
SK2
  6
CONTINUOUS
370
25
 62
7
100
AcDbLine
 10
-13.0
 20
-9.0
 30
0.0
 11
-12.0
 21
-4.0
 31
0.0
  0
LINE
  5
784
330
1F
100
AcDbEntity
  8
SK2
  6
CONTINUOUS
370
25
 62
7
100
AcDbLine
 10
-11.12274887854687
 20
-9.0
 30
0.0
 11
-11.02045814642448
 21
-8.897709267877609
 31
0.0
  0
LINE
  5
785
330
1F
100
AcDbEntity
  8
SK2
  6
CONTINUOUS
370
25
 62
7
100
AcDbLine
 10
-11.54701294725881
 20
-9.0
 30
0.0
 11
-11.09116882454314
 21
-8.544155877284332
 31
0.0
  0
LINE
  5
786
330
1F
100
AcDbEntity
  8
SK2
  6
CONTINUOUS
370
25
 62
7
100
AcDbLine
 10
-11.97127701597073
 20
-9.0
 30
0.0
 11
-11.16187950266179
 21
-8.190602486691056
 31
0.0
  0
LINE
  5
787
330
1F
100
AcDbEntity
  8
SK2
  6
CONTINUOUS
370
25
 62
7
100
AcDbLine
 10
-12.39554108468267
 20
-9.0
 30
0.0
 11
-11.23259018078045
 21
-7.837049096097772
 31
0.0
  0
LINE
  5
788
330
1F
100
AcDbEntity
  8
SK2
  6
CONTINUOUS
370
25
 62
7
100
AcDbLine
 10
-12.8198051533946
 20
-9.0
 30
0.0
 11
-11.3033008588991
 21
-7.483495705504495
 31
0.0
  0
LINE
  5
789
330
1F
100
AcDbEntity
  8
SK2
  6
CONTINUOUS
370
25
 62
7
100
AcDbLine
 10
-12.93898269447337
 20
-8.694913472366835
 30
0.0
 11
-11.37401153701776
 21
-7.129942314911219
 31
0.0
  0
LINE
  5
78A
330
1F
100
AcDbEntity
  8
SK2
  6
CONTINUOUS
370
25
 62
7
100
AcDbLine
 10
-12.83291667729539
 20
-8.164583386476927
 30
0.0
 11
-11.44472221513642
 21
-6.776388924317949
 31
0.0
  0
LINE
  5
78B
330
1F
100
AcDbEntity
  8
SK2
  6
CONTINUOUS
370
25
 62
7
100
AcDbLine
 10
-12.7268506601174
 20
-7.634253300587005
 30
0.0
 11
-11.51543289325507
 21
-6.422835533724673
 31
0.0
  0
LINE
  5
78C
330
1F
100
AcDbEntity
  8
SK2
  6
CONTINUOUS
370
25
 62
7
100
AcDbLine
 10
-12.62078464293942
 20
-7.103923214697097
 30
0.0
 11
-11.58614357137372
 21
-6.069282143131396
 31
0.0
  0
LINE
  5
78D
330
1F
100
AcDbEntity
  8
SK2
  6
CONTINUOUS
370
25
 62
7
100
AcDbLine
 10
-12.51471862576144
 20
-6.573593128807182
 30
0.0
 11
-11.65685424949238
 21
-5.715728752538119
 31
0.0
  0
LINE
  5
78E
330
1F
100
AcDbEntity
  8
SK2
  6
CONTINUOUS
370
25
 62
7
100
AcDbLine
 10
-12.40865260858345
 20
-6.043263042917268
 30
0.0
 11
-11.72756492761103
 21
-5.36217536194485
 31
0.0
  0
LINE
  5
78F
330
1F
100
AcDbEntity
  8
SK2
  6
CONTINUOUS
370
25
 62
7
100
AcDbLine
 10
-12.30258659140547
 20
-5.512932957027353
 30
0.0
 11
-11.79827560572969
 21
-5.008621971351566
 31
0.0
  0
LINE
  5
790
330
1F
100
AcDbEntity
  8
SK2
  6
CONTINUOUS
370
25
 62
7
100
AcDbLine
 10
-12.19652057422748
 20
-4.982602871137438
 30
0.0
 11
-11.86898628384834
 21
-4.655068580758297
 31
0.0
  0
LINE
  5
791
330
1F
100
AcDbEntity
  8
SK2
  6
CONTINUOUS
370
25
 62
7
100
AcDbLine
 10
-12.0904545570495
 20
-4.452272785247523
 30
0.0
 11
-11.93969696196699
 21
-4.301515190165013
 31
0.0
  0
LINE
  5
792
330
1F
100
AcDbEntity
  8
SK2
  6
CONTINUOUS
370
25
 62
7
100
AcDbLine
 10
-12.93618967963889
 20
-8.680948398194467
 30
0.0
 11
-12.61713807783336
 21
-9.0
 31
0.0
  0
LINE
  5
793
330
1F
100
AcDbEntity
  8
SK2
  6
CONTINUOUS
370
25
 62
7
100
AcDbLine
 10
-12.86547900152024
 20
-8.327395007601197
 30
0.0
 11
-12.19287400912143
 21
-9.0
 31
0.0
  0
LINE
  5
794
330
1F
100
AcDbEntity
  8
SK2
  6
CONTINUOUS
370
25
 62
7
100
AcDbLine
 10
-12.79476832340158
 20
-7.973841617007913
 30
0.0
 11
-11.7686099404095
 21
-9.0
 31
0.0
  0
LINE
  5
795
330
1F
100
AcDbEntity
  8
SK2
  6
CONTINUOUS
370
25
 62
7
100
AcDbLine
 10
-12.72405764528293
 20
-7.620288226414644
 30
0.0
 11
-11.34434587169757
 21
-9.0
 31
0.0
  0
LINE
  5
796
330
1F
100
AcDbEntity
  8
SK2
  6
CONTINUOUS
370
25
 62
7
100
AcDbLine
 10
-12.65334696716427
 20
-7.26673483582136
 30
0.0
 11
-11.01997954925359
 21
-8.900102253732044
 31
0.0
  0
LINE
  5
797
330
1F
100
AcDbEntity
  8
SK2
  6
CONTINUOUS
370
25
 62
7
100
AcDbLine
 10
-12.58263628904562
 20
-6.913181445228084
 30
0.0
 11
-11.12604556643157
 21
-8.369772167842129
 31
0.0
  0
LINE
  5
798
330
1F
100
AcDbEntity
  8
SK2
  6
CONTINUOUS
370
25
 62
7
100
AcDbLine
 10
-12.51192561092697
 20
-6.559628054634807
 30
0.0
 11
-11.23211158360955
 21
-7.839442081952221
 31
0.0
  0
LINE
  5
799
330
1F
100
AcDbEntity
  8
SK2
  6
CONTINUOUS
370
25
 62
7
100
AcDbLine
 10
-12.44121493280831
 20
-6.20607466404153
 30
0.0
 11
-11.33817760078754
 21
-7.309111996062299
 31
0.0
  0
LINE
  5
79A
330
1F
100
AcDbEntity
  8
SK2
  6
CONTINUOUS
370
25
 62
7
100
AcDbLine
 10
-12.37050425468966
 20
-5.852521273448254
 30
0.0
 11
-11.44424361796552
 21
-6.778781910172391
 31
0.0
  0
LINE
  5
79B
330
1F
100
AcDbEntity
  8
SK2
  6
CONTINUOUS
370
25
 62
7
100
AcDbLine
 10
-12.299793576571
 20
-5.498967882854977
 30
0.0
 11
-11.55030963514351
 21
-6.248451824282476
 31
0.0
  0
LINE
  5
79C
330
1F
100
AcDbEntity
  8
SK2
  6
CONTINUOUS
370
25
 62
7
100
AcDbLine
 10
-12.22908289845234
 20
-5.145414492261708
 30
0.0
 11
-11.65637565232149
 21
-5.718121738392561
 31
0.0
  0
LINE
  5
79D
330
1F
100
AcDbEntity
  8
SK2
  6
CONTINUOUS
370
25
 62
7
100
AcDbLine
 10
-12.15837222033369
 20
-4.791861101668424
 30
0.0
 11
-11.76244166949947
 21
-5.187791652502646
 31
0.0
  0
LINE
  5
79E
330
1F
100
AcDbEntity
  8
SK2
  6
CONTINUOUS
370
25
 62
7
100
AcDbLine
 10
-12.08766154221504
 20
-4.43830771107514
 30
0.0
 11
-11.86850768667745
 21
-4.657461566612731
 31
0.0
  0
LINE
  5
79F
330
1F
100
AcDbEntity
  8
SK2
  6
CONTINUOUS
370
25
 62
7
100
AcDbLine
 10
-12.01695086409637
 20
-4.084754320481878
 30
0.0
 11
-11.97457370385543
 21
-4.127131480722817
 31
0.0
  0
LINE
  5
7A0
330
1F
100
AcDbEntity
  8
SK2
  6
CONTINUOUS
370
25
 62
7
100
AcDbLine
 10
-12.0
 20
4.0
 30
0.0
 11
-13.0
 21
9.0
 31
0.0
  0
LINE
  5
7A1
330
1F
100
AcDbEntity
  8
SK2
  6
CONTINUOUS
370
25
 62
7
100
AcDbLine
 10
-13.0
 20
9.0
 30
0.0
 11
-11.0
 21
9.0
 31
0.0
  0
LINE
  5
7A2
330
1F
100
AcDbEntity
  8
SK2
  6
CONTINUOUS
370
25
 62
7
100
AcDbLine
 10
-11.0
 20
9.0
 30
0.0
 11
-12.0
 21
4.0
 31
0.0
  0
LINE
  5
7A3
330
1F
100
AcDbEntity
  8
SK2
  6
CONTINUOUS
370
25
 62
7
100
AcDbLine
 10
-12.02057719100676
 20
4.102885955033798
 30
0.0
 11
-11.96913421348987
 21
4.15432893255069
 31
0.0
  0
LINE
  5
7A4
330
1F
100
AcDbEntity
  8
SK2
  6
CONTINUOUS
370
25
 62
7
100
AcDbLine
 10
-12.09128786912542
 20
4.456439345627075
 30
0.0
 11
-11.86306819631188
 21
4.684659018440612
 31
0.0
  0
LINE
  5
7A5
330
1F
100
AcDbEntity
  8
SK2
  6
CONTINUOUS
370
25
 62
7
100
AcDbLine
 10
-12.16199854724407
 20
4.809992736220352
 30
0.0
 11
-11.7570021791339
 21
5.21498910433052
 31
0.0
  0
LINE
  5
7A6
330
1F
100
AcDbEntity
  8
SK2
  6
CONTINUOUS
370
25
 62
7
100
AcDbLine
 10
-12.23270922536273
 20
5.163546126813628
 30
0.0
 11
-11.65093616195591
 21
5.745319190220442
 31
0.0
  0
LINE
  5
7A7
330
1F
100
AcDbEntity
  8
SK2
  6
CONTINUOUS
370
25
 62
7
100
AcDbLine
 10
-12.30341990348138
 20
5.517099517406912
 30
0.0
 11
-11.54487014477793
 21
6.275649276110357
 31
0.0
  0
LINE
  5
7A8
330
1F
100
AcDbEntity
  8
SK2
  6
CONTINUOUS
370
25
 62
7
100
AcDbLine
 10
-12.37413058160004
 20
5.870652908000174
 30
0.0
 11
-11.43880412759994
 21
6.805979362000272
 31
0.0
  0
LINE
  5
7A9
330
1F
100
AcDbEntity
  8
SK2
  6
CONTINUOUS
370
25
 62
7
100
AcDbLine
 10
-12.44484125971869
 20
6.224206298593458
 30
0.0
 11
-11.33273811042196
 21
7.336309447890187
 31
0.0
  0
LINE
  5
7AA
330
1F
100
AcDbEntity
  8
SK2
  6
CONTINUOUS
370
25
 62
7
100
AcDbLine
 10
-12.51555193783734
 20
6.577759689186728
 30
0.0
 11
-11.22667209324398
 21
7.866639533780088
 31
0.0
  0
LINE
  5
7AB
330
1F
100
AcDbEntity
  8
SK2
  6
CONTINUOUS
370
25
 62
7
100
AcDbLine
 10
-12.586262615956
 20
6.931313079780004
 30
0.0
 11
-11.120606076066
 21
8.39696961967001
 31
0.0
  0
LINE
  5
7AC
330
1F
100
AcDbEntity
  8
SK2
  6
CONTINUOUS
370
25
 62
7
100
AcDbLine
 10
-12.65697329407466
 20
7.284866470373274
 30
0.0
 11
-11.01454005888802
 21
8.927299705559918
 31
0.0
  0
LINE
  5
7AD
330
1F
100
AcDbEntity
  8
SK2
  6
CONTINUOUS
370
25
 62
7
100
AcDbLine
 10
-12.72768397219332
 20
7.63841986096655
 30
0.0
 11
-11.36610383315987
 21
9.0
 31
0.0
  0
LINE
  5
7AE
330
1F
100
AcDbEntity
  8
SK2
  6
CONTINUOUS
370
25
 62
7
100
AcDbLine
 10
-12.79839465031197
 20
7.991973251559834
 30
0.0
 11
-11.7903679018718
 21
9.0
 31
0.0
  0
LINE
  5
7AF
330
1F
100
AcDbEntity
  8
SK2
  6
CONTINUOUS
370
25
 62
7
100
AcDbLine
 10
-12.86910532843062
 20
8.34552664215311
 30
0.0
 11
-12.21463197058373
 21
9.0
 31
0.0
  0
LINE
  5
7B0
330
1F
100
AcDbEntity
  8
SK2
  6
CONTINUOUS
370
25
 62
7
100
AcDbLine
 10
-12.93981600654928
 20
8.699080032746387
 30
0.0
 11
-12.63889603929567
 21
9.0
 31
0.0
  0
LINE
  5
7B1
330
1F
100
AcDbEntity
  8
SK2
  6
CONTINUOUS
370
25
 62
7
100
AcDbLine
 10
-12.01980098238018
 20
4.099004911900906
 30
0.0
 11
-11.98679934507988
 21
4.066003274600611
 31
0.0
  0
LINE
  5
7B2
330
1F
100
AcDbEntity
  8
SK2
  6
CONTINUOUS
370
25
 62
7
100
AcDbLine
 10
-12.12586699955816
 20
4.629334997790828
 30
0.0
 11
-11.91608866696122
 21
4.419556665193888
 31
0.0
  0
LINE
  5
7B3
330
1F
100
AcDbEntity
  8
SK2
  6
CONTINUOUS
370
25
 62
7
100
AcDbLine
 10
-12.23193301673614
 20
5.159665083680736
 30
0.0
 11
-11.84537798884257
 21
4.773110055787164
 31
0.0
  0
LINE
  5
7B4
330
1F
100
AcDbEntity
  8
SK2
  6
CONTINUOUS
370
25
 62
7
100
AcDbLine
 10
-12.33799903391412
 20
5.689995169570643
 30
0.0
 11
-11.77466731072391
 21
5.126663446380434
 31
0.0
  0
LINE
  5
7B5
330
1F
100
AcDbEntity
  8
SK2
  6
CONTINUOUS
370
25
 62
7
100
AcDbLine
 10
-12.44406505109211
 20
6.220325255460565
 30
0.0
 11
-11.70395663260526
 21
5.48021683697371
 31
0.0
  0
LINE
  5
7B6
330
1F
100
AcDbEntity
  8
SK2
  6
CONTINUOUS
370
25
 62
7
100
AcDbLine
 10
-12.5501310682701
 20
6.75065534135048
 30
0.0
 11
-11.6332459544866
 21
5.83377022756698
 31
0.0
  0
LINE
  5
7B7
330
1F
100
AcDbEntity
  8
SK2
  6
CONTINUOUS
370
25
 62
7
100
AcDbLine
 10
-12.65619708544808
 20
7.280985427240395
 30
0.0
 11
-11.56253527636795
 21
6.187323618160264
 31
0.0
  0
LINE
  5
7B8
330
1F
100
AcDbEntity
  8
SK2
  6
CONTINUOUS
370
25
 62
7
100
AcDbLine
 10
-12.76226310262606
 20
7.81131551313031
 30
0.0
 11
-11.49182459824929
 21
6.540877008753554
 31
0.0
  0
LINE
  5
7B9
330
1F
100
AcDbEntity
  8
SK2
  6
CONTINUOUS
370
25
 62
7
100
AcDbLine
 10
-12.86832911980405
 20
8.341645599020225
 30
0.0
 11
-11.42111392013064
 21
6.894430399346824
 31
0.0
  0
LINE
  5
7BA
330
1F
100
AcDbEntity
  8
SK2
  6
CONTINUOUS
370
25
 62
7
100
AcDbLine
 10
-12.97439513698203
 20
8.871975684910147
 30
0.0
 11
-11.35040324201198
 21
7.247983789940093
 31
0.0
  0
LINE
  5
7BB
330
1F
100
AcDbEntity
  8
SK2
  6
CONTINUOUS
370
25
 62
7
100
AcDbLine
 10
-12.67815538335996
 20
9.0
 30
0.0
 11
-11.27969256389332
 21
7.601537180533363
 31
0.0
  0
LINE
  5
7BC
330
1F
100
AcDbEntity
  8
SK2
  6
CONTINUOUS
370
25
 62
7
100
AcDbLine
 10
-12.25389131464803
 20
9.000000000000004
 30
0.0
 11
-11.20898188577467
 21
7.955090571126643
 31
0.0
  0
LINE
  5
7BD
330
1F
100
AcDbEntity
  8
SK2
  6
CONTINUOUS
370
25
 62
7
100
AcDbLine
 10
-11.82962724593609
 20
9.0
 30
0.0
 11
-11.13827120765602
 21
8.308643961719923
 31
0.0
  0
LINE
  5
7BE
330
1F
100
AcDbEntity
  8
SK2
  6
CONTINUOUS
370
25
 62
7
100
AcDbLine
 10
-11.40536317722417
 20
9.000000000000004
 30
0.0
 11
-11.06756052953736
 21
8.662197352313196
 31
0.0
  0
TEXT
  5
7BF
330
1F
100
AcDbEntity
  8
SK2
  6
CONTINUOUS
370
25
 62
7
100
AcDbText
 10
-13.5
 20
1.108333333333333
 30
0.0
 40
3.5
  1
8
 50
90.0
 72
     1
 11
-13.5
 21
2.275
 31
0.0
100
AcDbText
  0
CIRCLE
  5
7C0
330
1F
100
AcDbEntity
  8
SK2
  6
CONTINUOUS
370
25
 62
7
100
AcDbCircle
 10
-15.25
 20
-1.05
 30
0.0
 40
1.4
  0
LINE
  5
7C1
330
1F
100
AcDbEntity
  8
SK2
  6
CONTINUOUS
370
25
 62
7
100
AcDbLine
 10
-13.85
 20
-2.45
 30
0.0
 11
-16.65
 21
0.3500000000000005
 31
0.0
  0
LINE
  5
7C2
330
1F
100
AcDbEntity
  8
SK2
  6
CONTINUOUS
370
25
 62
7
100
AcDbLine
 10
0.0
 20
4.0
 30
0.0
 11
0.0
 21
17.00001
 31
0.0
  0
LINE
  5
7C3
330
1F
100
AcDbEntity
  8
SK2
  6
CONTINUOUS
370
25
 62
7
100
AcDbLine
 10
28.0
 20
17.00001
 30
0.0
 11
28.0
 21
4.0
 31
0.0
  0
LINE
  5
7C4
330
1F
100
AcDbEntity
  8
SK2
  6
CONTINUOUS
370
25
 62
7
100
AcDbLine
 10
0.0
 20
16.00001
 30
0.0
 11
28.0
 21
16.00001
 31
0.0
  0
LINE
  5
7C5
330
1F
100
AcDbEntity
  8
SK2
  6
CONTINUOUS
370
25
 62
7
100
AcDbLine
 10
0.0
 20
16.00001
 30
0.0
 11
5.0
 21
17.00001
 31
0.0
  0
LINE
  5
7C6
330
1F
100
AcDbEntity
  8
SK2
  6
CONTINUOUS
370
25
 62
7
100
AcDbLine
 10
5.0
 20
17.00001
 30
0.0
 11
5.0
 21
15.00001
 31
0.0
  0
LINE
  5
7C7
330
1F
100
AcDbEntity
  8
SK2
  6
CONTINUOUS
370
25
 62
7
100
AcDbLine
 10
5.0
 20
15.00001
 30
0.0
 11
0.0
 21
16.00001
 31
0.0
  0
LINE
  5
7C8
330
1F
100
AcDbEntity
  8
SK2
  6
CONTINUOUS
370
25
 62
7
100
AcDbLine
 10
4.846869846605376
 20
15.03063603067892
 30
0.0
 11
5.0
 21
15.18376618407355
 31
0.0
  0
LINE
  5
7C9
330
1F
100
AcDbEntity
  8
SK2
  6
CONTINUOUS
370
25
 62
7
100
AcDbLine
 10
4.493316456012103
 20
15.10134670879758
 30
0.0
 11
5.0
 21
15.60803025278548
 31
0.0
  0
LINE
  5
7CA
330
1F
100
AcDbEntity
  8
SK2
  6
CONTINUOUS
370
25
 62
7
100
AcDbLine
 10
4.13976306541883
 20
15.17205738691623
 30
0.0
 11
5.0
 21
16.0322943214974
 31
0.0
  0
LINE
  5
7CB
330
1F
100
AcDbEntity
  8
SK2
  6
CONTINUOUS
370
25
 62
7
100
AcDbLine
 10
3.786209674825557
 20
15.24276806503489
 30
0.0
 11
5.0
 21
16.45655839020933
 31
0.0
  0
LINE
  5
7CC
330
1F
100
AcDbEntity
  8
SK2
  6
CONTINUOUS
370
25
 62
7
100
AcDbLine
 10
3.432656284232284
 20
15.31347874315354
 30
0.0
 11
5.0
 21
16.88082245892126
 31
0.0
  0
LINE
  5
7CD
330
1F
100
AcDbEntity
  8
SK2
  6
CONTINUOUS
370
25
 62
7
100
AcDbLine
 10
3.079102893639011
 20
15.3841894212722
 30
0.0
 11
4.618654340458519
 21
16.92374086809171
 31
0.0
  0
LINE
  5
7CE
330
1F
100
AcDbEntity
  8
SK2
  6
CONTINUOUS
370
25
 62
7
100
AcDbLine
 10
2.725549503045738
 20
15.45490009939085
 30
0.0
 11
4.088324254568612
 21
16.81767485091373
 31
0.0
  0
LINE
  5
7CF
330
1F
100
AcDbEntity
  8
SK2
  6
CONTINUOUS
370
25
 62
7
100
AcDbLine
 10
2.371996112452464
 20
15.52561077750951
 30
0.0
 11
3.5579941686787
 21
16.71160883373574
 31
0.0
  0
LINE
  5
7D0
330
1F
100
AcDbEntity
  8
SK2
  6
CONTINUOUS
370
25
 62
7
100
AcDbLine
 10
2.018442721859191
 20
15.59632145562816
 30
0.0
 11
3.027664082788792
 21
16.60554281655776
 31
0.0
  0
LINE
  5
7D1
330
1F
100
AcDbEntity
  8
SK2
  6
CONTINUOUS
370
25
 62
7
100
AcDbLine
 10
1.664889331265918
 20
15.66703213374682
 30
0.0
 11
2.497333996898881
 21
16.49947679937978
 31
0.0
  0
LINE
  5
7D2
330
1F
100
AcDbEntity
  8
SK2
  6
CONTINUOUS
370
25
 62
7
100
AcDbLine
 10
1.311335940672642
 20
15.73774281186547
 30
0.0
 11
1.967003911008973
 21
16.3934107822018
 31
0.0
  0
LINE
  5
7D3
330
1F
100
AcDbEntity
  8
SK2
  6
CONTINUOUS
370
25
 62
7
100
AcDbLine
 10
0.9577825500793722
 20
15.80845348998412
 30
0.0
 11
1.436673825119062
 21
16.28734476502381
 31
0.0
  0
LINE
  5
7D4
330
1F
100
AcDbEntity
  8
SK2
  6
CONTINUOUS
370
25
 62
7
100
AcDbLine
 10
0.6042291594860956
 20
15.87916416810278
 30
0.0
 11
0.906343739229154
 21
16.18127874784583
 31
0.0
  0
LINE
  5
7D5
330
1F
100
AcDbEntity
  8
SK2
  6
CONTINUOUS
370
25
 62
7
100
AcDbLine
 10
0.2506757688928261
 20
15.94987484622143
 30
0.0
 11
0.3760136533392426
 21
16.07521273066785
 31
0.0
  0
LINE
  5
7D6
330
1F
100
AcDbEntity
  8
SK2
  6
CONTINUOUS
370
25
 62
7
100
AcDbLine
 10
0.2670217347106991
 20
16.05341434694214
 30
0.0
 11
0.4005326020660505
 21
15.91990347958679
 31
0.0
  0
LINE
  5
7D7
330
1F
100
AcDbEntity
  8
SK2
  6
CONTINUOUS
370
25
 62
7
100
AcDbLine
 10
0.6205751253039793
 20
16.12412502506079
 30
0.0
 11
0.9308626879559618
 21
15.81383746240881
 31
0.0
  0
LINE
  5
7D8
330
1F
100
AcDbEntity
  8
SK2
  6
CONTINUOUS
370
25
 62
7
100
AcDbLine
 10
0.9741285158972453
 20
16.19483570317945
 30
0.0
 11
1.461192773845873
 21
15.70777144523083
 31
0.0
  0
LINE
  5
7D9
330
1F
100
AcDbEntity
  8
SK2
  6
CONTINUOUS
370
25
 62
7
100
AcDbLine
 10
1.327681906490525
 20
16.2655463812981
 30
0.0
 11
1.991522859735781
 21
15.60170542805285
 31
0.0
  0
LINE
  5
7DA
330
1F
100
AcDbEntity
  8
SK2
  6
CONTINUOUS
370
25
 62
7
100
AcDbLine
 10
1.681235297083795
 20
16.33625705941676
 30
0.0
 11
2.521852945625692
 21
15.49563941087486
 31
0.0
  0
LINE
  5
7DB
330
1F
100
AcDbEntity
  8
SK2
  6
CONTINUOUS
370
25
 62
7
100
AcDbLine
 10
2.034788687677068
 20
16.40696773753541
 30
0.0
 11
3.0521830315156
 21
15.38957339369688
 31
0.0
  0
LINE
  5
7DC
330
1F
100
AcDbEntity
  8
SK2
  6
CONTINUOUS
370
25
 62
7
100
AcDbLine
 10
2.388342078270341
 20
16.47767841565407
 30
0.0
 11
3.582513117405512
 21
15.2835073765189
 31
0.0
  0
LINE
  5
7DD
330
1F
100
AcDbEntity
  8
SK2
  6
CONTINUOUS
370
25
 62
7
100
AcDbLine
 10
2.741895468863614
 20
16.54838909377272
 30
0.0
 11
4.112843203295419
 21
15.17744135934092
 31
0.0
  0
LINE
  5
7DE
330
1F
100
AcDbEntity
  8
SK2
  6
CONTINUOUS
370
25
 62
7
100
AcDbLine
 10
3.095448859456887
 20
16.61909977189138
 30
0.0
 11
4.643173289185331
 21
15.07137534216293
 31
0.0
  0
LINE
  5
7DF
330
1F
100
AcDbEntity
  8
SK2
  6
CONTINUOUS
370
25
 62
7
100
AcDbLine
 10
3.44900225005016
 20
16.68981045001003
 30
0.0
 11
5.0
 21
15.13881270006019
 31
0.0
  0
LINE
  5
7E0
330
1F
100
AcDbEntity
  8
SK2
  6
CONTINUOUS
370
25
 62
7
100
AcDbLine
 10
3.802555640643433
 20
16.76052112812869
 30
0.0
 11
5.0
 21
15.56307676877212
 31
0.0
  0
LINE
  5
7E1
330
1F
100
AcDbEntity
  8
SK2
  6
CONTINUOUS
370
25
 62
7
100
AcDbLine
 10
4.156109031236706
 20
16.83123180624734
 30
0.0
 11
5.0
 21
15.98734083748405
 31
0.0
  0
LINE
  5
7E2
330
1F
100
AcDbEntity
  8
SK2
  6
CONTINUOUS
370
25
 62
7
100
AcDbLine
 10
4.509662421829979
 20
16.901942484366
 30
0.0
 11
5.0
 21
16.41160490619598
 31
0.0
  0
LINE
  5
7E3
330
1F
100
AcDbEntity
  8
SK2
  6
CONTINUOUS
370
25
 62
7
100
AcDbLine
 10
4.863215812423253
 20
16.97265316248465
 30
0.0
 11
5.0
 21
16.8358689749079
 31
0.0
  0
LINE
  5
7E4
330
1F
100
AcDbEntity
  8
SK2
  6
CONTINUOUS
370
25
 62
7
100
AcDbLine
 10
28.0
 20
16.00001
 30
0.0
 11
23.0
 21
15.00001
 31
0.0
  0
LINE
  5
7E5
330
1F
100
AcDbEntity
  8
SK2
  6
CONTINUOUS
370
25
 62
7
100
AcDbLine
 10
23.0
 20
15.00001
 30
0.0
 11
23.0
 21
17.00001
 31
0.0
  0
LINE
  5
7E6
330
1F
100
AcDbEntity
  8
SK2
  6
CONTINUOUS
370
25
 62
7
100
AcDbLine
 10
23.0
 20
17.00001
 30
0.0
 11
28.0
 21
16.00001
 31
0.0
  0
LINE
  5
7E7
330
1F
100
AcDbEntity
  8
SK2
  6
CONTINUOUS
370
25
 62
7
100
AcDbLine
 10
27.8474692361834
 20
15.96950384723668
 30
0.0
 11
27.89831282412226
 21
16.02034743517554
 31
0.0
  0
LINE
  5
7E8
330
1F
100
AcDbEntity
  8
SK2
  6
CONTINUOUS
370
25
 62
7
100
AcDbLine
 10
27.31713915029349
 20
15.8634378300587
 30
0.0
 11
27.54475943352899
 21
16.0910581132942
 31
0.0
  0
LINE
  5
7E9
330
1F
100
AcDbEntity
  8
SK2
  6
CONTINUOUS
370
25
 62
7
100
AcDbLine
 10
26.78680906440358
 20
15.75737181288072
 30
0.0
 11
27.19120604293572
 21
16.16176879141285
 31
0.0
  0
LINE
  5
7EA
330
1F
100
AcDbEntity
  8
SK2
  6
CONTINUOUS
370
25
 62
7
100
AcDbLine
 10
26.25647897851367
 20
15.65130579570273
 30
0.0
 11
26.83765265234245
 21
16.23247946953151
 31
0.0
  0
LINE
  5
7EB
330
1F
100
AcDbEntity
  8
SK2
  6
CONTINUOUS
370
25
 62
7
100
AcDbLine
 10
25.72614889262376
 20
15.54523977852475
 30
0.0
 11
26.48409926174918
 21
16.30319014765016
 31
0.0
  0
LINE
  5
7EC
330
1F
100
AcDbEntity
  8
SK2
  6
CONTINUOUS
370
25
 62
7
100
AcDbLine
 10
25.19581880673385
 20
15.43917376134677
 30
0.0
 11
26.1305458711559
 21
16.37390082576882
 31
0.0
  0
LINE
  5
7ED
330
1F
100
AcDbEntity
  8
SK2
  6
CONTINUOUS
370
25
 62
7
100
AcDbLine
 10
24.66548872084394
 20
15.33310774416879
 30
0.0
 11
25.77699248056263
 21
16.44461150388748
 31
0.0
  0
LINE
  5
7EE
330
1F
100
AcDbEntity
  8
SK2
  6
CONTINUOUS
370
25
 62
7
100
AcDbLine
 10
24.13515863495403
 20
15.22704172699081
 30
0.0
 11
25.42343908996935
 21
16.51532218200613
 31
0.0
  0
LINE
  5
7EF
330
1F
100
AcDbEntity
  8
SK2
  6
CONTINUOUS
370
25
 62
7
100
AcDbLine
 10
23.60482854906412
 20
15.12097570981283
 30
0.0
 11
25.06988569937608
 21
16.58603286012479
 31
0.0
  0
LINE
  5
7F0
330
1F
100
AcDbEntity
  8
SK2
  6
CONTINUOUS
370
25
 62
7
100
AcDbLine
 10
23.07449846317421
 20
15.01490969263484
 30
0.0
 11
24.71633230878281
 21
16.65674353824344
 31
0.0
  0
LINE
  5
7F1
330
1F
100
AcDbEntity
  8
SK2
  6
CONTINUOUS
370
25
 62
7
100
AcDbLine
 10
23.0
 20
15.36467529817256
 30
0.0
 11
24.36277891818953
 21
16.72745421636209
 31
0.0
  0
LINE
  5
7F2
330
1F
100
AcDbEntity
  8
SK2
  6
CONTINUOUS
370
25
 62
7
100
AcDbLine
 10
23.0
 20
15.78893936688448
 30
0.0
 11
24.00922552759626
 21
16.79816489448075
 31
0.0
  0
LINE
  5
7F3
330
1F
100
AcDbEntity
  8
SK2
  6
CONTINUOUS
370
25
 62
7
100
AcDbLine
 10
23.0
 20
16.21320343559641
 30
0.0
 11
23.65567213700299
 21
16.8688755725994
 31
0.0
  0
LINE
  5
7F4
330
1F
100
AcDbEntity
  8
SK2
  6
CONTINUOUS
370
25
 62
7
100
AcDbLine
 10
23.0
 20
16.63746750430834
 30
0.0
 11
23.30211874640971
 21
16.93958625071806
 31
0.0
  0
LINE
  5
7F5
330
1F
100
AcDbEntity
  8
SK2
  6
CONTINUOUS
370
25
 62
7
100
AcDbLine
 10
23.0
 20
15.18233764908626
 30
0.0
 11
23.15193970757188
 21
15.03039794151438
 31
0.0
  0
LINE
  5
7F6
330
1F
100
AcDbEntity
  8
SK2
  6
CONTINUOUS
370
25
 62
7
100
AcDbLine
 10
23.0
 20
15.60660171779818
 30
0.0
 11
23.50549309816515
 21
15.10110861963303
 31
0.0
  0
LINE
  5
7F7
330
1F
100
AcDbEntity
  8
SK2
  6
CONTINUOUS
370
25
 62
7
100
AcDbLine
 10
23.0
 20
16.03086578651011
 30
0.0
 11
23.85904648875843
 21
15.17181929775169
 31
0.0
  0
LINE
  5
7F8
330
1F
100
AcDbEntity
  8
SK2
  6
CONTINUOUS
370
25
 62
7
100
AcDbLine
 10
23.0
 20
16.45512985522204
 30
0.0
 11
24.2125998793517
 21
15.24252997587034
 31
0.0
  0
LINE
  5
7F9
330
1F
100
AcDbEntity
  8
SK2
  6
CONTINUOUS
370
25
 62
7
100
AcDbLine
 10
23.0
 20
16.87939392393397
 30
0.0
 11
24.56615326994498
 21
15.31324065398899
 31
0.0
  0
LINE
  5
7FA
330
1F
100
AcDbEntity
  8
SK2
  6
CONTINUOUS
370
25
 62
7
100
AcDbLine
 10
23.37955999080737
 20
16.92409800183853
 30
0.0
 11
24.91970666053825
 21
15.38395133210765
 31
0.0
  0
LINE
  5
7FB
330
1F
100
AcDbEntity
  8
SK2
  6
CONTINUOUS
370
25
 62
7
100
AcDbLine
 10
23.90989007669728
 20
16.81803198466054
 30
0.0
 11
25.27326005113152
 21
15.4546620102263
 31
0.0
  0
LINE
  5
7FC
330
1F
100
AcDbEntity
  8
SK2
  6
CONTINUOUS
370
25
 62
7
100
AcDbLine
 10
24.44022016258719
 20
16.71196596748256
 30
0.0
 11
25.6268134417248
 21
15.52537268834496
 31
0.0
  0
LINE
  5
7FD
330
1F
100
AcDbEntity
  8
SK2
  6
CONTINUOUS
370
25
 62
7
100
AcDbLine
 10
24.9705502484771
 20
16.60589995030458
 30
0.0
 11
25.98036683231807
 21
15.59608336646361
 31
0.0
  0
LINE
  5
7FE
330
1F
100
AcDbEntity
  8
SK2
  6
CONTINUOUS
370
25
 62
7
100
AcDbLine
 10
25.50088033436701
 20
16.4998339331266
 30
0.0
 11
26.33392022291134
 21
15.66679404458227
 31
0.0
  0
LINE
  5
7FF
330
1F
100
AcDbEntity
  8
SK2
  6
CONTINUOUS
370
25
 62
7
100
AcDbLine
 10
26.03121042025692
 20
16.39376791594862
 30
0.0
 11
26.68747361350461
 21
15.73750472270092
 31
0.0
  0
LINE
  5
800
330
1F
100
AcDbEntity
  8
SK2
  6
CONTINUOUS
370
25
 62
7
100
AcDbLine
 10
26.56154050614683
 20
16.28770189877063
 30
0.0
 11
27.04102700409789
 21
15.80821540081958
 31
0.0
  0
LINE
  5
801
330
1F
100
AcDbEntity
  8
SK2
  6
CONTINUOUS
370
25
 62
7
100
AcDbLine
 10
27.09187059203674
 20
16.18163588159265
 30
0.0
 11
27.39458039469116
 21
15.87892607893823
 31
0.0
  0
LINE
  5
802
330
1F
100
AcDbEntity
  8
SK2
  6
CONTINUOUS
370
25
 62
7
100
AcDbLine
 10
27.62220067792665
 20
16.07556986441467
 30
0.0
 11
27.74813378528444
 21
15.94963675705689
 31
0.0
  0
TEXT
  5
803
330
1F
100
AcDbEntity
  8
SK2
  6
CONTINUOUS
370
25
 62
7
100
AcDbText
 10
11.08333333333333
 20
17.50001
 30
0.0
 40
3.5
  1
28
 72
     1
 11
14.0
 21
17.50001
 31
0.0
100
AcDbText
  0
LINE
  5
804
330
1F
100
AcDbEntity
  8
2
  6
CONTINUOUS
370
25
 62
7
100
AcDbLine
 10
58.0
 20
-4.0
 30
0.0
 11
73.0
 21
-4.000000000000002
 31
0.0
  0
LINE
  5
805
330
1F
100
AcDbEntity
  8
2
  6
CONTINUOUS
370
25
 62
7
100
AcDbLine
 10
73.0
 20
3.999999999999998
 30
0.0
 11
58.0
 21
4.0
 31
0.0
  0
LINE
  5
806
330
1F
100
AcDbEntity
  8
2
  6
CONTINUOUS
370
25
 62
7
100
AcDbLine
 10
72.0
 20
-11.0
 30
0.0
 11
72.0
 21
11.0
 31
0.0
  0
LINE
  5
807
330
1F
100
AcDbEntity
  8
2
  6
CONTINUOUS
370
25
 62
7
100
AcDbLine
 10
72.0
 20
-4.000000000000002
 30
0.0
 11
73.0
 21
-9.000000000000002
 31
0.0
  0
LINE
  5
808
330
1F
100
AcDbEntity
  8
2
  6
CONTINUOUS
370
25
 62
7
100
AcDbLine
 10
73.0
 20
-9.000000000000002
 30
0.0
 11
71.0
 21
-9.000000000000002
 31
0.0
  0
LINE
  5
809
330
1F
100
AcDbEntity
  8
2
  6
CONTINUOUS
370
25
 62
7
100
AcDbLine
 10
71.0
 20
-9.000000000000002
 30
0.0
 11
72.0
 21
-4.000000000000002
 31
0.0
  0
LINE
  5
80A
330
1F
100
AcDbEntity
  8
2
  6
CONTINUOUS
370
25
 62
7
100
AcDbLine
 10
72.798761459426
 20
-9.0
 30
0.0
 11
72.96646024323766
 21
-8.832301216188341
 31
0.0
  0
LINE
  5
80B
330
1F
100
AcDbEntity
  8
2
  6
CONTINUOUS
370
25
 62
7
100
AcDbLine
 10
72.37449739071408
 20
-9.0
 30
0.0
 11
72.89574956511902
 21
-8.478747825595065
 31
0.0
  0
LINE
  5
80C
330
1F
100
AcDbEntity
  8
2
  6
CONTINUOUS
370
25
 62
7
100
AcDbLine
 10
71.95023332200213
 20
-9.0
 30
0.0
 11
72.82503888700035
 21
-8.125194435001788
 31
0.0
  0
LINE
  5
80D
330
1F
100
AcDbEntity
  8
2
  6
CONTINUOUS
370
25
 62
7
100
AcDbLine
 10
71.52596925329021
 20
-9.0
 30
0.0
 11
72.7543282088817
 21
-7.771641044408511
 31
0.0
  0
LINE
  5
80E
330
1F
100
AcDbEntity
  8
2
  6
CONTINUOUS
370
25
 62
7
100
AcDbLine
 10
71.1017051845783
 20
-9.0
 30
0.0
 11
72.68361753076306
 21
-7.418087653815235
 31
0.0
  0
LINE
  5
80F
330
1F
100
AcDbEntity
  8
2
  6
CONTINUOUS
370
25
 62
7
100
AcDbLine
 10
71.0806397210334
 20
-8.59680139483293
 30
0.0
 11
72.61290685264439
 21
-7.064534263221951
 31
0.0
  0
LINE
  5
810
330
1F
100
AcDbEntity
  8
2
  6
CONTINUOUS
370
25
 62
7
100
AcDbLine
 10
71.1867057382114
 20
-8.066471308943022
 30
0.0
 11
72.54219617452574
 21
-6.710980872628674
 31
0.0
  0
LINE
  5
811
330
1F
100
AcDbEntity
  8
2
  6
CONTINUOUS
370
25
 62
7
100
AcDbLine
 10
71.29277175538938
 20
-7.5361412230531
 30
0.0
 11
72.4714854964071
 21
-6.357427482035391
 31
0.0
  0
LINE
  5
812
330
1F
100
AcDbEntity
  8
2
  6
CONTINUOUS
370
25
 62
7
100
AcDbLine
 10
71.39883777256736
 20
-7.005811137163192
 30
0.0
 11
72.40077481828843
 21
-6.003874091442135
 31
0.0
  0
LINE
  5
813
330
1F
100
AcDbEntity
  8
2
  6
CONTINUOUS
370
25
 62
7
100
AcDbLine
 10
71.50490378974534
 20
-6.475481051273285
 30
0.0
 11
72.33006414016977
 21
-5.650320700848859
 31
0.0
  0
LINE
  5
814
330
1F
100
AcDbEntity
  8
2
  6
CONTINUOUS
370
25
 62
7
100
AcDbLine
 10
71.61096980692332
 20
-5.94515096538337
 30
0.0
 11
72.25935346205111
 21
-5.296767310255589
 31
0.0
  0
LINE
  5
815
330
1F
100
AcDbEntity
  8
2
  6
CONTINUOUS
370
25
 62
7
100
AcDbLine
 10
71.71703582410132
 20
-5.414820879493455
 30
0.0
 11
72.18864278393247
 21
-4.943213919662305
 31
0.0
  0
LINE
  5
816
330
1F
100
AcDbEntity
  8
2
  6
CONTINUOUS
370
25
 62
7
100
AcDbLine
 10
71.82310184127928
 20
-4.88449079360354
 30
0.0
 11
72.11793210581381
 21
-4.589660529069022
 31
0.0
  0
LINE
  5
817
330
1F
100
AcDbEntity
  8
2
  6
CONTINUOUS
370
25
 62
7
100
AcDbLine
 10
71.92916785845728
 20
-4.354160707713625
 30
0.0
 11
72.04722142769515
 21
-4.236107138475752
 31
0.0
  0
LINE
  5
818
330
1F
100
AcDbEntity
  8
2
  6
CONTINUOUS
370
25
 62
7
100
AcDbLine
 10
71.06089826094437
 20
-8.695508695278143
 30
0.0
 11
71.36538956566622
 21
-9.0
 31
0.0
  0
LINE
  5
819
330
1F
100
AcDbEntity
  8
2
  6
CONTINUOUS
370
25
 62
7
100
AcDbLine
 10
71.13160893906303
 20
-8.341955304684873
 30
0.0
 11
71.78965363437815
 21
-9.0
 31
0.0
  0
LINE
  5
81A
330
1F
100
AcDbEntity
  8
2
  6
CONTINUOUS
370
25
 62
7
100
AcDbLine
 10
71.20231961718167
 20
-7.98840191409159
 30
0.0
 11
72.21391770309009
 21
-9.0
 31
0.0
  0
LINE
  5
81B
330
1F
100
AcDbEntity
  8
2
  6
CONTINUOUS
370
25
 62
7
100
AcDbLine
 10
71.27303029530033
 20
-7.634848523498313
 30
0.0
 11
72.63818177180201
 21
-9.0
 31
0.0
  0
LINE
  5
81C
330
1F
100
AcDbEntity
  8
2
  6
CONTINUOUS
370
25
 62
7
100
AcDbLine
 10
71.34374097341899
 20
-7.281295132905043
 30
0.0
 11
72.98438853987152
 21
-8.921942699357565
 31
0.0
  0
LINE
  5
81D
330
1F
100
AcDbEntity
  8
2
  6
CONTINUOUS
370
25
 62
7
100
AcDbLine
 10
71.41445165153765
 20
-6.927741742311767
 30
0.0
 11
72.87832252269354
 21
-8.39161261346765
 31
0.0
  0
LINE
  5
81E
330
1F
100
AcDbEntity
  8
2
  6
CONTINUOUS
370
25
 62
7
100
AcDbLine
 10
71.4851623296563
 20
-6.57418835171849
 30
0.0
 11
72.77225650551554
 21
-7.861282527577735
 31
0.0
  0
LINE
  5
81F
330
1F
100
AcDbEntity
  8
2
  6
CONTINUOUS
370
25
 62
7
100
AcDbLine
 10
71.55587300777495
 20
-6.220634961125214
 30
0.0
 11
72.66619048833758
 21
-7.330952441687828
 31
0.0
  0
LINE
  5
820
330
1F
100
AcDbEntity
  8
2
  6
CONTINUOUS
370
25
 62
7
100
AcDbLine
 10
71.62658368589362
 20
-5.867081570531944
 30
0.0
 11
72.56012447115958
 21
-6.800622355797906
 31
0.0
  0
LINE
  5
821
330
1F
100
AcDbEntity
  8
2
  6
CONTINUOUS
370
25
 62
7
100
AcDbLine
 10
71.69729436401227
 20
-5.51352817993866
 30
0.0
 11
72.45405845398159
 21
-6.270292269907983
 31
0.0
  0
LINE
  5
822
330
1F
100
AcDbEntity
  8
2
  6
CONTINUOUS
370
25
 62
7
100
AcDbLine
 10
71.76800504213092
 20
-5.159974789345391
 30
0.0
 11
72.34799243680362
 21
-5.739962184018083
 31
0.0
  0
LINE
  5
823
330
1F
100
AcDbEntity
  8
2
  6
CONTINUOUS
370
25
 62
7
100
AcDbLine
 10
71.83871572024958
 20
-4.806421398752114
 30
0.0
 11
72.24192641962563
 21
-5.209632098128168
 31
0.0
  0
LINE
  5
824
330
1F
100
AcDbEntity
  8
2
  6
CONTINUOUS
370
25
 62
7
100
AcDbLine
 10
71.90942639836823
 20
-4.452868008158838
 30
0.0
 11
72.13586040244765
 21
-4.679302012238253
 31
0.0
  0
LINE
  5
825
330
1F
100
AcDbEntity
  8
2
  6
CONTINUOUS
370
25
 62
7
100
AcDbLine
 10
71.9801370764869
 20
-4.099314617565561
 30
0.0
 11
72.02979438526967
 21
-4.148971926348338
 31
0.0
  0
LINE
  5
826
330
1F
100
AcDbEntity
  8
2
  6
CONTINUOUS
370
25
 62
7
100
AcDbLine
 10
72.0
 20
3.999999999999998
 30
0.0
 11
71.0
 21
8.999999999999998
 31
0.0
  0
LINE
  5
827
330
1F
100
AcDbEntity
  8
2
  6
CONTINUOUS
370
25
 62
7
100
AcDbLine
 10
71.0
 20
8.999999999999998
 30
0.0
 11
73.0
 21
8.999999999999998
 31
0.0
  0
LINE
  5
828
330
1F
100
AcDbEntity
  8
2
  6
CONTINUOUS
370
25
 62
7
100
AcDbLine
 10
73.0
 20
8.999999999999998
 30
0.0
 11
72.0
 21
3.999999999999998
 31
0.0
  0
LINE
  5
829
330
1F
100
AcDbEntity
  8
2
  6
CONTINUOUS
370
25
 62
7
100
AcDbLine
 10
71.94635923056
 20
4.268203847200006
 30
0.0
 11
72.08046115416
 21
4.402305770800012
 31
0.0
  0
LINE
  5
82A
330
1F
100
AcDbEntity
  8
2
  6
CONTINUOUS
370
25
 62
7
100
AcDbLine
 10
71.87564855244133
 20
4.621757237793283
 30
0.0
 11
72.18652717133799
 21
4.932635856689927
 31
0.0
  0
LINE
  5
82B
330
1F
100
AcDbEntity
  8
2
  6
CONTINUOUS
370
25
 62
7
100
AcDbLine
 10
71.80493787432269
 20
4.975310628386559
 30
0.0
 11
72.29259318851598
 21
5.462965942579849
 31
0.0
  0
LINE
  5
82C
330
1F
100
AcDbEntity
  8
2
  6
CONTINUOUS
370
25
 62
7
100
AcDbLine
 10
71.73422719620403
 20
5.328864018979836
 30
0.0
 11
72.39865920569395
 21
5.993296028469757
 31
0.0
  0
LINE
  5
82D
330
1F
100
AcDbEntity
  8
2
  6
CONTINUOUS
370
25
 62
7
100
AcDbLine
 10
71.66351651808537
 20
5.682417409573119
 30
0.0
 11
72.50472522287194
 21
6.523626114359672
 31
0.0
  0
LINE
  5
82E
330
1F
100
AcDbEntity
  8
2
  6
CONTINUOUS
370
25
 62
7
100
AcDbLine
 10
71.59280583996673
 20
6.035970800166396
 30
0.0
 11
72.6107912400499
 21
7.05395620024958
 31
0.0
  0
LINE
  5
82F
330
1F
100
AcDbEntity
  8
2
  6
CONTINUOUS
370
25
 62
7
100
AcDbLine
 10
71.52209516184807
 20
6.389524190759673
 30
0.0
 11
72.7168572572279
 21
7.584286286139502
 31
0.0
  0
LINE
  5
830
330
1F
100
AcDbEntity
  8
2
  6
CONTINUOUS
370
25
 62
7
100
AcDbLine
 10
71.45138448372941
 20
6.743077581352935
 30
0.0
 11
72.82292327440588
 21
8.114616372029403
 31
0.0
  0
LINE
  5
831
330
1F
100
AcDbEntity
  8
2
  6
CONTINUOUS
370
25
 62
7
100
AcDbLine
 10
71.38067380561075
 20
7.096630971946212
 30
0.0
 11
72.92898929158386
 21
8.644946457919325
 31
0.0
  0
LINE
  5
832
330
1F
100
AcDbEntity
  8
2
  6
CONTINUOUS
370
25
 62
7
100
AcDbLine
 10
71.3099631274921
 20
7.450184362539488
 30
0.0
 11
72.85977876495261
 21
9.0
 31
0.0
  0
LINE
  5
833
330
1F
100
AcDbEntity
  8
2
  6
CONTINUOUS
370
25
 62
7
100
AcDbLine
 10
71.23925244937345
 20
7.803737753132772
 30
0.0
 11
72.43551469624069
 21
9.0
 31
0.0
  0
LINE
  5
834
330
1F
100
AcDbEntity
  8
2
  6
CONTINUOUS
370
25
 62
7
100
AcDbLine
 10
71.1685417712548
 20
8.157291143726049
 30
0.0
 11
72.01125062752874
 21
9.0
 31
0.0
  0
LINE
  5
835
330
1F
100
AcDbEntity
  8
2
  6
CONTINUOUS
370
25
 62
7
100
AcDbLine
 10
71.09783109313614
 20
8.510844534319318
 30
0.0
 11
71.58698655881682
 21
9.0
 31
0.0
  0
LINE
  5
836
330
1F
100
AcDbEntity
  8
2
  6
CONTINUOUS
370
25
 62
7
100
AcDbLine
 10
71.02712041501748
 20
8.864397924912595
 30
0.0
 11
71.16272249010488
 21
9.0
 31
0.0
  0
LINE
  5
837
330
1F
100
AcDbEntity
  8
2
  6
CONTINUOUS
370
25
 62
7
100
AcDbLine
 10
71.90847404171004
 20
4.45762979144979
 30
0.0
 11
72.06101730552663
 21
4.305086527633193
 31
0.0
  0
LINE
  5
838
330
1F
100
AcDbEntity
  8
2
  6
CONTINUOUS
370
25
 62
7
100
AcDbLine
 10
71.80240802453207
 20
4.987959877339705
 30
0.0
 11
72.13172798364529
 21
4.658639918226477
 31
0.0
  0
LINE
  5
839
330
1F
100
AcDbEntity
  8
2
  6
CONTINUOUS
370
25
 62
7
100
AcDbLine
 10
71.69634200735408
 20
5.518289963229627
 30
0.0
 11
72.20243866176395
 21
5.012193308819747
 31
0.0
  0
LINE
  5
83A
330
1F
100
AcDbEntity
  8
2
  6
CONTINUOUS
370
25
 62
7
100
AcDbLine
 10
71.5902759901761
 20
6.048620049119535
 30
0.0
 11
72.2731493398826
 21
5.36574669941303
 31
0.0
  0
LINE
  5
83B
330
1F
100
AcDbEntity
  8
2
  6
CONTINUOUS
370
25
 62
7
100
AcDbLine
 10
71.48420997299812
 20
6.578950135009435
 30
0.0
 11
72.34386001800127
 21
5.719300090006286
 31
0.0
  0
LINE
  5
83C
330
1F
100
AcDbEntity
  8
2
  6
CONTINUOUS
370
25
 62
7
100
AcDbLine
 10
71.37814395582012
 20
7.109280220899358
 30
0.0
 11
72.41457069611991
 21
6.072853480599569
 31
0.0
  0
LINE
  5
83D
330
1F
100
AcDbEntity
  8
2
  6
CONTINUOUS
370
25
 62
7
100
AcDbLine
 10
71.27207793864216
 20
7.63961030678928
 30
0.0
 11
72.48528137423857
 21
6.42640687119286
 31
0.0
  0
LINE
  5
83E
330
1F
100
AcDbEntity
  8
2
  6
CONTINUOUS
370
25
 62
7
100
AcDbLine
 10
71.16601192146416
 20
8.169940392679187
 30
0.0
 11
72.55599205235723
 21
6.77996026178613
 31
0.0
  0
LINE
  5
83F
330
1F
100
AcDbEntity
  8
2
  6
CONTINUOUS
370
25
 62
7
100
AcDbLine
 10
71.0599459042862
 20
8.700270478569095
 30
0.0
 11
72.62670273047587
 21
7.133513652379406
 31
0.0
  0
LINE
  5
840
330
1F
100
AcDbEntity
  8
2
  6
CONTINUOUS
370
25
 62
7
100
AcDbLine
 10
71.18448045156723
 20
9.0
 30
0.0
 11
72.69741340859454
 21
7.487067042972676
 31
0.0
  0
LINE
  5
841
330
1F
100
AcDbEntity
  8
2
  6
CONTINUOUS
370
25
 62
7
100
AcDbLine
 10
71.60874452027915
 20
9.0
 30
0.0
 11
72.76812408671319
 21
7.84062043356596
 31
0.0
  0
LINE
  5
842
330
1F
100
AcDbEntity
  8
2
  6
CONTINUOUS
370
25
 62
7
100
AcDbLine
 10
72.03300858899107
 20
9.0
 30
0.0
 11
72.83883476483186
 21
8.194173824159222
 31
0.0
  0
LINE
  5
843
330
1F
100
AcDbEntity
  8
2
  6
CONTINUOUS
370
25
 62
7
100
AcDbLine
 10
72.457272657703
 20
9.0
 30
0.0
 11
72.9095454429505
 21
8.547727214752491
 31
0.0
  0
LINE
  5
844
330
1F
100
AcDbEntity
  8
2
  6
CONTINUOUS
370
25
 62
7
100
AcDbLine
 10
72.88153672641494
 20
9.0
 30
0.0
 11
72.98025612106916
 21
8.901280605345775
 31
0.0
  0
TEXT
  5
845
330
1F
100
AcDbEntity
  8
2
  6
CONTINUOUS
370
25
 62
7
100
AcDbText
 10
70.5
 20
1.108333333333333
 30
0.0
 40
3.5
  1
8
 50
90.0
 72
     1
 11
70.5
 21
2.275
 31
0.0
100
AcDbText
  0
CIRCLE
  5
846
330
1F
100
AcDbEntity
  8
2
  6
CONTINUOUS
370
25
 62
7
100
AcDbCircle
 10
68.75
 20
-1.05
 30
0.0
 40
1.4
  0
LINE
  5
847
330
1F
100
AcDbEntity
  8
2
  6
CONTINUOUS
370
25
 62
7
100
AcDbLine
 10
70.15
 20
-2.45
 30
0.0
 11
67.35
 21
0.3500000000000005
 31
0.0
  0
LINE
  5
848
330
1F
100
AcDbEntity
  8
2
  6
CONTINUOUS
370
25
 62
7
100
AcDbLine
 10
56.5
 20
-3.59995
 30
0.0
 11
41.25
 21
-3.599949999999998
 31
0.0
  0
LINE
  5
849
330
1F
100
AcDbEntity
  8
2
  6
CONTINUOUS
370
25
 62
7
100
AcDbLine
 10
41.25
 20
3.599950000000002
 30
0.0
 11
56.5
 21
3.59995
 31
0.0
  0
LINE
  5
84A
330
1F
100
AcDbEntity
  8
2
  6
CONTINUOUS
370
25
 62
7
100
AcDbLine
 10
42.25
 20
-10.59995
 30
0.0
 11
42.25
 21
23.02495
 31
0.0
  0
LINE
  5
84B
330
1F
100
AcDbEntity
  8
2
  6
CONTINUOUS
370
25
 62
7
100
AcDbLine
 10
42.25
 20
-3.599949999999998
 30
0.0
 11
43.25
 21
-8.599949999999998
 31
0.0
  0
LINE
  5
84C
330
1F
100
AcDbEntity
  8
2
  6
CONTINUOUS
370
25
 62
7
100
AcDbLine
 10
43.25
 20
-8.599949999999998
 30
0.0
 11
41.25
 21
-8.599949999999998
 31
0.0
  0
LINE
  5
84D
330
1F
100
AcDbEntity
  8
2
  6
CONTINUOUS
370
25
 62
7
100
AcDbLine
 10
41.25
 20
-8.599949999999998
 30
0.0
 11
42.25
 21
-3.599949999999998
 31
0.0
  0
LINE
  5
84E
330
1F
100
AcDbEntity
  8
2
  6
CONTINUOUS
370
25
 62
7
100
AcDbLine
 10
43.02146033797291
 20
-8.599949999999998
 30
0.0
 11
43.21191005632882
 21
-8.409500281644089
 31
0.0
  0
LINE
  5
84F
330
1F
100
AcDbEntity
  8
2
  6
CONTINUOUS
370
25
 62
7
100
AcDbLine
 10
42.59719626926098
 20
-8.599949999999998
 30
0.0
 11
43.14119937821017
 21
-8.055946891050814
 31
0.0
  0
LINE
  5
850
330
1F
100
AcDbEntity
  8
2
  6
CONTINUOUS
370
25
 62
7
100
AcDbLine
 10
42.17293220054906
 20
-8.599949999999998
 30
0.0
 11
43.07048870009151
 21
-7.702393500457545
 31
0.0
  0
LINE
  5
851
330
1F
100
AcDbEntity
  8
2
  6
CONTINUOUS
370
25
 62
7
100
AcDbLine
 10
41.74866813183714
 20
-8.599949999999998
 30
0.0
 11
42.99977802197286
 21
-7.34884010986427
 31
0.0
  0
LINE
  5
852
330
1F
100
AcDbEntity
  8
2
  6
CONTINUOUS
370
25
 62
7
100
AcDbLine
 10
41.3244040631252
 20
-8.599949999999998
 30
0.0
 11
42.9290673438542
 21
-6.995286719270998
 31
0.0
  0
LINE
  5
853
330
1F
100
AcDbEntity
  8
2
  6
CONTINUOUS
370
25
 62
7
100
AcDbLine
 10
41.33746500139668
 20
-8.162624993016594
 30
0.0
 11
42.85835666573555
 21
-6.641733328677725
 31
0.0
  0
LINE
  5
854
330
1F
100
AcDbEntity
  8
2
  6
CONTINUOUS
370
25
 62
7
100
AcDbLine
 10
41.44353101857466
 20
-7.632294907126681
 30
0.0
 11
42.78764598761689
 21
-6.288179938084449
 31
0.0
  0
LINE
  5
855
330
1F
100
AcDbEntity
  8
2
  6
CONTINUOUS
370
25
 62
7
100
AcDbLine
 10
41.54959703575265
 20
-7.10196482123677
 30
0.0
 11
42.71693530949824
 21
-5.934626547491176
 31
0.0
  0
LINE
  5
856
330
1F
100
AcDbEntity
  8
2
  6
CONTINUOUS
370
25
 62
7
100
AcDbLine
 10
41.65566305293063
 20
-6.57163473534686
 30
0.0
 11
42.64622463137958
 21
-5.581073156897906
 31
0.0
  0
LINE
  5
857
330
1F
100
AcDbEntity
  8
2
  6
CONTINUOUS
370
25
 62
7
100
AcDbLine
 10
41.76172907010861
 20
-6.041304649456951
 30
0.0
 11
42.57551395326092
 21
-5.227519766304635
 31
0.0
  0
LINE
  5
858
330
1F
100
AcDbEntity
  8
2
  6
CONTINUOUS
370
25
 62
7
100
AcDbLine
 10
41.86779508728659
 20
-5.510974563567041
 30
0.0
 11
42.50480327514227
 21
-4.87396637571136
 31
0.0
  0
LINE
  5
859
330
1F
100
AcDbEntity
  8
2
  6
CONTINUOUS
370
25
 62
7
100
AcDbLine
 10
41.97386110446458
 20
-4.980644477677131
 30
0.0
 11
42.43409259702362
 21
-4.520412985118085
 31
0.0
  0
LINE
  5
85A
330
1F
100
AcDbEntity
  8
2
  6
CONTINUOUS
370
25
 62
7
100
AcDbLine
 10
42.07992712164256
 20
-4.450314391787222
 30
0.0
 11
42.36338191890496
 21
-4.166859594524814
 31
0.0
  0
LINE
  5
85B
330
1F
100
AcDbEntity
  8
2
  6
CONTINUOUS
370
25
 62
7
100
AcDbLine
 10
42.18599313882054
 20
-3.919984305897312
 30
0.0
 11
42.29267124078631
 21
-3.813306203931543
 31
0.0
  0
LINE
  5
85C
330
1F
100
AcDbEntity
  8
2
  6
CONTINUOUS
370
25
 62
7
100
AcDbLine
 10
41.25280912597187
 20
-8.585904370140636
 30
0.0
 11
41.26685475583123
 21
-8.599949999999998
 31
0.0
  0
LINE
  5
85D
330
1F
100
AcDbEntity
  8
2
  6
CONTINUOUS
370
25
 62
7
100
AcDbLine
 10
41.32351980409052
 20
-8.232350979547363
 30
0.0
 11
41.69111882454316
 21
-8.599949999999998
 31
0.0
  0
LINE
  5
85E
330
1F
100
AcDbEntity
  8
2
  6
CONTINUOUS
370
25
 62
7
100
AcDbLine
 10
41.39423048220918
 20
-7.87879758895409
 30
0.0
 11
42.11538289325509
 21
-8.599949999999998
 31
0.0
  0
LINE
  5
85F
330
1F
100
AcDbEntity
  8
2
  6
CONTINUOUS
370
25
 62
7
100
AcDbLine
 10
41.46494116032783
 20
-7.525244198360814
 30
0.0
 11
42.53964696196702
 21
-8.599949999999996
 31
0.0
  0
LINE
  5
860
330
1F
100
AcDbEntity
  8
2
  6
CONTINUOUS
370
25
 62
7
100
AcDbLine
 10
41.53565183844649
 20
-7.17169080776754
 30
0.0
 11
42.96391103067894
 21
-8.599949999999998
 31
0.0
  0
LINE
  5
861
330
1F
100
AcDbEntity
  8
2
  6
CONTINUOUS
370
25
 62
7
100
AcDbLine
 10
41.60636251656514
 20
-6.818137417174267
 30
0.0
 11
43.21545622515228
 21
-8.427231125761407
 31
0.0
  0
LINE
  5
862
330
1F
100
AcDbEntity
  8
2
  6
CONTINUOUS
370
25
 62
7
100
AcDbLine
 10
41.6770731946838
 20
-6.464584026580996
 30
0.0
 11
43.1093902079743
 21
-7.896901039871498
 31
0.0
  0
LINE
  5
863
330
1F
100
AcDbEntity
  8
2
  6
CONTINUOUS
370
25
 62
7
100
AcDbLine
 10
41.74778387280245
 20
-6.11103063598772
 30
0.0
 11
43.00332419079632
 21
-7.366570953981587
 31
0.0
  0
LINE
  5
864
330
1F
100
AcDbEntity
  8
2
  6
CONTINUOUS
370
25
 62
7
100
AcDbLine
 10
41.81849455092111
 20
-5.757477245394448
 30
0.0
 11
42.89725817361834
 21
-6.836240868091675
 31
0.0
  0
LINE
  5
865
330
1F
100
AcDbEntity
  8
2
  6
CONTINUOUS
370
25
 62
7
100
AcDbLine
 10
41.88920522903976
 20
-5.403923854801173
 30
0.0
 11
42.79119215644036
 21
-6.305910782201767
 31
0.0
  0
LINE
  5
866
330
1F
100
AcDbEntity
  8
2
  6
CONTINUOUS
370
25
 62
7
100
AcDbLine
 10
41.95991590715842
 20
-5.050370464207901
 30
0.0
 11
42.68512613926237
 21
-5.775580696311856
 31
0.0
  0
LINE
  5
867
330
1F
100
AcDbEntity
  8
2
  6
CONTINUOUS
370
25
 62
7
100
AcDbLine
 10
42.03062658527707
 20
-4.696817073614627
 30
0.0
 11
42.57906012208439
 21
-5.245250610421946
 31
0.0
  0
LINE
  5
868
330
1F
100
AcDbEntity
  8
2
  6
CONTINUOUS
370
25
 62
7
100
AcDbLine
 10
42.10133726339573
 20
-4.343263683021355
 30
0.0
 11
42.47299410490641
 21
-4.714920524532037
 31
0.0
  0
LINE
  5
869
330
1F
100
AcDbEntity
  8
2
  6
CONTINUOUS
370
25
 62
7
100
AcDbLine
 10
42.17204794151439
 20
-3.989710292428084
 30
0.0
 11
42.36692808772843
 21
-4.184590438642127
 31
0.0
  0
LINE
  5
86A
330
1F
100
AcDbEntity
  8
2
  6
CONTINUOUS
370
25
 62
7
100
AcDbLine
 10
42.24275861963304
 20
-3.636156901834809
 30
0.0
 11
42.26086207055044
 21
-3.654260352752217
 31
0.0
  0
LINE
  5
86B
330
1F
100
AcDbEntity
  8
2
  6
CONTINUOUS
370
25
 62
7
100
AcDbLine
 10
42.25
 20
3.599950000000002
 30
0.0
 11
41.25
 21
8.599950000000002
 31
0.0
  0
LINE
  5
86C
330
1F
100
AcDbEntity
  8
2
  6
CONTINUOUS
370
25
 62
7
100
AcDbLine
 10
41.25
 20
8.599950000000002
 30
0.0
 11
43.25
 21
8.599950000000002
 31
0.0
  0
LINE
  5
86D
330
1F
100
AcDbEntity
  8
2
  6
CONTINUOUS
370
25
 62
7
100
AcDbLine
 10
43.25
 20
8.599950000000002
 30
0.0
 11
42.25
 21
3.599950000000002
 31
0.0
  0
LINE
  5
86E
330
1F
100
AcDbEntity
  8
2
  6
CONTINUOUS
370
25
 62
7
100
AcDbLine
 10
42.18373768741385
 20
3.931261562930791
 30
0.0
 11
42.34939346887924
 21
4.096917344396182
 31
0.0
  0
LINE
  5
86F
330
1F
100
AcDbEntity
  8
2
  6
CONTINUOUS
370
25
 62
7
100
AcDbLine
 10
42.11302700929519
 20
4.284814953524062
 30
0.0
 11
42.45545948605722
 21
4.627247430286094
 31
0.0
  0
LINE
  5
870
330
1F
100
AcDbEntity
  8
2
  6
CONTINUOUS
370
25
 62
7
100
AcDbLine
 10
42.04231633117654
 20
4.638368344117337
 30
0.0
 11
42.5615255032352
 21
5.157577516176001
 31
0.0
  0
LINE
  5
871
330
1F
100
AcDbEntity
  8
2
  6
CONTINUOUS
370
25
 62
7
100
AcDbLine
 10
41.97160565305788
 20
4.99192173471061
 30
0.0
 11
42.66759152041318
 21
5.687907602065915
 31
0.0
  0
LINE
  5
872
330
1F
100
AcDbEntity
  8
2
  6
CONTINUOUS
370
25
 62
7
100
AcDbLine
 10
41.90089497493923
 20
5.345475125303885
 30
0.0
 11
42.77365753759116
 21
6.218237687955824
 31
0.0
  0
LINE
  5
873
330
1F
100
AcDbEntity
  8
2
  6
CONTINUOUS
370
25
 62
7
100
AcDbLine
 10
41.83018429682057
 20
5.699028515897156
 30
0.0
 11
42.87972355476914
 21
6.748567773845734
 31
0.0
  0
LINE
  5
874
330
1F
100
AcDbEntity
  8
2
  6
CONTINUOUS
370
25
 62
7
100
AcDbLine
 10
41.75947361870191
 20
6.052581906490428
 30
0.0
 11
42.98578957194713
 21
7.278897859735644
 31
0.0
  0
LINE
  5
875
330
1F
100
AcDbEntity
  8
2
  6
CONTINUOUS
370
25
 62
7
100
AcDbLine
 10
41.68876294058326
 20
6.406135297083705
 30
0.0
 11
43.0918555891251
 21
7.809227945625548
 31
0.0
  0
LINE
  5
876
330
1F
100
AcDbEntity
  8
2
  6
CONTINUOUS
370
25
 62
7
100
AcDbLine
 10
41.6180522624646
 20
6.759688687676977
 30
0.0
 11
43.19792160630309
 21
8.33955803151546
 31
0.0
  0
LINE
  5
877
330
1F
100
AcDbEntity
  8
2
  6
CONTINUOUS
370
25
 62
7
100
AcDbLine
 10
41.54734158434595
 20
7.113242078270252
 30
0.0
 11
43.0340495060757
 21
8.599950000000002
 31
0.0
  0
LINE
  5
878
330
1F
100
AcDbEntity
  8
2
  6
CONTINUOUS
370
25
 62
7
100
AcDbLine
 10
41.4766309062273
 20
7.466795468863523
 30
0.0
 11
42.60978543736378
 21
8.599950000000002
 31
0.0
  0
LINE
  5
879
330
1F
100
AcDbEntity
  8
2
  6
CONTINUOUS
370
25
 62
7
100
AcDbLine
 10
41.40592022810864
 20
7.820348859456797
 30
0.0
 11
42.18552136865185
 21
8.599950000000003
 31
0.0
  0
LINE
  5
87A
330
1F
100
AcDbEntity
  8
2
  6
CONTINUOUS
370
25
 62
7
100
AcDbLine
 10
41.33520954998998
 20
8.17390225005007
 30
0.0
 11
41.76125729993992
 21
8.599950000000002
 31
0.0
  0
LINE
  5
87B
330
1F
100
AcDbEntity
  8
2
  6
CONTINUOUS
370
25
 62
7
100
AcDbLine
 10
41.26449887187133
 20
8.527455640643343
 30
0.0
 11
41.33699323122799
 21
8.599950000000003
 31
0.0
  0
LINE
  5
87C
330
1F
100
AcDbEntity
  8
2
  6
CONTINUOUS
370
25
 62
7
100
AcDbLine
 10
42.15164876134676
 20
4.091706193266162
 30
0.0
 11
42.31556749243549
 21
3.927787462177443
 31
0.0
  0
LINE
  5
87D
330
1F
100
AcDbEntity
  8
2
  6
CONTINUOUS
370
25
 62
7
100
AcDbLine
 10
42.04558274416878
 20
4.62203627915607
 30
0.0
 11
42.38627817055414
 21
4.281340852770716
 31
0.0
  0
LINE
  5
87E
330
1F
100
AcDbEntity
  8
2
  6
CONTINUOUS
370
25
 62
7
100
AcDbLine
 10
41.9395167269908
 20
5.15236636504598
 30
0.0
 11
42.45698884867279
 21
4.634894243363989
 31
0.0
  0
LINE
  5
87F
330
1F
100
AcDbEntity
  8
2
  6
CONTINUOUS
370
25
 62
7
100
AcDbLine
 10
41.83345070981282
 20
5.682696450935888
 30
0.0
 11
42.52769952679145
 21
4.988447633957263
 31
0.0
  0
LINE
  5
880
330
1F
100
AcDbEntity
  8
2
  6
CONTINUOUS
370
25
 62
7
100
AcDbLine
 10
41.72738469263484
 20
6.213026536825797
 30
0.0
 11
42.5984102049101
 21
5.342001024550537
 31
0.0
  0
LINE
  5
881
330
1F
100
AcDbEntity
  8
2
  6
CONTINUOUS
370
25
 62
7
100
AcDbLine
 10
41.62131867545686
 20
6.743356622715707
 30
0.0
 11
42.66912088302876
 21
5.695554415143809
 31
0.0
  0
LINE
  5
882
330
1F
100
AcDbEntity
  8
2
  6
CONTINUOUS
370
25
 62
7
100
AcDbLine
 10
41.51525265827888
 20
7.273686708605617
 30
0.0
 11
42.73983156114741
 21
6.049107805737082
 31
0.0
  0
LINE
  5
883
330
1F
100
AcDbEntity
  8
2
  6
CONTINUOUS
370
25
 62
7
100
AcDbLine
 10
41.4091866411009
 20
7.804016794495524
 30
0.0
 11
42.81054223926607
 21
6.402661196330355
 31
0.0
  0
LINE
  5
884
330
1F
100
AcDbEntity
  8
2
  6
CONTINUOUS
370
25
 62
7
100
AcDbLine
 10
41.30312062392291
 20
8.334346880385436
 30
0.0
 11
42.88125291738472
 21
6.756214586923631
 31
0.0
  0
LINE
  5
885
330
1F
100
AcDbEntity
  8
2
  6
CONTINUOUS
370
25
 62
7
100
AcDbLine
 10
41.46178157302028
 20
8.599950000000002
 30
0.0
 11
42.95196359550338
 21
7.109767977516903
 31
0.0
  0
LINE
  5
886
330
1F
100
AcDbEntity
  8
2
  6
CONTINUOUS
370
25
 62
7
100
AcDbLine
 10
41.88604564173221
 20
8.599950000000002
 30
0.0
 11
43.02267427362204
 21
7.463321368110174
 31
0.0
  0
LINE
  5
887
330
1F
100
AcDbEntity
  8
2
  6
CONTINUOUS
370
25
 62
7
100
AcDbLine
 10
42.31030971044413
 20
8.599950000000002
 30
0.0
 11
43.09338495174069
 21
7.816874758703445
 31
0.0
  0
LINE
  5
888
330
1F
100
AcDbEntity
  8
2
  6
CONTINUOUS
370
25
 62
7
100
AcDbLine
 10
42.73457377915606
 20
8.599950000000002
 30
0.0
 11
43.16409562985934
 21
8.17042814929672
 31
0.0
  0
LINE
  5
889
330
1F
100
AcDbEntity
  8
2
  6
CONTINUOUS
370
25
 62
7
100
AcDbLine
 10
43.15883784786799
 20
8.599950000000002
 30
0.0
 11
43.234806307978
 21
8.523981539889993
 31
0.0
  0
TEXT
  5
88A
330
1F
100
AcDbEntity
  8
2
  6
CONTINUOUS
370
25
 62
7
100
AcDbText
 10
40.75
 20
14.58745
 30
0.0
 40
3.5
  1
7.2
 50
90.00000000000001
 72
     1
 11
40.75
 21
18.08745
 31
0.0
100
AcDbText
  0
CIRCLE
  5
88B
330
1F
100
AcDbEntity
  8
2
  6
CONTINUOUS
370
25
 62
7
100
AcDbCircle
 10
39.0
 20
11.61245
 30
0.0
 40
1.4
  0
LINE
  5
88C
330
1F
100
AcDbEntity
  8
2
  6
CONTINUOUS
370
25
 62
7
100
AcDbLine
 10
40.40000000000001
 20
10.21245
 30
0.0
 11
37.6
 21
13.01245
 31
0.0
  0
LINE
  5
88D
330
1F
100
AcDbEntity
  8
2
  6
CONTINUOUS
370
25
 62
7
100
AcDbLine
 10
56.5
 20
-4.0
 30
0.0
 11
56.5
 21
-17.0
 31
0.0
  0
LINE
  5
88E
330
1F
100
AcDbEntity
  8
2
  6
CONTINUOUS
370
25
 62
7
100
AcDbLine
 10
60.0
 20
-17.0
 30
0.0
 11
60.0
 21
-2.0
 31
0.0
  0
LINE
  5
88F
330
1F
100
AcDbEntity
  8
2
  6
CONTINUOUS
370
25
 62
7
100
AcDbLine
 10
49.5
 20
-16.0
 30
0.0
 11
75.925
 21
-16.0
 31
0.0
  0
LINE
  5
890
330
1F
100
AcDbEntity
  8
2
  6
CONTINUOUS
370
25
 62
7
100
AcDbLine
 10
56.5
 20
-16.0
 30
0.0
 11
51.5
 21
-17.0
 31
0.0
  0
LINE
  5
891
330
1F
100
AcDbEntity
  8
2
  6
CONTINUOUS
370
25
 62
7
100
AcDbLine
 10
51.5
 20
-17.0
 30
0.0
 11
51.5
 21
-15.0
 31
0.0
  0
LINE
  5
892
330
1F
100
AcDbEntity
  8
2
  6
CONTINUOUS
370
25
 62
7
100
AcDbLine
 10
51.5
 20
-15.0
 30
0.0
 11
56.5
 21
-16.0
 31
0.0
  0
LINE
  5
893
330
1F
100
AcDbEntity
  8
2
  6
CONTINUOUS
370
25
 62
7
100
AcDbLine
 10
56.41939337030085
 20
-16.01612132593983
 30
0.0
 11
56.44626224686724
 21
-15.98925244937344
 31
0.0
  0
LINE
  5
894
330
1F
100
AcDbEntity
  8
2
  6
CONTINUOUS
370
25
 62
7
100
AcDbLine
 10
55.88906328441094
 20
-16.12218734311781
 30
0.0
 11
56.09270885627396
 21
-15.91854177125479
 31
0.0
  0
LINE
  5
895
330
1F
100
AcDbEntity
  8
2
  6
CONTINUOUS
370
25
 62
7
100
AcDbLine
 10
55.35873319852104
 20
-16.22825336029579
 30
0.0
 11
55.7391554656807
 21
-15.84783109313613
 31
0.0
  0
LINE
  5
896
330
1F
100
AcDbEntity
  8
2
  6
CONTINUOUS
370
25
 62
7
100
AcDbLine
 10
54.82840311263112
 20
-16.33431937747378
 30
0.0
 11
55.38560207508742
 21
-15.77712041501748
 31
0.0
  0
LINE
  5
897
330
1F
100
AcDbEntity
  8
2
  6
CONTINUOUS
370
25
 62
7
100
AcDbLine
 10
54.29807302674122
 20
-16.44038539465176
 30
0.0
 11
55.03204868449415
 21
-15.70640973689883
 31
0.0
  0
LINE
  5
898
330
1F
100
AcDbEntity
  8
2
  6
CONTINUOUS
370
25
 62
7
100
AcDbLine
 10
53.76774294085131
 20
-16.54645141182974
 30
0.0
 11
54.67849529390087
 21
-15.63569905878017
 31
0.0
  0
LINE
  5
899
330
1F
100
AcDbEntity
  8
2
  6
CONTINUOUS
370
25
 62
7
100
AcDbLine
 10
53.23741285496141
 20
-16.65251742900772
 30
0.0
 11
54.3249419033076
 21
-15.56498838066152
 31
0.0
  0
LINE
  5
89A
330
1F
100
AcDbEntity
  8
2
  6
CONTINUOUS
370
25
 62
7
100
AcDbLine
 10
52.70708276907148
 20
-16.7585834461857
 30
0.0
 11
53.97138851271433
 21
-15.49427770254286
 31
0.0
  0
LINE
  5
89B
330
1F
100
AcDbEntity
  8
2
  6
CONTINUOUS
370
25
 62
7
100
AcDbLine
 10
52.17675268318158
 20
-16.86464946336368
 30
0.0
 11
53.61783512212105
 21
-15.42356702442421
 31
0.0
  0
LINE
  5
89C
330
1F
100
AcDbEntity
  8
2
  6
CONTINUOUS
370
25
 62
7
100
AcDbLine
 10
51.64642259729167
 20
-16.97071548054167
 30
0.0
 11
53.26428173152777
 21
-15.35285634630555
 31
0.0
  0
LINE
  5
89D
330
1F
100
AcDbEntity
  8
2
  6
CONTINUOUS
370
25
 62
7
100
AcDbLine
 10
51.5
 20
-16.69287400912141
 30
0.0
 11
52.9107283409345
 21
-15.2821456681869
 31
0.0
  0
LINE
  5
89E
330
1F
100
AcDbEntity
  8
2
  6
CONTINUOUS
370
25
 62
7
100
AcDbLine
 10
51.5
 20
-16.26860994040948
 30
0.0
 11
52.55717495034123
 21
-15.21143499006824
 31
0.0
  0
LINE
  5
89F
330
1F
100
AcDbEntity
  8
2
  6
CONTINUOUS
370
25
 62
7
100
AcDbLine
 10
51.5
 20
-15.84434587169755
 30
0.0
 11
52.20362155974796
 21
-15.14072431194959
 31
0.0
  0
LINE
  5
8A0
330
1F
100
AcDbEntity
  8
2
  6
CONTINUOUS
370
25
 62
7
100
AcDbLine
 10
51.5
 20
-15.42008180298562
 30
0.0
 11
51.85006816915468
 21
-15.07001363383094
 31
0.0
  0
LINE
  5
8A1
330
1F
100
AcDbEntity
  8
2
  6
CONTINUOUS
370
25
 62
7
100
AcDbLine
 10
51.5
 20
-16.71177490060904
 30
0.0
 11
51.7401875828258
 21
-16.95196248343484
 31
0.0
  0
LINE
  5
8A2
330
1F
100
AcDbEntity
  8
2
  6
CONTINUOUS
370
25
 62
7
100
AcDbLine
 10
51.5
 20
-16.28751083189712
 30
0.0
 11
52.09374097341907
 21
-16.88125180531618
 31
0.0
  0
LINE
  5
8A3
330
1F
100
AcDbEntity
  8
2
  6
CONTINUOUS
370
25
 62
7
100
AcDbLine
 10
51.5
 20
-15.86324676318519
 30
0.0
 11
52.44729436401234
 21
-16.81054112719753
 31
0.0
  0
LINE
  5
8A4
330
1F
100
AcDbEntity
  8
2
  6
CONTINUOUS
370
25
 62
7
100
AcDbLine
 10
51.5
 20
-15.43898269447326
 30
0.0
 11
52.80084775460561
 21
-16.73983044907888
 31
0.0
  0
LINE
  5
8A5
330
1F
100
AcDbEntity
  8
2
  6
CONTINUOUS
370
25
 62
7
100
AcDbLine
 10
51.5
 20
-15.01471862576133
 30
0.0
 11
53.15440114519889
 21
-16.66911977096022
 31
0.0
  0
LINE
  5
8A6
330
1F
100
AcDbEntity
  8
2
  6
CONTINUOUS
370
25
 62
7
100
AcDbLine
 10
52.01193180368824
 20
-15.10238636073765
 30
0.0
 11
53.50795453579217
 21
-16.59840909284157
 31
0.0
  0
LINE
  5
8A7
330
1F
100
AcDbEntity
  8
2
  6
CONTINUOUS
370
25
 62
7
100
AcDbLine
 10
52.54226188957816
 20
-15.20845237791563
 30
0.0
 11
53.86150792638544
 21
-16.52769841472291
 31
0.0
  0
LINE
  5
8A8
330
1F
100
AcDbEntity
  8
2
  6
CONTINUOUS
370
25
 62
7
100
AcDbLine
 10
53.07259197546806
 20
-15.31451839509362
 30
0.0
 11
54.21506131697871
 21
-16.45698773660426
 31
0.0
  0
LINE
  5
8A9
330
1F
100
AcDbEntity
  8
2
  6
CONTINUOUS
370
25
 62
7
100
AcDbLine
 10
53.60292206135797
 20
-15.4205844122716
 30
0.0
 11
54.56861470757198
 21
-16.3862770584856
 31
0.0
  0
LINE
  5
8AA
330
1F
100
AcDbEntity
  8
2
  6
CONTINUOUS
370
25
 62
7
100
AcDbLine
 10
54.13325214724789
 20
-15.52665042944958
 30
0.0
 11
54.92216809816526
 21
-16.31556638036695
 31
0.0
  0
LINE
  5
8AB
330
1F
100
AcDbEntity
  8
2
  6
CONTINUOUS
370
25
 62
7
100
AcDbLine
 10
54.6635822331378
 20
-15.63271644662756
 30
0.0
 11
55.27572148875853
 21
-16.24485570224829
 31
0.0
  0
LINE
  5
8AC
330
1F
100
AcDbEntity
  8
2
  6
CONTINUOUS
370
25
 62
7
100
AcDbLine
 10
55.1939123190277
 20
-15.73878246380554
 30
0.0
 11
55.6292748793518
 21
-16.17414502412964
 31
0.0
  0
LINE
  5
8AD
330
1F
100
AcDbEntity
  8
2
  6
CONTINUOUS
370
25
 62
7
100
AcDbLine
 10
55.72424240491762
 20
-15.84484848098353
 30
0.0
 11
55.98282826994507
 21
-16.10343434601099
 31
0.0
  0
LINE
  5
8AE
330
1F
100
AcDbEntity
  8
2
  6
CONTINUOUS
370
25
 62
7
100
AcDbLine
 10
56.25457249080753
 20
-15.9509144981615
 30
0.0
 11
56.33638166053835
 21
-16.03272366789233
 31
0.0
  0
LINE
  5
8AF
330
1F
100
AcDbEntity
  8
2
  6
CONTINUOUS
370
25
 62
7
100
AcDbLine
 10
60.0
 20
-16.0
 30
0.0
 11
65.0
 21
-15.0
 31
0.0
  0
LINE
  5
8B0
330
1F
100
AcDbEntity
  8
2
  6
CONTINUOUS
370
25
 62
7
100
AcDbLine
 10
65.0
 20
-15.0
 30
0.0
 11
65.0
 21
-17.0
 31
0.0
  0
LINE
  5
8B1
330
1F
100
AcDbEntity
  8
2
  6
CONTINUOUS
370
25
 62
7
100
AcDbLine
 10
65.0
 20
-17.0
 30
0.0
 11
60.0
 21
-16.0
 31
0.0
  0
LINE
  5
8B2
330
1F
100
AcDbEntity
  8
2
  6
CONTINUOUS
370
25
 62
7
100
AcDbLine
 10
64.83230121618831
 20
-16.96646024323766
 30
0.0
 11
65.0
 21
-16.79876145942596
 31
0.0
  0
LINE
  5
8B3
330
1F
100
AcDbEntity
  8
2
  6
CONTINUOUS
370
25
 62
7
100
AcDbLine
 10
64.47874782559504
 20
-16.895749565119
 30
0.0
 11
65.0
 21
-16.37449739071404
 31
0.0
  0
LINE
  5
8B4
330
1F
100
AcDbEntity
  8
2
  6
CONTINUOUS
370
25
 62
7
100
AcDbLine
 10
64.12519443500176
 20
-16.82503888700035
 30
0.0
 11
65.0
 21
-15.95023332200211
 31
0.0
  0
LINE
  5
8B5
330
1F
100
AcDbEntity
  8
2
  6
CONTINUOUS
370
25
 62
7
100
AcDbLine
 10
63.77164104440848
 20
-16.7543282088817
 30
0.0
 11
65.0
 21
-15.52596925329017
 31
0.0
  0
LINE
  5
8B6
330
1F
100
AcDbEntity
  8
2
  6
CONTINUOUS
370
25
 62
7
100
AcDbLine
 10
63.41808765381521
 20
-16.68361753076304
 30
0.0
 11
65.0
 21
-15.10170518457824
 31
0.0
  0
LINE
  5
8B7
330
1F
100
AcDbEntity
  8
2
  6
CONTINUOUS
370
25
 62
7
100
AcDbLine
 10
63.06453426322194
 20
-16.61290685264439
 30
0.0
 11
64.5968013948329
 21
-15.08063972103342
 31
0.0
  0
LINE
  5
8B8
330
1F
100
AcDbEntity
  8
2
  6
CONTINUOUS
370
25
 62
7
100
AcDbLine
 10
62.71098087262865
 20
-16.54219617452573
 30
0.0
 11
64.06647130894297
 21
-15.18670573821141
 31
0.0
  0
LINE
  5
8B9
330
1F
100
AcDbEntity
  8
2
  6
CONTINUOUS
370
25
 62
7
100
AcDbLine
 10
62.35742748203538
 20
-16.47148549640708
 30
0.0
 11
63.53614122305306
 21
-15.29277175538939
 31
0.0
  0
LINE
  5
8BA
330
1F
100
AcDbEntity
  8
2
  6
CONTINUOUS
370
25
 62
7
100
AcDbLine
 10
62.00387409144211
 20
-16.40077481828843
 30
0.0
 11
63.00581113716316
 21
-15.39883777256737
 31
0.0
  0
LINE
  5
8BB
330
1F
100
AcDbEntity
  8
2
  6
CONTINUOUS
370
25
 62
7
100
AcDbLine
 10
61.65032070084884
 20
-16.33006414016977
 30
0.0
 11
62.47548105127325
 21
-15.50490378974535
 31
0.0
  0
LINE
  5
8BC
330
1F
100
AcDbEntity
  8
2
  6
CONTINUOUS
370
25
 62
7
100
AcDbLine
 10
61.29676731025556
 20
-16.25935346205111
 30
0.0
 11
61.94515096538333
 21
-15.61096980692334
 31
0.0
  0
LINE
  5
8BD
330
1F
100
AcDbEntity
  8
2
  6
CONTINUOUS
370
25
 62
7
100
AcDbLine
 10
60.94321391966228
 20
-16.18864278393246
 30
0.0
 11
61.41482087949343
 21
-15.71703582410132
 31
0.0
  0
LINE
  5
8BE
330
1F
100
AcDbEntity
  8
2
  6
CONTINUOUS
370
25
 62
7
100
AcDbLine
 10
60.58966052906901
 20
-16.11793210581381
 30
0.0
 11
60.88449079360352
 21
-15.8231018412793
 31
0.0
  0
LINE
  5
8BF
330
1F
100
AcDbEntity
  8
2
  6
CONTINUOUS
370
25
 62
7
100
AcDbLine
 10
60.23610713847575
 20
-16.04722142769515
 30
0.0
 11
60.35416070771362
 21
-15.92916785845728
 31
0.0
  0
LINE
  5
8C0
330
1F
100
AcDbEntity
  8
2
  6
CONTINUOUS
370
25
 62
7
100
AcDbLine
 10
60.10169550921107
 20
-15.97966089815778
 30
0.0
 11
60.15254326381661
 21
-16.03050865276332
 31
0.0
  0
LINE
  5
8C1
330
1F
100
AcDbEntity
  8
2
  6
CONTINUOUS
370
25
 62
7
100
AcDbLine
 10
60.45524889980435
 20
-15.90895022003913
 30
0.0
 11
60.68287334970652
 21
-16.1365746699413
 31
0.0
  0
LINE
  5
8C2
330
1F
100
AcDbEntity
  8
2
  6
CONTINUOUS
370
25
 62
7
100
AcDbLine
 10
60.80880229039762
 20
-15.83823954192047
 30
0.0
 11
61.21320343559643
 21
-16.24264068711928
 31
0.0
  0
LINE
  5
8C3
330
1F
100
AcDbEntity
  8
2
  6
CONTINUOUS
370
25
 62
7
100
AcDbLine
 10
61.1623556809909
 20
-15.76752886380182
 30
0.0
 11
61.74353352148636
 21
-16.34870670429727
 31
0.0
  0
LINE
  5
8C4
330
1F
100
AcDbEntity
  8
2
  6
CONTINUOUS
370
25
 62
7
100
AcDbLine
 10
61.51590907158417
 20
-15.69681818568316
 30
0.0
 11
62.27386360737627
 21
-16.45477272147526
 31
0.0
  0
LINE
  5
8C5
330
1F
100
AcDbEntity
  8
2
  6
CONTINUOUS
370
25
 62
7
100
AcDbLine
 10
61.86946246217745
 20
-15.62610750756451
 30
0.0
 11
62.80419369326618
 21
-16.56083873865324
 31
0.0
  0
LINE
  5
8C6
330
1F
100
AcDbEntity
  8
2
  6
CONTINUOUS
370
25
 62
7
100
AcDbLine
 10
62.22301585277072
 20
-15.55539682944585
 30
0.0
 11
63.33452377915609
 21
-16.66690475583122
 31
0.0
  0
LINE
  5
8C7
330
1F
100
AcDbEntity
  8
2
  6
CONTINUOUS
370
25
 62
7
100
AcDbLine
 10
62.57656924336399
 20
-15.4846861513272
 30
0.0
 11
63.86485386504601
 21
-16.77297077300921
 31
0.0
  0
LINE
  5
8C8
330
1F
100
AcDbEntity
  8
2
  6
CONTINUOUS
370
25
 62
7
100
AcDbLine
 10
62.93012263395727
 20
-15.41397547320854
 30
0.0
 11
64.39518395093592
 21
-16.87903679018719
 31
0.0
  0
LINE
  5
8C9
330
1F
100
AcDbEntity
  8
2
  6
CONTINUOUS
370
25
 62
7
100
AcDbLine
 10
63.28367602455055
 20
-15.34326479508989
 30
0.0
 11
64.92551403682583
 21
-16.98510280736517
 31
0.0
  0
LINE
  5
8CA
330
1F
100
AcDbEntity
  8
2
  6
CONTINUOUS
370
25
 62
7
100
AcDbLine
 10
63.63722941514383
 20
-15.27255411697124
 30
0.0
 11
65.0
 21
-16.6353247018274
 31
0.0
  0
LINE
  5
8CB
330
1F
100
AcDbEntity
  8
2
  6
CONTINUOUS
370
25
 62
7
100
AcDbLine
 10
63.9907828057371
 20
-15.20184343885258
 30
0.0
 11
65.0
 21
-16.21106063311547
 31
0.0
  0
LINE
  5
8CC
330
1F
100
AcDbEntity
  8
2
  6
CONTINUOUS
370
25
 62
7
100
AcDbLine
 10
64.34433619633037
 20
-15.13113276073392
 30
0.0
 11
65.0
 21
-15.78679656440355
 31
0.0
  0
LINE
  5
8CD
330
1F
100
AcDbEntity
  8
2
  6
CONTINUOUS
370
25
 62
7
100
AcDbLine
 10
64.69788958692365
 20
-15.06042208261527
 30
0.0
 11
65.0
 21
-15.36253249569162
 31
0.0
  0
TEXT
  5
8CE
330
1F
100
AcDbEntity
  8
2
  6
CONTINUOUS
370
25
 62
7
100
AcDbText
 10
66.9625
 20
-14.5
 30
0.0
 40
3.5
  1
3.5
 72
     1
 11
70.4625
 21
-14.5
 31
0.0
100
AcDbText
  0
LINE
  5
8CF
330
1F
100
AcDbEntity
  8
2
  6
CONTINUOUS
370
25
 62
7
100
AcDbLine
 10
28.0
 20
0.0
 30
0.0
 11
28.0
 21
27.425
 31
0.0
  0
LINE
  5
8D0
330
1F
100
AcDbEntity
  8
2
  6
CONTINUOUS
370
25
 62
7
100
AcDbLine
 10
60.0
 20
27.425
 30
0.0
 11
60.0
 21
2.0
 31
0.0
  0
LINE
  5
8D1
330
1F
100
AcDbEntity
  8
2
  6
CONTINUOUS
370
25
 62
7
100
AcDbLine
 10
28.0
 20
26.425
 30
0.0
 11
60.0
 21
26.425
 31
0.0
  0
LINE
  5
8D2
330
1F
100
AcDbEntity
  8
2
  6
CONTINUOUS
370
25
 62
7
100
AcDbLine
 10
28.0
 20
26.425
 30
0.0
 11
33.0
 21
27.425
 31
0.0
  0
LINE
  5
8D3
330
1F
100
AcDbEntity
  8
2
  6
CONTINUOUS
370
25
 62
7
100
AcDbLine
 10
33.0
 20
27.425
 30
0.0
 11
33.0
 21
25.425
 31
0.0
  0
LINE
  5
8D4
330
1F
100
AcDbEntity
  8
2
  6
CONTINUOUS
370
25
 62
7
100
AcDbLine
 10
33.0
 20
25.425
 30
0.0
 11
28.0
 21
26.425
 31
0.0
  0
LINE
  5
8D5
330
1F
100
AcDbEntity
  8
2
  6
CONTINUOUS
370
25
 62
7
100
AcDbLine
 10
32.69671719426295
 20
25.48565656114741
 30
0.0
 11
33.0
 21
25.78893936688446
 31
0.0
  0
LINE
  5
8D6
330
1F
100
AcDbEntity
  8
2
  6
CONTINUOUS
370
25
 62
7
100
AcDbLine
 10
32.34316380366968
 20
25.55636723926607
 30
0.0
 11
33.0
 21
26.21320343559638
 31
0.0
  0
LINE
  5
8D7
330
1F
100
AcDbEntity
  8
2
  6
CONTINUOUS
370
25
 62
7
100
AcDbLine
 10
31.98961041307641
 20
25.62707791738472
 30
0.0
 11
33.0
 21
26.63746750430832
 31
0.0
  0
LINE
  5
8D8
330
1F
100
AcDbEntity
  8
2
  6
CONTINUOUS
370
25
 62
7
100
AcDbLine
 10
31.63605702248313
 20
25.69778859550338
 30
0.0
 11
33.0
 21
27.06173157302024
 31
0.0
  0
LINE
  5
8D9
330
1F
100
AcDbEntity
  8
2
  6
CONTINUOUS
370
25
 62
7
100
AcDbLine
 10
31.28250363188986
 20
25.76849927362203
 30
0.0
 11
32.92375544783479
 21
27.40975108956696
 31
0.0
  0
LINE
  5
8DA
330
1F
100
AcDbEntity
  8
2
  6
CONTINUOUS
370
25
 62
7
100
AcDbLine
 10
30.92895024129659
 20
25.83920995174068
 30
0.0
 11
32.39342536194488
 21
27.30368507238898
 31
0.0
  0
LINE
  5
8DB
330
1F
100
AcDbEntity
  8
2
  6
CONTINUOUS
370
25
 62
7
100
AcDbLine
 10
30.57539685070331
 20
25.90992062985934
 30
0.0
 11
31.86309527605497
 21
27.197619055211
 31
0.0
  0
LINE
  5
8DC
330
1F
100
AcDbEntity
  8
2
  6
CONTINUOUS
370
25
 62
7
100
AcDbLine
 10
30.22184346011004
 20
25.98063130797799
 30
0.0
 11
31.33276519016506
 21
27.09155303803301
 31
0.0
  0
LINE
  5
8DD
330
1F
100
AcDbEntity
  8
2
  6
CONTINUOUS
370
25
 62
7
100
AcDbLine
 10
29.86829006951677
 20
26.05134198609665
 30
0.0
 11
30.80243510427515
 21
26.98548702085503
 31
0.0
  0
LINE
  5
8DE
330
1F
100
AcDbEntity
  8
2
  6
CONTINUOUS
370
25
 62
7
100
AcDbLine
 10
29.51473667892349
 20
26.1220526642153
 30
0.0
 11
30.27210501838524
 21
26.87942100367705
 31
0.0
  0
LINE
  5
8DF
330
1F
100
AcDbEntity
  8
2
  6
CONTINUOUS
370
25
 62
7
100
AcDbLine
 10
29.16118328833022
 20
26.19276334233396
 30
0.0
 11
29.74177493249533
 21
26.77335498649907
 31
0.0
  0
LINE
  5
8E0
330
1F
100
AcDbEntity
  8
2
  6
CONTINUOUS
370
25
 62
7
100
AcDbLine
 10
28.80762989773695
 20
26.26347402045261
 30
0.0
 11
29.21144484660542
 21
26.66728896932108
 31
0.0
  0
LINE
  5
8E1
330
1F
100
AcDbEntity
  8
2
  6
CONTINUOUS
370
25
 62
7
100
AcDbLine
 10
28.45407650714368
 20
26.33418469857127
 30
0.0
 11
28.68111476071551
 21
26.5612229521431
 31
0.0
  0
LINE
  5
8E2
330
1F
100
AcDbEntity
  8
2
  6
CONTINUOUS
370
25
 62
7
100
AcDbLine
 10
28.1005231165504
 20
26.40489537668992
 30
0.0
 11
28.1507846748256
 21
26.45515693496512
 31
0.0
  0
LINE
  5
8E3
330
1F
100
AcDbEntity
  8
2
  6
CONTINUOUS
370
25
 62
7
100
AcDbLine
 10
28.25303027404288
 20
26.47560605480858
 30
0.0
 11
28.37954541106432
 21
26.34909091778714
 31
0.0
  0
LINE
  5
8E4
330
1F
100
AcDbEntity
  8
2
  6
CONTINUOUS
370
25
 62
7
100
AcDbLine
 10
28.60658366463615
 20
26.54631673292723
 30
0.0
 11
28.90987549695423
 21
26.24302490060915
 31
0.0
  0
LINE
  5
8E5
330
1F
100
AcDbEntity
  8
2
  6
CONTINUOUS
370
25
 62
7
100
AcDbLine
 10
28.96013705522943
 20
26.61702741104589
 30
0.0
 11
29.44020558284414
 21
26.13695888343117
 31
0.0
  0
LINE
  5
8E6
330
1F
100
AcDbEntity
  8
2
  6
CONTINUOUS
370
25
 62
7
100
AcDbLine
 10
29.3136904458227
 20
26.68773808916454
 30
0.0
 11
29.97053566873405
 21
26.03089286625319
 31
0.0
  0
LINE
  5
8E7
330
1F
100
AcDbEntity
  8
2
  6
CONTINUOUS
370
25
 62
7
100
AcDbLine
 10
29.66724383641597
 20
26.75844876728319
 30
0.0
 11
30.50086575462396
 21
25.92482684907521
 31
0.0
  0
LINE
  5
8E8
330
1F
100
AcDbEntity
  8
2
  6
CONTINUOUS
370
25
 62
7
100
AcDbLine
 10
30.02079722700925
 20
26.82915944540185
 30
0.0
 11
31.03119584051387
 21
25.81876083189723
 31
0.0
  0
LINE
  5
8E9
330
1F
100
AcDbEntity
  8
2
  6
CONTINUOUS
370
25
 62
7
100
AcDbLine
 10
30.37435061760252
 20
26.8998701235205
 30
0.0
 11
31.56152592640379
 21
25.71269481471924
 31
0.0
  0
LINE
  5
8EA
330
1F
100
AcDbEntity
  8
2
  6
CONTINUOUS
370
25
 62
7
100
AcDbLine
 10
30.72790400819579
 20
26.97058080163916
 30
0.0
 11
32.0918560122937
 21
25.60662879754126
 31
0.0
  0
LINE
  5
8EB
330
1F
100
AcDbEntity
  8
2
  6
CONTINUOUS
370
25
 62
7
100
AcDbLine
 10
31.08145739878907
 20
27.04129147975781
 30
0.0
 11
32.6221860981836
 21
25.50056278036328
 31
0.0
  0
LINE
  5
8EC
330
1F
100
AcDbEntity
  8
2
  6
CONTINUOUS
370
25
 62
7
100
AcDbLine
 10
31.43501078938234
 20
27.11200215787647
 30
0.0
 11
33.0
 21
25.54701294725881
 31
0.0
  0
LINE
  5
8ED
330
1F
100
AcDbEntity
  8
2
  6
CONTINUOUS
370
25
 62
7
100
AcDbLine
 10
31.78856417997562
 20
27.18271283599513
 30
0.0
 11
33.0
 21
25.97127701597074
 31
0.0
  0
LINE
  5
8EE
330
1F
100
AcDbEntity
  8
2
  6
CONTINUOUS
370
25
 62
7
100
AcDbLine
 10
32.14211757056889
 20
27.25342351411378
 30
0.0
 11
33.0
 21
26.39554108468267
 31
0.0
  0
LINE
  5
8EF
330
1F
100
AcDbEntity
  8
2
  6
CONTINUOUS
370
25
 62
7
100
AcDbLine
 10
32.49567096116217
 20
27.32413419223244
 30
0.0
 11
33.0
 21
26.8198051533946
 31
0.0
  0
LINE
  5
8F0
330
1F
100
AcDbEntity
  8
2
  6
CONTINUOUS
370
25
 62
7
100
AcDbLine
 10
32.84922435175544
 20
27.39484487035109
 30
0.0
 11
33.0
 21
27.24406922210653
 31
0.0
  0
LINE
  5
8F1
330
1F
100
AcDbEntity
  8
2
  6
CONTINUOUS
370
25
 62
7
100
AcDbLine
 10
60.0
 20
26.425
 30
0.0
 11
55.0
 21
25.425
 31
0.0
  0
LINE
  5
8F2
330
1F
100
AcDbEntity
  8
2
  6
CONTINUOUS
370
25
 62
7
100
AcDbLine
 10
55.0
 20
25.425
 30
0.0
 11
55.0
 21
27.425
 31
0.0
  0
LINE
  5
8F3
330
1F
100
AcDbEntity
  8
2
  6
CONTINUOUS
370
25
 62
7
100
AcDbLine
 10
55.0
 20
27.425
 30
0.0
 11
60.0
 21
26.425
 31
0.0
  0
LINE
  5
8F4
330
1F
100
AcDbEntity
  8
2
  6
CONTINUOUS
370
25
 62
7
100
AcDbLine
 10
59.52318118628271
 20
26.32963623725654
 30
0.0
 11
59.68212079085515
 21
26.48857584182898
 31
0.0
  0
LINE
  5
8F5
330
1F
100
AcDbEntity
  8
2
  6
CONTINUOUS
370
25
 62
7
100
AcDbLine
 10
58.99285110039281
 20
26.22357022007856
 30
0.0
 11
59.32856740026187
 21
26.55928651994763
 31
0.0
  0
LINE
  5
8F6
330
1F
100
AcDbEntity
  8
2
  6
CONTINUOUS
370
25
 62
7
100
AcDbLine
 10
58.4625210145029
 20
26.11750420290058
 30
0.0
 11
58.9750140096686
 21
26.62999719806628
 31
0.0
  0
LINE
  5
8F7
330
1F
100
AcDbEntity
  8
2
  6
CONTINUOUS
370
25
 62
7
100
AcDbLine
 10
57.93219092861298
 20
26.01143818572259
 30
0.0
 11
58.62146061907533
 21
26.70070787618494
 31
0.0
  0
LINE
  5
8F8
330
1F
100
AcDbEntity
  8
2
  6
CONTINUOUS
370
25
 62
7
100
AcDbLine
 10
57.40186084272307
 20
25.90537216854461
 30
0.0
 11
58.26790722848205
 21
26.77141855430359
 31
0.0
  0
LINE
  5
8F9
330
1F
100
AcDbEntity
  8
2
  6
CONTINUOUS
370
25
 62
7
100
AcDbLine
 10
56.87153075683316
 20
25.79930615136663
 30
0.0
 11
57.91435383788878
 21
26.84212923242225
 31
0.0
  0
LINE
  5
8FA
330
1F
100
AcDbEntity
  8
2
  6
CONTINUOUS
370
25
 62
7
100
AcDbLine
 10
56.34120067094325
 20
25.69324013418865
 30
0.0
 11
57.56080044729551
 21
26.9128399105409
 31
0.0
  0
LINE
  5
8FB
330
1F
100
AcDbEntity
  8
2
  6
CONTINUOUS
370
25
 62
7
100
AcDbLine
 10
55.81087058505334
 20
25.58717411701067
 30
0.0
 11
57.20724705670223
 21
26.98355058865955
 31
0.0
  0
LINE
  5
8FC
330
1F
100
AcDbEntity
  8
2
  6
CONTINUOUS
370
25
 62
7
100
AcDbLine
 10
55.28054049916344
 20
25.48110809983269
 30
0.0
 11
56.85369366610895
 21
27.05426126677821
 31
0.0
  0
LINE
  5
8FD
330
1F
100
AcDbEntity
  8
2
  6
CONTINUOUS
370
25
 62
7
100
AcDbLine
 10
55.0
 20
25.62483166938118
 30
0.0
 11
56.50014027551568
 21
27.12497194489687
 31
0.0
  0
LINE
  5
8FE
330
1F
100
AcDbEntity
  8
2
  6
CONTINUOUS
370
25
 62
7
100
AcDbLine
 10
55.0
 20
26.04909573809311
 30
0.0
 11
56.14658688492241
 21
27.19568262301553
 31
0.0
  0
LINE
  5
8FF
330
1F
100
AcDbEntity
  8
2
  6
CONTINUOUS
370
25
 62
7
100
AcDbLine
 10
55.0
 20
26.47335980680504
 30
0.0
 11
55.79303349432914
 21
27.26639330113418
 31
0.0
  0
LINE
  5
900
330
1F
100
AcDbEntity
  8
2
  6
CONTINUOUS
370
25
 62
7
100
AcDbLine
 10
55.0
 20
26.89762387551697
 30
0.0
 11
55.43948010373586
 21
27.33710397925284
 31
0.0
  0
LINE
  5
901
330
1F
100
AcDbEntity
  8
2
  6
CONTINUOUS
370
25
 62
7
100
AcDbLine
 10
55.0
 20
27.32188794422891
 30
0.0
 11
55.08592671314258
 21
27.40781465737149
 31
0.0
  0
LINE
  5
902
330
1F
100
AcDbEntity
  8
2
  6
CONTINUOUS
370
25
 62
7
100
AcDbLine
 10
55.0
 20
25.60874452027915
 30
0.0
 11
55.15312043356596
 21
25.45562408671319
 31
0.0
  0
LINE
  5
903
330
1F
100
AcDbEntity
  8
2
  6
CONTINUOUS
370
25
 62
7
100
AcDbLine
 10
55.0
 20
26.03300858899108
 30
0.0
 11
55.50667382415924
 21
25.52633476483185
 31
0.0
  0
LINE
  5
904
330
1F
100
AcDbEntity
  8
2
  6
CONTINUOUS
370
25
 62
7
100
AcDbLine
 10
55.0
 20
26.457272657703
 30
0.0
 11
55.86022721475251
 21
25.5970454429505
 31
0.0
  0
LINE
  5
905
330
1F
100
AcDbEntity
  8
2
  6
CONTINUOUS
370
25
 62
7
100
AcDbLine
 10
55.0
 20
26.88153672641494
 30
0.0
 11
56.21378060534579
 21
25.66775612106915
 31
0.0
  0
LINE
  5
906
330
1F
100
AcDbEntity
  8
2
  6
CONTINUOUS
370
25
 62
7
100
AcDbLine
 10
55.0
 20
27.30580079512686
 30
0.0
 11
56.56733399593906
 21
25.73846679918781
 31
0.0
  0
LINE
  5
907
330
1F
100
AcDbEntity
  8
2
  6
CONTINUOUS
370
25
 62
7
100
AcDbLine
 10
55.38133107979849
 20
27.3487337840403
 30
0.0
 11
56.92088738653233
 21
25.80917747730647
 31
0.0
  0
LINE
  5
908
330
1F
100
AcDbEntity
  8
2
  6
CONTINUOUS
370
25
 62
7
100
AcDbLine
 10
55.9116611656884
 20
27.24266776686233
 30
0.0
 11
57.2744407771256
 21
25.87988815542512
 31
0.0
  0
LINE
  5
909
330
1F
100
AcDbEntity
  8
2
  6
CONTINUOUS
370
25
 62
7
100
AcDbLine
 10
56.44199125157831
 20
27.13660174968434
 30
0.0
 11
57.62799416771888
 21
25.95059883354378
 31
0.0
  0
LINE
  5
90A
330
1F
100
AcDbEntity
  8
2
  6
CONTINUOUS
370
25
 62
7
100
AcDbLine
 10
56.97232133746823
 20
27.03053573250635
 30
0.0
 11
57.98154755831216
 21
26.02130951166243
 31
0.0
  0
LINE
  5
90B
330
1F
100
AcDbEntity
  8
2
  6
CONTINUOUS
370
25
 62
7
100
AcDbLine
 10
57.50265142335815
 20
26.92446971532837
 30
0.0
 11
58.33510094890543
 21
26.09202018978108
 31
0.0
  0
LINE
  5
90C
330
1F
100
AcDbEntity
  8
2
  6
CONTINUOUS
370
25
 62
7
100
AcDbLine
 10
58.03298150924805
 20
26.81840369815039
 30
0.0
 11
58.68865433949871
 21
26.16273086789974
 31
0.0
  0
LINE
  5
90D
330
1F
100
AcDbEntity
  8
2
  6
CONTINUOUS
370
25
 62
7
100
AcDbLine
 10
58.56331159513796
 20
26.71233768097241
 30
0.0
 11
59.04220773009198
 21
26.23344154601839
 31
0.0
  0
LINE
  5
90E
330
1F
100
AcDbEntity
  8
2
  6
CONTINUOUS
370
25
 62
7
100
AcDbLine
 10
59.09364168102789
 20
26.60627166379442
 30
0.0
 11
59.39576112068526
 21
26.30415222413705
 31
0.0
  0
LINE
  5
90F
330
1F
100
AcDbEntity
  8
2
  6
CONTINUOUS
370
25
 62
7
100
AcDbLine
 10
59.6239717669178
 20
26.50020564661644
 30
0.0
 11
59.74931451127853
 21
26.37486290225571
 31
0.0
  0
TEXT
  5
910
330
1F
100
AcDbEntity
  8
2
  6
CONTINUOUS
370
25
 62
7
100
AcDbText
 10
41.08333333333334
 20
27.925
 30
0.0
 40
3.499999999999998
  1
32
 72
     1
 11
44.0
 21
27.925
 31
0.0
100
AcDbText
  0
LINE
  5
911
330
1F
100
AcDbEntity
  8
SK2
  6
CONTINUOUS
370
25
 62
7
100
AcDbLine
 10
0.0
 20
2.0
 30
0.0
 11
0.0000000000000036
 21
37.425
 31
0.0
  0
LINE
  5
912
330
1F
100
AcDbEntity
  8
SK2
  6
CONTINUOUS
370
25
 62
7
100
AcDbLine
 10
60.0
 20
37.425
 30
0.0
 11
60.0
 21
2.0
 31
0.0
  0
LINE
  5
913
330
1F
100
AcDbEntity
  8
SK2
  6
CONTINUOUS
370
25
 62
7
100
AcDbLine
 10
0.0000000000000036
 20
36.425
 30
0.0
 11
60.0
 21
36.425
 31
0.0
  0
LINE
  5
914
330
1F
100
AcDbEntity
  8
SK2
  6
CONTINUOUS
370
25
 62
7
100
AcDbLine
 10
0.0000000000000036
 20
36.425
 30
0.0
 11
5.000000000000004
 21
37.425
 31
0.0
  0
LINE
  5
915
330
1F
100
AcDbEntity
  8
SK2
  6
CONTINUOUS
370
25
 62
7
100
AcDbLine
 10
5.000000000000004
 20
37.425
 30
0.0
 11
5.000000000000004
 21
35.425
 31
0.0
  0
LINE
  5
916
330
1F
100
AcDbEntity
  8
SK2
  6
CONTINUOUS
370
25
 62
7
100
AcDbLine
 10
5.000000000000004
 20
35.425
 30
0.0
 11
0.0000000000000036
 21
36.425
 31
0.0
  0
LINE
  5
917
330
1F
100
AcDbEntity
  8
SK2
  6
CONTINUOUS
370
25
 62
7
100
AcDbLine
 10
4.897132098128218
 20
35.44557358037435
 30
0.0
 11
5.000000000000004
 21
35.54844148224613
 31
0.0
  0
LINE
  5
918
330
1F
100
AcDbEntity
  8
SK2
  6
CONTINUOUS
370
25
 62
7
100
AcDbLine
 10
4.543578707534937
 20
35.51628425849301
 30
0.0
 11
5.000000000000004
 21
35.97270555095808
 31
0.0
  0
LINE
  5
919
330
1F
100
AcDbEntity
  8
SK2
  6
CONTINUOUS
370
25
 62
7
100
AcDbLine
 10
4.190025316941668
 20
35.58699493661166
 30
0.0
 11
5.000000000000004
 21
36.39696961967
 31
0.0
  0
LINE
  5
91A
330
1F
100
AcDbEntity
  8
SK2
  6
CONTINUOUS
370
25
 62
7
100
AcDbLine
 10
3.836471926348391
 20
35.65770561473032
 30
0.0
 11
5.000000000000004
 21
36.82123368838193
 31
0.0
  0
LINE
  5
91B
330
1F
100
AcDbEntity
  8
SK2
  6
CONTINUOUS
370
25
 62
7
100
AcDbLine
 10
3.482918535755118
 20
35.72841629284898
 30
0.0
 11
5.000000000000004
 21
37.24549775709386
 31
0.0
  0
LINE
  5
91C
330
1F
100
AcDbEntity
  8
SK2
  6
CONTINUOUS
370
25
 62
7
100
AcDbLine
 10
3.129365145161842
 20
35.79912697096762
 30
0.0
 11
4.694047717742766
 21
37.36380954354856
 31
0.0
  0
LINE
  5
91D
330
1F
100
AcDbEntity
  8
SK2
  6
CONTINUOUS
370
25
 62
7
100
AcDbLine
 10
2.775811754568569
 20
35.86983764908628
 30
0.0
 11
4.163717631852851
 21
37.25774352637057
 31
0.0
  0
LINE
  5
91E
330
1F
100
AcDbEntity
  8
SK2
  6
CONTINUOUS
370
25
 62
7
100
AcDbLine
 10
2.422258363975292
 20
35.94054832720494
 30
0.0
 11
3.63338754596294
 21
37.15167750919259
 31
0.0
  0
LINE
  5
91F
330
1F
100
AcDbEntity
  8
SK2
  6
CONTINUOUS
370
25
 62
7
100
AcDbLine
 10
2.068704973382019
 20
36.01125900532359
 30
0.0
 11
3.103057460073032
 21
37.04561149201461
 31
0.0
  0
LINE
  5
920
330
1F
100
AcDbEntity
  8
SK2
  6
CONTINUOUS
370
25
 62
7
100
AcDbLine
 10
1.715151582788742
 20
36.08196968344225
 30
0.0
 11
2.572727374183117
 21
36.93954547483662
 31
0.0
  0
LINE
  5
921
330
1F
100
AcDbEntity
  8
SK2
  6
CONTINUOUS
370
25
 62
7
100
AcDbLine
 10
1.361598192195469
 20
36.1526803615609
 30
0.0
 11
2.042397288293209
 21
36.83347945765864
 31
0.0
  0
LINE
  5
922
330
1F
100
AcDbEntity
  8
SK2
  6
CONTINUOUS
370
25
 62
7
100
AcDbLine
 10
1.008044801602193
 20
36.22339103967956
 30
0.0
 11
1.512067202403294
 21
36.72741344048066
 31
0.0
  0
LINE
  5
923
330
1F
100
AcDbEntity
  8
SK2
  6
CONTINUOUS
370
25
 62
7
100
AcDbLine
 10
0.6544914110089195
 20
36.29410171779821
 30
0.0
 11
0.9817371165133864
 21
36.62134742330268
 31
0.0
  0
LINE
  5
924
330
1F
100
AcDbEntity
  8
SK2
  6
CONTINUOUS
370
25
 62
7
100
AcDbLine
 10
0.3009380204156429
 20
36.36481239591687
 30
0.0
 11
0.4514070306234714
 21
36.5152814061247
 31
0.0
  0
LINE
  5
925
330
1F
100
AcDbEntity
  8
SK2
  6
CONTINUOUS
370
25
 62
7
100
AcDbLine
 10
0.0502344785320226
 20
36.43504689570641
 30
0.0
 11
0.0753517177980392
 21
36.40992965644038
 31
0.0
  0
LINE
  5
926
330
1F
100
AcDbEntity
  8
SK2
  6
CONTINUOUS
370
25
 62
7
100
AcDbLine
 10
0.4037878691252921
 20
36.50575757382506
 30
0.0
 11
0.6056818036879505
 21
36.3038636392624
 31
0.0
  0
LINE
  5
927
330
1F
100
AcDbEntity
  8
SK2
  6
CONTINUOUS
370
25
 62
7
100
AcDbLine
 10
0.7573412597185758
 20
36.57646825194371
 30
0.0
 11
1.136011889577865
 21
36.19779762208442
 31
0.0
  0
LINE
  5
928
330
1F
100
AcDbEntity
  8
SK2
  6
CONTINUOUS
370
25
 62
7
100
AcDbLine
 10
1.110894650311849
 20
36.64717893006237
 30
0.0
 11
1.666341975467777
 21
36.09173160490644
 31
0.0
  0
LINE
  5
929
330
1F
100
AcDbEntity
  8
SK2
  6
CONTINUOUS
370
25
 62
7
100
AcDbLine
 10
1.464448040905122
 20
36.71788960818103
 30
0.0
 11
2.196672061357685
 21
35.98566558772846
 31
0.0
  0
LINE
  5
92A
330
1F
100
AcDbEntity
  8
SK2
  6
CONTINUOUS
370
25
 62
7
100
AcDbLine
 10
1.818001431498395
 20
36.78860028629968
 30
0.0
 11
2.727002147247596
 21
35.87959957055048
 31
0.0
  0
LINE
  5
92B
330
1F
100
AcDbEntity
  8
SK2
  6
CONTINUOUS
370
25
 62
7
100
AcDbLine
 10
2.171554822091672
 20
36.85931096441833
 30
0.0
 11
3.257332233137507
 21
35.77353355337249
 31
0.0
  0
LINE
  5
92C
330
1F
100
AcDbEntity
  8
SK2
  6
CONTINUOUS
370
25
 62
7
100
AcDbLine
 10
2.525108212684945
 20
36.93002164253699
 30
0.0
 11
3.787662319027419
 21
35.66746753619451
 31
0.0
  0
LINE
  5
92D
330
1F
100
AcDbEntity
  8
SK2
  6
CONTINUOUS
370
25
 62
7
100
AcDbLine
 10
2.878661603278221
 20
37.00073232065564
 30
0.0
 11
4.317992404917334
 21
35.56140151901653
 31
0.0
  0
LINE
  5
92E
330
1F
100
AcDbEntity
  8
SK2
  6
CONTINUOUS
370
25
 62
7
100
AcDbLine
 10
3.232214993871498
 20
37.0714429987743
 30
0.0
 11
4.848322490807245
 21
35.45533550183855
 31
0.0
  0
LINE
  5
92F
330
1F
100
AcDbEntity
  8
SK2
  6
CONTINUOUS
370
25
 62
7
100
AcDbLine
 10
3.585768384464775
 20
37.14215367689295
 30
0.0
 11
5.000000000000004
 21
35.72792206135772
 31
0.0
  0
LINE
  5
930
330
1F
100
AcDbEntity
  8
SK2
  6
CONTINUOUS
370
25
 62
7
100
AcDbLine
 10
3.939321775058048
 20
37.21286435501161
 30
0.0
 11
5.000000000000004
 21
36.15218613006965
 31
0.0
  0
LINE
  5
931
330
1F
100
AcDbEntity
  8
SK2
  6
CONTINUOUS
370
25
 62
7
100
AcDbLine
 10
4.292875165651324
 20
37.28357503313026
 30
0.0
 11
5.000000000000004
 21
36.57645019878158
 31
0.0
  0
LINE
  5
932
330
1F
100
AcDbEntity
  8
SK2
  6
CONTINUOUS
370
25
 62
7
100
AcDbLine
 10
4.646428556244601
 20
37.35428571124892
 30
0.0
 11
5.000000000000004
 21
37.00071426749351
 31
0.0
  0
LINE
  5
933
330
1F
100
AcDbEntity
  8
SK2
  6
CONTINUOUS
370
25
 62
7
100
AcDbLine
 10
4.999981946837874
 20
37.42499638936758
 30
0.0
 11
5.000000000000004
 21
37.42497833620544
 31
0.0
  0
LINE
  5
934
330
1F
100
AcDbEntity
  8
SK2
  6
CONTINUOUS
370
25
 62
7
100
AcDbLine
 10
60.0
 20
36.425
 30
0.0
 11
55.0
 21
35.425
 31
0.0
  0
LINE
  5
935
330
1F
100
AcDbEntity
  8
SK2
  6
CONTINUOUS
370
25
 62
7
100
AcDbLine
 10
55.0
 20
35.425
 30
0.0
 11
55.0
 21
37.425
 31
0.0
  0
LINE
  5
936
330
1F
100
AcDbEntity
  8
SK2
  6
CONTINUOUS
370
25
 62
7
100
AcDbLine
 10
55.0
 20
37.425
 30
0.0
 11
60.0
 21
36.425
 31
0.0
  0
LINE
  5
937
330
1F
100
AcDbEntity
  8
SK2
  6
CONTINUOUS
370
25
 62
7
100
AcDbLine
 10
59.69761905521095
 20
36.36452381104219
 30
0.0
 11
59.79841270347396
 21
36.4653174593052
 31
0.0
  0
LINE
  5
938
330
1F
100
AcDbEntity
  8
SK2
  6
CONTINUOUS
370
25
 62
7
100
AcDbLine
 10
59.16728896932104
 20
36.25845779386421
 30
0.0
 11
59.44485931288069
 21
36.53602813742386
 31
0.0
  0
LINE
  5
939
330
1F
100
AcDbEntity
  8
SK2
  6
CONTINUOUS
370
25
 62
7
100
AcDbLine
 10
58.63695888343112
 20
36.15239177668622
 30
0.0
 11
59.09130592228742
 21
36.60673881554251
 31
0.0
  0
LINE
  5
93A
330
1F
100
AcDbEntity
  8
SK2
  6
CONTINUOUS
370
25
 62
7
100
AcDbLine
 10
58.10662879754121
 20
36.04632575950824
 30
0.0
 11
58.73775253169413
 21
36.67744949366117
 31
0.0
  0
LINE
  5
93B
330
1F
100
AcDbEntity
  8
SK2
  6
CONTINUOUS
370
25
 62
7
100
AcDbLine
 10
57.5762987116513
 20
35.94025974233026
 30
0.0
 11
58.38419914110086
 21
36.74816017177982
 31
0.0
  0
LINE
  5
93C
330
1F
100
AcDbEntity
  8
SK2
  6
CONTINUOUS
370
25
 62
7
100
AcDbLine
 10
57.04596862576139
 20
35.83419372515228
 30
0.0
 11
58.03064575050759
 21
36.81887084989848
 31
0.0
  0
LINE
  5
93D
330
1F
100
AcDbEntity
  8
SK2
  6
CONTINUOUS
370
25
 62
7
100
AcDbLine
 10
56.51563853987148
 20
35.72812770797429
 30
0.0
 11
57.67709235991431
 21
36.88958152801714
 31
0.0
  0
LINE
  5
93E
330
1F
100
AcDbEntity
  8
SK2
  6
CONTINUOUS
370
25
 62
7
100
AcDbLine
 10
55.98530845398157
 20
35.62206169079631
 30
0.0
 11
57.32353896932104
 21
36.96029220613579
 31
0.0
  0
LINE
  5
93F
330
1F
100
AcDbEntity
  8
SK2
  6
CONTINUOUS
370
25
 62
7
100
AcDbLine
 10
55.45497836809166
 20
35.51599567361833
 30
0.0
 11
56.96998557872776
 21
37.03100288425445
 31
0.0
  0
LINE
  5
940
330
1F
100
AcDbEntity
  8
SK2
  6
CONTINUOUS
370
25
 62
7
100
AcDbLine
 10
55.0
 20
35.4852813742386
 30
0.0
 11
56.61643218813448
 21
37.1017135623731
 31
0.0
  0
LINE
  5
941
330
1F
100
AcDbEntity
  8
SK2
  6
CONTINUOUS
370
25
 62
7
100
AcDbLine
 10
55.0
 20
35.90954544295054
 30
0.0
 11
56.26287879754121
 21
37.17242424049176
 31
0.0
  0
LINE
  5
942
330
1F
100
AcDbEntity
  8
SK2
  6
CONTINUOUS
370
25
 62
7
100
AcDbLine
 10
55.0
 20
36.33380951166247
 30
0.0
 11
55.90932540694793
 21
37.24313491861041
 31
0.0
  0
LINE
  5
943
330
1F
100
AcDbEntity
  8
SK2
  6
CONTINUOUS
370
25
 62
7
100
AcDbLine
 10
55.0
 20
36.75807358037441
 30
0.0
 11
55.55577201635465
 21
37.31384559672907
 31
0.0
  0
LINE
  5
944
330
1F
100
AcDbEntity
  8
SK2
  6
CONTINUOUS
370
25
 62
7
100
AcDbLine
 10
55.0
 20
37.18233764908634
 30
0.0
 11
55.20221862576138
 21
37.38455627484772
 31
0.0
  0
LINE
  5
945
330
1F
100
AcDbEntity
  8
SK2
  6
CONTINUOUS
370
25
 62
7
100
AcDbLine
 10
55.0
 20
35.79108216936541
 30
0.0
 11
55.30506847447117
 21
35.48601369489424
 31
0.0
  0
LINE
  5
946
330
1F
100
AcDbEntity
  8
SK2
  6
CONTINUOUS
370
25
 62
7
100
AcDbLine
 10
55.0
 20
36.21534623807734
 30
0.0
 11
55.65862186506445
 21
35.55672437301289
 31
0.0
  0
LINE
  5
947
330
1F
100
AcDbEntity
  8
SK2
  6
CONTINUOUS
370
25
 62
7
100
AcDbLine
 10
55.0
 20
36.63961030678927
 30
0.0
 11
56.01217525565772
 21
35.62743505113154
 31
0.0
  0
LINE
  5
948
330
1F
100
AcDbEntity
  8
SK2
  6
CONTINUOUS
370
25
 62
7
100
AcDbLine
 10
55.0
 20
37.06387437550121
 30
0.0
 11
56.36572864625101
 21
35.6981457292502
 31
0.0
  0
LINE
  5
949
330
1F
100
AcDbEntity
  8
SK2
  6
CONTINUOUS
370
25
 62
7
100
AcDbLine
 10
55.07892305526644
 20
37.40921538894671
 30
0.0
 11
56.71928203684428
 21
35.76885640736886
 31
0.0
  0
LINE
  5
94A
330
1F
100
AcDbEntity
  8
SK2
  6
CONTINUOUS
370
25
 62
7
100
AcDbLine
 10
55.60925314115634
 20
37.30314937176873
 30
0.0
 11
57.07283542743755
 21
35.83956708548751
 31
0.0
  0
LINE
  5
94B
330
1F
100
AcDbEntity
  8
SK2
  6
CONTINUOUS
370
25
 62
7
100
AcDbLine
 10
56.13958322704626
 20
37.19708335459075
 30
0.0
 11
57.42638881803083
 21
35.91027776360616
 31
0.0
  0
LINE
  5
94C
330
1F
100
AcDbEntity
  8
SK2
  6
CONTINUOUS
370
25
 62
7
100
AcDbLine
 10
56.66991331293617
 20
37.09101733741276
 30
0.0
 11
57.77994220862411
 21
35.98098844172483
 31
0.0
  0
LINE
  5
94D
330
1F
100
AcDbEntity
  8
SK2
  6
CONTINUOUS
370
25
 62
7
100
AcDbLine
 10
57.20024339882607
 20
36.98495132023478
 30
0.0
 11
58.13349559921738
 21
36.05169911984348
 31
0.0
  0
LINE
  5
94E
330
1F
100
AcDbEntity
  8
SK2
  6
CONTINUOUS
370
25
 62
7
100
AcDbLine
 10
57.73057348471599
 20
36.8788853030568
 30
0.0
 11
58.48704898981066
 21
36.12240979796213
 31
0.0
  0
LINE
  5
94F
330
1F
100
AcDbEntity
  8
SK2
  6
CONTINUOUS
370
25
 62
7
100
AcDbLine
 10
58.2609035706059
 20
36.77281928587881
 30
0.0
 11
58.84060238040394
 21
36.19312047608079
 31
0.0
  0
LINE
  5
950
330
1F
100
AcDbEntity
  8
SK2
  6
CONTINUOUS
370
25
 62
7
100
AcDbLine
 10
58.79123365649582
 20
36.66675326870083
 30
0.0
 11
59.19415577099721
 21
36.26383115419944
 31
0.0
  0
LINE
  5
951
330
1F
100
AcDbEntity
  8
SK2
  6
CONTINUOUS
370
25
 62
7
100
AcDbLine
 10
59.32156374238574
 20
36.56068725152285
 30
0.0
 11
59.54770916159049
 21
36.3345418323181
 31
0.0
  0
LINE
  5
952
330
1F
100
AcDbEntity
  8
SK2
  6
CONTINUOUS
370
25
 62
7
100
AcDbLine
 10
59.85189382827566
 20
36.45462123434486
 30
0.0
 11
59.90126255218377
 21
36.40525251043675
 31
0.0
  0
TEXT
  5
953
330
1F
100
AcDbEntity
  8
SK2
  6
CONTINUOUS
370
25
 62
7
100
AcDbText
 10
27.375
 20
37.925
 30
0.0
 40
3.5
  1
60
 72
     1
 11
30.0
 21
37.925
 31
0.0
100
AcDbText
  0
LINE
  5
954
330
1F
100
AcDbEntity
  8
2
  6
CONTINUOUS
370
25
 62
7
100
AcDbLine
 10
59.41421356
 20
-3.41421356
 30
0.0
 11
77.00000000109965
 21
-21.00000000109963
 31
0.0
  0
LINE
  5
955
330
1F
100
AcDbEntity
  8
2
  6
CONTINUOUS
370
25
 62
7
100
AcDbLine
 10
77.00000000109965
 20
-21.00000000109963
 30
0.0
 11
84.47500000109966
 21
-21.00000000109963
 31
0.0
  0
LINE
  5
956
330
1F
100
AcDbEntity
  8
2
  6
CONTINUOUS
370
25
 62
7
100
AcDbLine
 10
59.41421356
 20
-3.41421356
 30
0.0
 11
57.9999999976269
 21
-1.999999997626905
 31
0.0
  0
LINE
  5
957
330
1F
100
AcDbEntity
  8
2
  6
CONTINUOUS
370
25
 62
7
100
AcDbLine
 10
59.41421356
 20
-3.41421356
 30
0.0
 11
63.65685424711928
 21
-6.242640684746187
 31
0.0
  0
LINE
  5
958
330
1F
100
AcDbEntity
  8
2
  6
CONTINUOUS
370
25
 62
7
100
AcDbLine
 10
63.65685424711928
 20
-6.242640684746187
 30
0.0
 11
62.24264068474619
 21
-7.656854247119282
 31
0.0
  0
LINE
  5
959
330
1F
100
AcDbEntity
  8
2
  6
CONTINUOUS
370
25
 62
7
100
AcDbLine
 10
62.24264068474619
 20
-7.656854247119282
 30
0.0
 11
59.41421356
 21
-3.41421356
 31
0.0
  0
LINE
  5
95A
330
1F
100
AcDbEntity
  8
2
  6
CONTINUOUS
370
25
 62
7
100
AcDbLine
 10
62.14501475400509
 20
-7.510415351007637
 30
0.0
 11
63.51041535100764
 21
-6.145014754005089
 31
0.0
  0
LINE
  5
95B
330
1F
100
AcDbEntity
  8
2
  6
CONTINUOUS
370
25
 62
7
100
AcDbLine
 10
61.97530912652032
 20
-7.255856909780476
 30
0.0
 11
63.25585690978048
 21
-5.975309126520315
 31
0.0
  0
LINE
  5
95C
330
1F
100
AcDbEntity
  8
2
  6
CONTINUOUS
370
25
 62
7
100
AcDbLine
 10
61.80560349903555
 20
-7.001298468553323
 30
0.0
 11
63.00129846855332
 21
-5.805603499035549
 31
0.0
  0
LINE
  5
95D
330
1F
100
AcDbEntity
  8
2
  6
CONTINUOUS
370
25
 62
7
100
AcDbLine
 10
61.63589787155077
 20
-6.746740027326169
 30
0.0
 11
62.74674002732616
 21
-5.635897871550782
 31
0.0
  0
LINE
  5
95E
330
1F
100
AcDbEntity
  8
2
  6
CONTINUOUS
370
25
 62
7
100
AcDbLine
 10
61.466192244066
 20
-6.492181586099008
 30
0.0
 11
62.492181586099
 21
-5.466192244066008
 31
0.0
  0
LINE
  5
95F
330
1F
100
AcDbEntity
  8
2
  6
CONTINUOUS
370
25
 62
7
100
AcDbLine
 10
61.29648661658123
 20
-6.237623144871847
 30
0.0
 11
62.23762314487185
 21
-5.296486616581234
 31
0.0
  0
LINE
  5
960
330
1F
100
AcDbEntity
  8
2
  6
CONTINUOUS
370
25
 62
7
100
AcDbLine
 10
61.12678098909647
 20
-5.983064703644686
 30
0.0
 11
61.98306470364469
 21
-5.126780989096467
 31
0.0
  0
LINE
  5
961
330
1F
100
AcDbEntity
  8
2
  6
CONTINUOUS
370
25
 62
7
100
AcDbLine
 10
60.95707536161169
 20
-5.728506262417525
 30
0.0
 11
61.72850626241753
 21
-4.957075361611686
 31
0.0
  0
LINE
  5
962
330
1F
100
AcDbEntity
  8
2
  6
CONTINUOUS
370
25
 62
7
100
AcDbLine
 10
60.78736973412692
 20
-5.473947821190372
 30
0.0
 11
61.47394782119037
 21
-4.787369734126919
 31
0.0
  0
LINE
  5
963
330
1F
100
AcDbEntity
  8
2
  6
CONTINUOUS
370
25
 62
7
100
AcDbLine
 10
60.61766410664215
 20
-5.219389379963211
 30
0.0
 11
61.21938937996321
 21
-4.617664106642145
 31
0.0
  0
LINE
  5
964
330
1F
100
AcDbEntity
  8
2
  6
CONTINUOUS
370
25
 62
7
100
AcDbLine
 10
60.44795847915737
 20
-4.964830938736064
 30
0.0
 11
60.96483093873606
 21
-4.447958479157371
 31
0.0
  0
LINE
  5
965
330
1F
100
AcDbEntity
  8
2
  6
CONTINUOUS
370
25
 62
7
100
AcDbLine
 10
60.2782528516726
 20
-4.71027249750891
 30
0.0
 11
60.7102724975089
 21
-4.278252851672598
 31
0.0
  0
LINE
  5
966
330
1F
100
AcDbEntity
  8
2
  6
CONTINUOUS
370
25
 62
7
100
AcDbLine
 10
60.10854722418783
 20
-4.455714056281742
 30
0.0
 11
60.45571405628174
 21
-4.108547224187831
 31
0.0
  0
LINE
  5
967
330
1F
100
AcDbEntity
  8
2
  6
CONTINUOUS
370
25
 62
7
100
AcDbLine
 10
59.93884159670306
 20
-4.201155615054592
 30
0.0
 11
60.20115561505458
 21
-3.938841596703064
 31
0.0
  0
LINE
  5
968
330
1F
100
AcDbEntity
  8
2
  6
CONTINUOUS
370
25
 62
7
100
AcDbLine
 10
59.76913596921828
 20
-3.946597173827442
 30
0.0
 11
59.94659717382743
 21
-3.76913596921829
 31
0.0
  0
LINE
  5
969
330
1F
100
AcDbEntity
  8
2
  6
CONTINUOUS
370
25
 62
7
100
AcDbLine
 10
59.59943034173351
 20
-3.69203873260027
 30
0.0
 11
59.69203873260027
 21
-3.599430341733513
 31
0.0
  0
LINE
  5
96A
330
1F
100
AcDbEntity
  8
2
  6
CONTINUOUS
370
25
 62
7
100
AcDbLine
 10
59.42972471424874
 20
-3.437480291373117
 30
0.0
 11
59.43748029137311
 21
-3.429724714248742
 31
0.0
  0
LINE
  5
96B
330
1F
100
AcDbEntity
  8
2
  6
CONTINUOUS
370
25
 62
7
100
AcDbLine
 10
61.95694090229687
 20
-7.228304573445303
 30
0.0
 11
62.31406563035851
 21
-7.585429301506945
 31
0.0
  0
LINE
  5
96C
330
1F
100
AcDbEntity
  8
2
  6
CONTINUOUS
370
25
 62
7
100
AcDbLine
 10
61.10841276487302
 20
-5.955512367309524
 30
0.0
 11
62.52619766471448
 21
-7.373297267150988
 31
0.0
  0
LINE
  5
96D
330
1F
100
AcDbEntity
  8
2
  6
CONTINUOUS
370
25
 62
7
100
AcDbLine
 10
60.25988462744917
 20
-4.682720161173751
 30
0.0
 11
62.73832969907045
 21
-7.161165232795025
 31
0.0
  0
LINE
  5
96E
330
1F
100
AcDbEntity
  8
2
  6
CONTINUOUS
370
25
 62
7
100
AcDbLine
 10
59.41849916496201
 20
-3.417070629974674
 30
0.0
 11
62.95046173342641
 21
-6.949033198439054
 31
0.0
  0
LINE
  5
96F
330
1F
100
AcDbEntity
  8
2
  6
CONTINUOUS
370
25
 62
7
100
AcDbLine
 10
60.69129137109781
 20
-4.265598767398544
 30
0.0
 11
63.16259376778238
 21
-6.736901164083093
 31
0.0
  0
LINE
  5
970
330
1F
100
AcDbEntity
  8
2
  6
CONTINUOUS
370
25
 62
7
100
AcDbLine
 10
61.96408357723362
 20
-5.114126904822413
 30
0.0
 11
63.37472580213834
 21
-6.524769129727126
 31
0.0
  0
LINE
  5
971
330
1F
100
AcDbEntity
  8
2
  6
CONTINUOUS
370
25
 62
7
100
AcDbLine
 10
63.23687578336943
 20
-5.962655042246279
 30
0.0
 11
63.5868578364943
 21
-6.312637095371155
 31
0.0
  0
TEXT
  5
972
330
1F
100
AcDbEntity
  8
2
  6
CONTINUOUS
370
25
 62
7
100
AcDbText
 10
77.82083333443298
 20
-19.50000000109963
 30
0.0
 40
3.5
  1
R2
 72
     1
 11
80.73750000109965
 21
-19.50000000109963
 31
0.0
100
AcDbText
  0
LINE
  5
973
330
1F
100
AcDbEntity
  8
SK1
  6
CONTINUOUS
370
50
 62
4
100
AcDbLine
 10
28.0
 20
0.0
 30
0.0
 11
29.75
 21
0.0
 31
0.0
  0
LINE
  5
974
330
1F
100
AcDbEntity
  8
SK1
  6
CONTINUOUS
370
50
 62
4
100
AcDbLine
 10
28.0
 20
0.0
 30
0.0
 11
28.0
 21
1.75
 31
0.0
  0
ARC
  5
975
330
1F
100
AcDbEntity
  8
SK1
  6
CONTINUOUS
370
50
 62
4
100
AcDbCircle
 10
28.0
 20
0.0
 30
0.0
 40
1.75
100
AcDbArc
 50
0.0
 51
90.0
  0
LINE
  5
976
330
1F
100
AcDbEntity
  8
SK1
  6
CONTINUOUS
370
50
 62
4
100
AcDbLine
 10
28.0
 20
0.0
 30
0.0
 11
26.25
 21
0.0
 31
0.0
  0
ARC
  5
977
330
1F
100
AcDbEntity
  8
SK1
  6
CONTINUOUS
370
50
 62
4
100
AcDbCircle
 10
28.0
 20
0.0
 30
0.0
 40
1.75
100
AcDbArc
 50
180.0
 51
270.0
  0
LINE
  5
978
330
1F
100
AcDbEntity
  8
SK1
  6
CONTINUOUS
370
50
 62
4
100
AcDbLine
 10
28.0
 20
-1.75
 30
0.0
 11
28.0
 21
0.0
 31
0.0
  0
ARC
  5
979
330
1F
100
AcDbEntity
  8
SK1
  6
CONTINUOUS
370
50
 62
4
100
AcDbCircle
 10
28.0
 20
0.0
 30
0.0
 40
1.75
100
AcDbArc
 50
270.0
 51
0.0
  0
ARC
  5
97A
330
1F
100
AcDbEntity
  8
SK1
  6
CONTINUOUS
370
50
 62
4
100
AcDbCircle
 10
28.0
 20
0.0
 30
0.0
 40
1.75
100
AcDbArc
 50
90.0
 51
180.0
  0
LINE
  5
97B
330
1F
100
AcDbEntity
  8
SK1
  6
CONTINUOUS
370
50
 62
4
100
AcDbLine
 10
27.77717274741573
 20
-1.73564731720198
 30
0.0
 11
28.0
 21
-1.512820064617713
 31
0.0
  0
LINE
  5
97C
330
1F
100
AcDbEntity
  8
SK1
  6
CONTINUOUS
370
50
 62
4
100
AcDbLine
 10
29.51282006461771
 20
0.0
 30
0.0
 11
29.73564731720198
 21
0.2228272525842674
 31
0.0
  0
LINE
  5
97D
330
1F
100
AcDbEntity
  8
SK1
  6
CONTINUOUS
370
50
 62
4
100
AcDbLine
 10
27.56930380681873
 20
-1.69602888438369
 30
0.0
 11
28.0
 21
-1.265332691202421
 31
0.0
  0
LINE
  5
97E
330
1F
100
AcDbEntity
  8
SK1
  6
CONTINUOUS
370
50
 62
4
100
AcDbLine
 10
29.26533269120242
 20
0.0
 30
0.0
 11
29.69602888438369
 21
0.4306961931812696
 31
0.0
  0
LINE
  5
97F
330
1F
100
AcDbEntity
  8
SK1
  6
CONTINUOUS
370
50
 62
4
100
AcDbLine
 10
27.38148340435765
 20
-1.636361913429485
 30
0.0
 11
28.0
 21
-1.01784531778713
 31
0.0
  0
LINE
  5
980
330
1F
100
AcDbEntity
  8
SK1
  6
CONTINUOUS
370
50
 62
4
100
AcDbLine
 10
29.01784531778713
 20
0.0
 30
0.0
 11
29.63636191342949
 21
0.6185165956423557
 31
0.0
  0
LINE
  5
981
330
1F
100
AcDbEntity
  8
SK1
  6
CONTINUOUS
370
50
 62
4
100
AcDbLine
 10
27.2098551094628
 20
-1.560502834909039
 30
0.0
 11
28.0
 21
-0.7703579443718382
 31
0.0
  0
LINE
  5
982
330
1F
100
AcDbEntity
  8
SK1
  6
CONTINUOUS
370
50
 62
4
100
AcDbLine
 10
28.77035794437184
 20
0.0
 30
0.0
 11
29.56050283490904
 21
0.7901448905372013
 31
0.0
  0
LINE
  5
983
330
1F
100
AcDbEntity
  8
SK1
  6
CONTINUOUS
370
50
 62
4
100
AcDbLine
 10
27.05217783219447
 20
-1.470692738762079
 30
0.0
 11
28.0
 21
-0.5228705709565462
 31
0.0
  0
LINE
  5
984
330
1F
100
AcDbEntity
  8
SK1
  6
CONTINUOUS
370
50
 62
4
100
AcDbLine
 10
28.52287057095655
 20
0.0
 30
0.0
 11
29.47069273876208
 21
0.947822167805533
 31
0.0
  0
LINE
  5
985
330
1F
100
AcDbEntity
  8
SK1
  6
CONTINUOUS
370
50
 62
4
100
AcDbLine
 10
26.90842956711548
 20
-1.366953630425777
 30
0.0
 11
28.0
 21
-0.2753831975412551
 31
0.0
  0
LINE
  5
986
330
1F
100
AcDbEntity
  8
SK1
  6
CONTINUOUS
370
50
 62
4
100
AcDbLine
 10
28.27538319754126
 20
0.0
 30
0.0
 11
29.36695363042578
 21
1.091570432884522
 31
0.0
  0
LINE
  5
987
330
1F
100
AcDbEntity
  8
SK1
  6
CONTINUOUS
370
50
 62
4
100
AcDbLine
 10
26.77712164538164
 20
-1.25077417874432
 30
0.0
 11
28.0
 21
-0.0278958241259639
 31
0.0
  0
LINE
  5
988
330
1F
100
AcDbEntity
  8
SK1
  6
CONTINUOUS
370
50
 62
4
100
AcDbLine
 10
28.02789582412596
 20
0.0
 30
0.0
 11
29.25077417874432
 21
1.222878354618356
 31
0.0
  0
LINE
  5
989
330
1F
100
AcDbEntity
  8
SK1
  6
CONTINUOUS
370
50
 62
4
100
AcDbLine
 10
26.65784030371346
 20
-1.122568146997212
 30
0.0
 11
27.78040845071067
 21
0.0
 31
0.0
  0
LINE
  5
98A
330
1F
100
AcDbEntity
  8
SK1
  6
CONTINUOUS
370
50
 62
4
100
AcDbLine
 10
28.0
 20
0.2195915492893277
 30
0.0
 11
29.12256814699721
 21
1.34215969628654
 31
0.0
  0
LINE
  5
98B
330
1F
100
AcDbEntity
  8
SK1
  6
CONTINUOUS
370
50
 62
4
100
AcDbLine
 10
26.55188167231256
 20
-0.9810394049828186
 30
0.0
 11
27.53292107729538
 21
0.0
 31
0.0
  0
LINE
  5
98C
330
1F
100
AcDbEntity
  8
SK1
  6
CONTINUOUS
370
50
 62
4
100
AcDbLine
 10
28.0
 20
0.4670789227046193
 30
0.0
 11
28.98103940498282
 21
1.448118327687438
 31
0.0
  0
LINE
  5
98D
330
1F
100
AcDbEntity
  8
SK1
  6
CONTINUOUS
370
50
 62
4
100
AcDbLine
 10
26.45832908651575
 20
-0.8271046173643402
 30
0.0
 11
27.28543370388009
 21
0.0
 31
0.0
  0
LINE
  5
98E
330
1F
100
AcDbEntity
  8
SK1
  6
CONTINUOUS
370
50
 62
4
100
AcDbLine
 10
28.0
 20
0.71456629611991
 30
0.0
 11
28.82710461736434
 21
1.54167091348425
 31
0.0
  0
LINE
  5
98F
330
1F
100
AcDbEntity
  8
SK1
  6
CONTINUOUS
370
50
 62
4
100
AcDbLine
 10
26.37918473824205
 20
-0.6587615922227528
 30
0.0
 11
27.0379463304648
 21
0.0
 31
0.0
  0
LINE
  5
990
330
1F
100
AcDbEntity
  8
SK1
  6
CONTINUOUS
370
50
 62
4
100
AcDbLine
 10
28.0
 20
0.9620536695352015
 30
0.0
 11
28.65876159222275
 21
1.620815261757954
 31
0.0
  0
LINE
  5
991
330
1F
100
AcDbEntity
  8
SK1
  6
CONTINUOUS
370
50
 62
4
100
AcDbLine
 10
26.31629687706963
 20
-0.474162079979876
 30
0.0
 11
26.79045895704951
 21
0.0
 31
0.0
  0
LINE
  5
992
330
1F
100
AcDbEntity
  8
SK1
  6
CONTINUOUS
370
50
 62
4
100
AcDbLine
 10
28.0
 20
1.209541042950494
 30
0.0
 11
28.47416207997988
 21
1.683703122930369
 31
0.0
  0
LINE
  5
993
330
1F
100
AcDbEntity
  8
SK1
  6
CONTINUOUS
370
50
 62
4
100
AcDbLine
 10
26.27198100434271
 20
-0.2709905792915031
 30
0.0
 11
26.54297158363422
 21
0.0
 31
0.0
  0
LINE
  5
994
330
1F
100
AcDbEntity
  8
SK1
  6
CONTINUOUS
370
50
 62
4
100
AcDbLine
 10
28.0
 20
1.457028416365784
 30
0.0
 11
28.2709905792915
 21
1.728018995657286
 31
0.0
  0
LINE
  5
995
330
1F
100
AcDbEntity
  8
SK1
  6
CONTINUOUS
370
50
 62
4
100
AcDbLine
 10
26.2513858468978
 20
-0.0440983633211194
 30
0.0
 11
26.29548421021893
 21
0.0
 31
0.0
  0
LINE
  5
996
330
1F
100
AcDbEntity
  8
SK1
  6
CONTINUOUS
370
50
 62
4
100
AcDbLine
 10
28.0
 20
1.704515789781075
 30
0.0
 11
28.04409836332112
 21
1.748614153102194
 31
0.0
  0
LINE
  5
997
330
1F
100
AcDbEntity
  8
SK1
  6
CONTINUOUS
370
50
 62
4
100
AcDbLine
 10
26.36386517603681
 20
-0.6191473609004006
 30
0.0
 11
27.3808526390996
 21
-1.636134823963186
 31
0.0
  0
LINE
  5
998
330
1F
100
AcDbEntity
  8
SK1
  6
CONTINUOUS
370
50
 62
4
100
AcDbLine
 10
26.27363430643545
 20
-0.2814291178837463
 30
0.0
 11
27.71857088211625
 21
-1.726365693564548
 31
0.0
  0
LINE
  5
999
330
1F
100
AcDbEntity
  8
SK1
  6
CONTINUOUS
370
50
 62
4
100
AcDbLine
 10
26.2503344343115
 20
-0.0106418723445003
 30
0.0
 11
27.9893581276555
 21
-1.749665565688503
 31
0.0
  0
LINE
  5
99A
330
1F
100
AcDbEntity
  8
SK1
  6
CONTINUOUS
370
50
 62
4
100
AcDbLine
 10
26.48717993538229
 20
0.0
 30
0.0
 11
28.0
 21
-1.51282006461771
 31
0.0
  0
LINE
  5
99B
330
1F
100
AcDbEntity
  8
SK1
  6
CONTINUOUS
370
50
 62
4
100
AcDbLine
 10
26.73466730879758
 20
0.0
 30
0.0
 11
28.0
 21
-1.265332691202418
 31
0.0
  0
LINE
  5
99C
330
1F
100
AcDbEntity
  8
SK1
  6
CONTINUOUS
370
50
 62
4
100
AcDbLine
 10
26.98215468221287
 20
0.0
 30
0.0
 11
28.0
 21
-1.017845317787128
 31
0.0
  0
LINE
  5
99D
330
1F
100
AcDbEntity
  8
SK1
  6
CONTINUOUS
370
50
 62
4
100
AcDbLine
 10
27.22964205562816
 20
0.0
 30
0.0
 11
28.0
 21
-0.7703579443718369
 31
0.0
  0
LINE
  5
99E
330
1F
100
AcDbEntity
  8
SK1
  6
CONTINUOUS
370
50
 62
4
100
AcDbLine
 10
27.47712942904345
 20
0.0
 30
0.0
 11
28.0
 21
-0.5228705709565453
 31
0.0
  0
LINE
  5
99F
330
1F
100
AcDbEntity
  8
SK1
  6
CONTINUOUS
370
50
 62
4
100
AcDbLine
 10
27.72461680245875
 20
0.0
 30
0.0
 11
28.0
 21
-0.2753831975412537
 31
0.0
  0
LINE
  5
9A0
330
1F
100
AcDbEntity
  8
SK1
  6
CONTINUOUS
370
50
 62
4
100
AcDbLine
 10
27.97210417587404
 20
0.0
 30
0.0
 11
28.0
 21
-0.027895824125963
 31
0.0
  0
LINE
  5
9A1
330
1F
100
AcDbEntity
  8
SK1
  6
CONTINUOUS
370
50
 62
4
100
AcDbLine
 10
28.0
 20
0.219591549289329
 30
0.0
 11
28.21959154928933
 21
0.0
 31
0.0
  0
LINE
  5
9A2
330
1F
100
AcDbEntity
  8
SK1
  6
CONTINUOUS
370
50
 62
4
100
AcDbLine
 10
28.0
 20
0.4670789227046202
 30
0.0
 11
28.46707892270462
 21
0.0
 31
0.0
  0
LINE
  5
9A3
330
1F
100
AcDbEntity
  8
SK1
  6
CONTINUOUS
370
50
 62
4
100
AcDbLine
 10
28.0
 20
0.7145662961199113
 30
0.0
 11
28.71456629611991
 21
0.0
 31
0.0
  0
LINE
  5
9A4
330
1F
100
AcDbEntity
  8
SK1
  6
CONTINUOUS
370
50
 62
4
100
AcDbLine
 10
28.0
 20
0.9620536695352029
 30
0.0
 11
28.96205366953521
 21
0.0
 31
0.0
  0
LINE
  5
9A5
330
1F
100
AcDbEntity
  8
SK1
  6
CONTINUOUS
370
50
 62
4
100
AcDbLine
 10
28.0
 20
1.209541042950494
 30
0.0
 11
29.20954104295049
 21
0.0
 31
0.0
  0
LINE
  5
9A6
330
1F
100
AcDbEntity
  8
SK1
  6
CONTINUOUS
370
50
 62
4
100
AcDbLine
 10
28.0
 20
1.457028416365785
 30
0.0
 11
29.45702841636579
 21
0.0
 31
0.0
  0
LINE
  5
9A7
330
1F
100
AcDbEntity
  8
SK1
  6
CONTINUOUS
370
50
 62
4
100
AcDbLine
 10
28.0
 20
1.704515789781076
 30
0.0
 11
29.70451578978108
 21
0.0
 31
0.0
  0
LINE
  5
9A8
330
1F
100
AcDbEntity
  8
SK1
  6
CONTINUOUS
370
50
 62
4
100
AcDbLine
 10
28.21543384193567
 20
1.736569321260697
 30
0.0
 11
29.7365693212607
 21
0.2154338419356714
 31
0.0
  0
LINE
  5
9A9
330
1F
100
AcDbEntity
  8
SK1
  6
CONTINUOUS
370
50
 62
4
100
AcDbLine
 10
28.53283284728993
 20
1.666657689321729
 30
0.0
 11
29.66665768932173
 21
0.5328328472899322
 31
0.0
  0
LINE
  5
9AA
330
1F
100
AcDbEntity
  8
SK1
  6
CONTINUOUS
370
50
 62
4
100
AcDbLine
 10
29.04009874905675
 20
1.406879160970207
 30
0.0
 11
29.4068791609702
 21
1.040098749056747
 31
0.0
  0
LINE
  5
9AB
330
1F
100
AcDbEntity
  8
4
  6
LONGDASH_DASH
370
25
 62
2
100
AcDbLine
 10
28.0
 20
0.0
 30
0.0
 11
60.0
 21
0.0
 31
0.0
  0
LINE
  5
9AC
330
1F
100
AcDbEntity
  8
SK4
  6
LONGDASH_DASH
370
25
 62
2
100
AcDbLine
 10
-6.0
 20
0.0
 30
0.0
 11
66.0
 21
0.0
 31
0.0
  0
ARC
  5
9AD
330
1F
100
AcDbEntity
  8
SK6
  6
CONTINUOUS
370
25
 62
5
100
AcDbCircle
 10
85.4613820083765
 20
-28.94524575338786
 30
0.0
 40
2.76048912849221
100
AcDbArc
 50
338.9379403434233
 51
90.44457437511365
  0
LINE
  5
9AE
330
1F
100
AcDbEntity
  8
SK6
  6
CONTINUOUS
370
25
 62
5
100
AcDbLine
 10
85.43996279695983
 20
-26.18483972421281
 30
0.0
 11
85.43996279695983
 21
-27.28789835613463
 31
0.0
  0
ARC
  5
9AF
330
1F
100
AcDbEntity
  8
SK6
  6
CONTINUOUS
370
25
 62
5
100
AcDbCircle
 10
85.45050902936916
 20
-28.9652392456682
 30
0.0
 40
1.677374043771779
100
AcDbArc
 50
243.4214706017868
 51
90.36024081226083
  0
ARC
  5
9B0
330
1F
100
AcDbEntity
  8
SK6
  6
CONTINUOUS
370
25
 62
5
100
AcDbCircle
 10
87.97275989684958
 20
-28.5338319921556
 30
0.0
 40
3.80021703002276
100
AcDbArc
 50
210.5483731288539
 51
236.97801693668
  0
LINE
  5
9B1
330
1F
100
AcDbEntity
  8
SK6
  6
CONTINUOUS
370
25
 62
5
100
AcDbLine
 10
85.90179068512487
 20
-31.72016781867535
 30
0.0
 11
90.04373096742671
 21
-31.72016781867535
 31
0.0
  0
ARC
  5
9B2
330
1F
100
AcDbEntity
  8
SK6
  6
CONTINUOUS
370
25
 62
5
100
AcDbCircle
 10
87.97276183877257
 20
-28.5338320937346
 30
0.0
 40
3.800216899582472
100
AcDbArc
 50
303.0219828477959
 51
326.3732153033476
  0
LINE
  5
9B3
330
1F
100
AcDbEntity
  8
SK6
  6
CONTINUOUS
370
25
 62
5
100
AcDbLine
 10
91.13705975135723
 20
-30.6383194907709
 30
0.0
 11
87.77976170575462
 21
-30.6383194907709
 31
0.0
  0
LINE
  5
9B4
330
1F
100
AcDbEntity
  8
SK6
  6
CONTINUOUS
370
25
 62
5
100
AcDbLine
 10
87.77976170575462
 20
-30.6383194907709
 30
0.0
 11
91.69962109771987
 21
-29.27691829641694
 31
0.0
  0
ARC
  5
9B5
330
1F
100
AcDbEntity
  8
SK6
  6
CONTINUOUS
370
25
 62
5
100
AcDbCircle
 10
87.97276256157211
 20
-28.5338326048594
 30
0.0
 40
3.800217216614723
100
AcDbArc
 50
348.7238644184696
 51
53.4691051260885
  0
LINE
  5
9B6
330
1F
100
AcDbEntity
  8
SK6
  6
CONTINUOUS
370
25
 62
5
100
AcDbLine
 10
90.23486524538545
 20
-25.48022124429967
 30
0.0
 11
88.03745047882737
 21
-29.93730973507057
 31
0.0
  0
ENDSEC
  0
SECTION
  2
OBJECTS
  0
DICTIONARY
  5
C
330
0
100
AcDbDictionary
281
     1
  3
ACAD_GROUP
350
D
  3
ACAD_LAYOUT
350
1A
  3
ACAD_MATERIAL
350
3B
  3
ACAD_MLEADERSTYLE
350
9B9
  3
ACAD_MLINESTYLE
350
17
  3
ACAD_PLOTSETTINGS
350
19
  3
ACAD_PLOTSTYLENAME
350
E
  3
ACAD_SCALELIST
350
2F6
  3
ACAD_VISUALSTYLE
350
2A
  3
AcDbVariableDictionary
350
9B7
  0
DICTIONARY
  5
D
102
{ACAD_REACTORS
330
C
102
}
330
C
100
AcDbDictionary
281
     1
  0
DICTIONARY
  5
1A
102
{ACAD_REACTORS
330
C
102
}
330
C
100
AcDbDictionary
281
     1
  3
Layout1
350
1E
  3
Layout2
350
26
  3
Model
350
22
  0
DICTIONARY
  5
3B
102
{ACAD_REACTORS
330
C
102
}
330
C
100
AcDbDictionary
281
     1
  3
ByBlock
350
3D
  3
ByLayer
350
3C
  3
Global
350
3E
  0
DICTIONARY
  5
9B9
102
{ACAD_REACTORS
330
C
102
}
330
C
100
AcDbDictionary
281
     1
  0
DICTIONARY
  5
17
102
{ACAD_REACTORS
330
C
102
}
330
C
100
AcDbDictionary
281
     1
  3
Standard
350
18
  0
DICTIONARY
  5
19
102
{ACAD_REACTORS
330
C
102
}
330
C
100
AcDbDictionary
281
     1
  0
ACDBDICTIONARYWDFLT
  5
E
102
{ACAD_REACTORS
330
C
102
}
330
C
100
AcDbDictionary
281
     1
  3
Normal
350
F
100
AcDbDictionaryWithDefault
340
F
  0
DICTIONARY
  5
2F6
102
{ACAD_REACTORS
330
C
102
}
330
C
100
AcDbDictionary
281
     1
  3
A0
350
2F7
  3
A1
350
2F8
  3
A2
350
2F9
  3
A3
350
2FA
  3
A4
350
2FB
  3
A5
350
2FC
  3
A6
350
2FD
  3
A7
350
2FE
  3
A8
350
2FF
  3
A9
350
300
  3
B0
350
301
  3
B1
350
302
  3
B2
350
303
  3
B3
350
304
  3
B4
350
305
  3
B5
350
306
  3
B6
350
307
  3
B7
350
308
  3
B8
350
309
  3
B9
350
30A
  3
C0
350
30B
  3
C1
350
30C
  3
C2
350
30D
  3
C3
350
30E
  3
C4
350
30F
  3
C5
350
310
  3
C6
350
311
  3
C7
350
312
  3
C8
350
313
  3
C9
350
314
  3
D0
350
315
  3
D1
350
316
  3
D2
350
317
  0
DICTIONARY
  5
2A
102
{ACAD_REACTORS
330
C
102
}
330
C
100
AcDbDictionary
281
     1
  3
2dWireframe
350
2F
  3
3D Hidden
350
31
  3
3dWireframe
350
30
  3
Basic
350
32
  3
Brighten
350
36
  3
ColorChange
350
3A
  3
Conceptual
350
34
  3
Dim
350
35
  3
Facepattern
350
39
  3
Flat
350
2B
  3
FlatWithEdges
350
2C
  3
Gouraud
350
2D
  3
GouraudWithEdges
350
2E
  3
Linepattern
350
38
  3
Realistic
350
33
  3
Thicken
350
37
  0
DICTIONARY
  5
9B7
102
{ACAD_REACTORS
330
C
102
}
330
C
100
AcDbDictionary
281
     1
  3
CANNOSCALE
350
9BC
  3
DIMASSOC
350
9BD
  3
HIDETEXT
350
9BE
  3
PSOLHEIGHT
350
9BB
  3
PSOLWIDTH
350
9BA
  0
LAYOUT
  5
1E
102
{ACAD_REACTORS
330
1A
102
}
330
1A
100
AcDbPlotSettings
  1

  2
none_device
  4

  6

 40
0.0
 41
0.0
 42
0.0
 43
0.0
 44
0.0
 45
0.0
 46
0.0
 47
0.0
 48
0.0
 49
0.0
140
0.0
141
0.0
142
1.0
143
1.0
 70
   688
 72
     0
 73
     0
 74
     5
  7

 75
    16
147
1.0
148
0.0
149
0.0
100
AcDbLayout
  1
Layout1
 70
     1
 71
     1
 10
0.0
 20
0.0
 11
420.0
 21
297.0
 12
0.0
 22
0.0
 32
0.0
 14
1.000000000000000E+20
 24
1.000000000000000E+20
 34
1.000000000000000E+20
 15
-1.000000000000000E+20
 25
-1.000000000000000E+20
 35
-1.000000000000000E+20
146
0.0
 13
0.0
 23
0.0
 33
0.0
 16
1.0
 26
0.0
 36
0.0
 17
0.0
 27
1.0
 37
0.0
 76
     0
330
1B
  0
LAYOUT
  5
26
102
{ACAD_REACTORS
330
1A
102
}
330
1A
100
AcDbPlotSettings
  1

  2
none_device
  4

  6

 40
0.0
 41
0.0
 42
0.0
 43
0.0
 44
0.0
 45
0.0
 46
0.0
 47
0.0
 48
0.0
 49
0.0
140
0.0
141
0.0
142
1.0
143
1.0
 70
   688
 72
     0
 73
     0
 74
     5
  7

 75
    16
147
1.0
148
0.0
149
0.0
100
AcDbLayout
  1
Layout2
 70
     1
 71
     2
 10
0.0
 20
0.0
 11
0.0
 21
0.0
 12
0.0
 22
0.0
 32
0.0
 14
0.0
 24
0.0
 34
0.0
 15
0.0
 25
0.0
 35
0.0
146
0.0
 13
0.0
 23
0.0
 33
0.0
 16
1.0
 26
0.0
 36
0.0
 17
0.0
 27
1.0
 37
0.0
 76
     0
330
23
  0
LAYOUT
  5
22
102
{ACAD_REACTORS
330
1A
102
}
330
1A
100
AcDbPlotSettings
  1

  2
none_device
  4

  6

 40
0.0
 41
0.0
 42
0.0
 43
0.0
 44
0.0
 45
0.0
 46
0.0
 47
0.0
 48
0.0
 49
0.0
140
0.0
141
0.0
142
1.0
143
1.0
 70
  1712
 72
     0
 73
     0
 74
     0
  7

 75
     0
147
1.0
148
0.0
149
0.0
100
AcDbLayout
  1
Model
 70
     1
 71
     0
 10
0.0
 20
0.0
 11
420.0
 21
297.0
 12
0.0
 22
0.0
 32
0.0
 14
0.0
 24
0.0
 34
0.0
 15
25.0
 25
35.0
 35
0.0
146
0.0
 13
0.0
 23
0.0
 33
0.0
 16
1.0
 26
0.0
 36
0.0
 17
0.0
 27
1.0
 37
0.0
 76
     0
330
1F
331
29
  0
MATERIAL
  5
3D
102
{ACAD_REACTORS
330
3B
102
}
102
{ACAD_XDICTIONARY
360
9E1
102
}
330
3B
100
AcDbMaterial
  1
ByBlock
  0
MATERIAL
  5
3C
102
{ACAD_REACTORS
330
3B
102
}
102
{ACAD_XDICTIONARY
360
9DF
102
}
330
3B
100
AcDbMaterial
  1
ByLayer
  0
MATERIAL
  5
3E
102
{ACAD_REACTORS
330
3B
102
}
102
{ACAD_XDICTIONARY
360
9E3
102
}
330
3B
100
AcDbMaterial
  1
Global
  0
MLINESTYLE
  5
18
102
{ACAD_REACTORS
330
17
102
}
330
17
100
AcDbMlineStyle
  2
Standard
 70
     0
  3

 62
   256
 51
90.0
 52
90.0
 71
     2
 49
0.5
 62
   256
  6
BYLAYER
 49
-0.5
 62
   256
  6
BYLAYER
  0
ACDBPLACEHOLDER
  5
F
102
{ACAD_REACTORS
330
E
102
}
330
E
  0
SCALE
  5
2F7
102
{ACAD_REACTORS
330
2F6
102
}
330
2F6
100
AcDbScale
 70
     0
300
1:1
140
1.0
141
1.0
290
     1
  0
SCALE
  5
2F8
102
{ACAD_REACTORS
330
2F6
102
}
330
2F6
100
AcDbScale
 70
     0
300
1:2
140
1.0
141
2.0
290
     0
  0
SCALE
  5
2F9
102
{ACAD_REACTORS
330
2F6
102
}
330
2F6
100
AcDbScale
 70
     0
300
1:4
140
1.0
141
4.0
290
     0
  0
SCALE
  5
2FA
102
{ACAD_REACTORS
330
2F6
102
}
330
2F6
100
AcDbScale
 70
     0
300
1:5
140
1.0
141
5.0
290
     0
  0
SCALE
  5
2FB
102
{ACAD_REACTORS
330
2F6
102
}
330
2F6
100
AcDbScale
 70
     0
300
1:8
140
1.0
141
8.0
290
     0
  0
SCALE
  5
2FC
102
{ACAD_REACTORS
330
2F6
102
}
330
2F6
100
AcDbScale
 70
     0
300
1:10
140
1.0
141
10.0
290
     0
  0
SCALE
  5
2FD
102
{ACAD_REACTORS
330
2F6
102
}
330
2F6
100
AcDbScale
 70
     0
300
1:16
140
1.0
141
16.0
290
     0
  0
SCALE
  5
2FE
102
{ACAD_REACTORS
330
2F6
102
}
330
2F6
100
AcDbScale
 70
     0
300
1:20
140
1.0
141
20.0
290
     0
  0
SCALE
  5
2FF
102
{ACAD_REACTORS
330
2F6
102
}
330
2F6
100
AcDbScale
 70
     0
300
1:30
140
1.0
141
30.0
290
     0
  0
SCALE
  5
300
102
{ACAD_REACTORS
330
2F6
102
}
330
2F6
100
AcDbScale
 70
     0
300
1:40
140
1.0
141
40.0
290
     0
  0
SCALE
  5
301
102
{ACAD_REACTORS
330
2F6
102
}
330
2F6
100
AcDbScale
 70
     0
300
1:50
140
1.0
141
50.0
290
     0
  0
SCALE
  5
302
102
{ACAD_REACTORS
330
2F6
102
}
330
2F6
100
AcDbScale
 70
     0
300
1:100
140
1.0
141
100.0
290
     0
  0
SCALE
  5
303
102
{ACAD_REACTORS
330
2F6
102
}
330
2F6
100
AcDbScale
 70
     0
300
2:1
140
2.0
141
1.0
290
     0
  0
SCALE
  5
304
102
{ACAD_REACTORS
330
2F6
102
}
330
2F6
100
AcDbScale
 70
     0
300
4:1
140
4.0
141
1.0
290
     0
  0
SCALE
  5
305
102
{ACAD_REACTORS
330
2F6
102
}
330
2F6
100
AcDbScale
 70
     0
300
8:1
140
8.0
141
1.0
290
     0
  0
SCALE
  5
306
102
{ACAD_REACTORS
330
2F6
102
}
330
2F6
100
AcDbScale
 70
     0
300
10:1
140
10.0
141
1.0
290
     0
  0
SCALE
  5
307
102
{ACAD_REACTORS
330
2F6
102
}
330
2F6
100
AcDbScale
 70
     0
300
100:1
140
100.0
141
1.0
290
     0
  0
SCALE
  5
308
102
{ACAD_REACTORS
330
2F6
102
}
330
2F6
100
AcDbScale
 70
     0
300
1/128" = 1'-0"
140
0.0078125
141
12.0
290
     0
  0
SCALE
  5
309
102
{ACAD_REACTORS
330
2F6
102
}
330
2F6
100
AcDbScale
 70
     0
300
1/64" = 1'-0"
140
0.015625
141
12.0
290
     0
  0
SCALE
  5
30A
102
{ACAD_REACTORS
330
2F6
102
}
330
2F6
100
AcDbScale
 70
     0
300
1/32" = 1'-0"
140
0.03125
141
12.0
290
     0
  0
SCALE
  5
30B
102
{ACAD_REACTORS
330
2F6
102
}
330
2F6
100
AcDbScale
 70
     0
300
1/16" = 1'-0"
140
0.0625
141
12.0
290
     0
  0
SCALE
  5
30C
102
{ACAD_REACTORS
330
2F6
102
}
330
2F6
100
AcDbScale
 70
     0
300
3/32" = 1'-0"
140
0.09375
141
12.0
290
     0
  0
SCALE
  5
30D
102
{ACAD_REACTORS
330
2F6
102
}
330
2F6
100
AcDbScale
 70
     0
300
1/8" = 1'-0"
140
0.125
141
12.0
290
     0
  0
SCALE
  5
30E
102
{ACAD_REACTORS
330
2F6
102
}
330
2F6
100
AcDbScale
 70
     0
300
3/16" = 1'-0"
140
0.1875
141
12.0
290
     0
  0
SCALE
  5
30F
102
{ACAD_REACTORS
330
2F6
102
}
330
2F6
100
AcDbScale
 70
     0
300
1/4" = 1'-0"
140
0.25
141
12.0
290
     0
  0
SCALE
  5
310
102
{ACAD_REACTORS
330
2F6
102
}
330
2F6
100
AcDbScale
 70
     0
300
3/8" = 1'-0"
140
0.375
141
12.0
290
     0
  0
SCALE
  5
311
102
{ACAD_REACTORS
330
2F6
102
}
330
2F6
100
AcDbScale
 70
     0
300
1/2" = 1'-0"
140
0.5
141
12.0
290
     0
  0
SCALE
  5
312
102
{ACAD_REACTORS
330
2F6
102
}
330
2F6
100
AcDbScale
 70
     0
300
3/4" = 1'-0"
140
0.75
141
12.0
290
     0
  0
SCALE
  5
313
102
{ACAD_REACTORS
330
2F6
102
}
330
2F6
100
AcDbScale
 70
     0
300
1" = 1'-0"
140
1.0
141
12.0
290
     0
  0
SCALE
  5
314
102
{ACAD_REACTORS
330
2F6
102
}
330
2F6
100
AcDbScale
 70
     0
300
1-1/2" = 1'-0"
140
1.5
141
12.0
290
     0
  0
SCALE
  5
315
102
{ACAD_REACTORS
330
2F6
102
}
330
2F6
100
AcDbScale
 70
     0
300
3" = 1'-0"
140
3.0
141
12.0
290
     0
  0
SCALE
  5
316
102
{ACAD_REACTORS
330
2F6
102
}
330
2F6
100
AcDbScale
 70
     0
300
6" = 1'-0"
140
6.0
141
12.0
290
     0
  0
SCALE
  5
317
102
{ACAD_REACTORS
330
2F6
102
}
330
2F6
100
AcDbScale
 70
     0
300
1'-0" = 1'-0"
140
12.0
141
12.0
290
     0
  0
VISUALSTYLE
  5
2F
102
{ACAD_REACTORS
330
2A
102
}
102
{ACAD_XDICTIONARY
360
9C7
102
}
330
2A
100
AcDbVisualStyle
  2
2dWireframe
 70
     4
 71
     0
 72
     2
 73
     0
 90
        0
 40
-0.6
 41
-30.0
 62
     5
 63
     7
 74
     1
 91
        4
 64
     7
 65
   257
 75
     1
175
     1
 42
1.0
 92
        0
 66
   257
 43
1.0
 76
     1
 77
     6
 78
     2
 67
     7
 79
     5
170
     0
171
     0
290
     0
174
     0
 93
        1
 44
0.0
173
     0
291
     0
 45
0.0
1001
ACAD
1000
AcDbSavedByObjectVersion
1070
     0
  0
VISUALSTYLE
  5
31
102
{ACAD_REACTORS
330
2A
102
}
102
{ACAD_XDICTIONARY
360
9CB
102
}
330
2A
100
AcDbVisualStyle
  2
3D Hidden
 70
     6
 71
     1
 72
     2
 73
     2
 90
        0
 40
-0.6
 41
-30.0
 62
     5
 63
     7
 74
     2
 91
        2
 64
     7
 65
   257
 75
     2
175
     1
 42
40.0
 92
        0
 66
   257
 43
1.0
 76
     1
 77
     6
 78
     2
 67
     7
 79
     3
170
     0
171
     0
290
     0
174
     0
 93
        1
 44
0.0
173
     0
291
     0
 45
0.0
1001
ACAD
1000
AcDbSavedByObjectVersion
1070
     0
  0
VISUALSTYLE
  5
30
102
{ACAD_REACTORS
330
2A
102
}
102
{ACAD_XDICTIONARY
360
9C9
102
}
330
2A
100
AcDbVisualStyle
  2
3dWireframe
 70
     5
 71
     0
 72
     2
 73
     0
 90
        0
 40
-0.6
 41
-30.0
 62
     5
 63
     7
 74
     1
 91
        4
 64
     7
 65
   257
 75
     1
175
     1
 42
1.0
 92
        0
 66
   257
 43
1.0
 76
     1
 77
     6
 78
     2
 67
     7
 79
     5
170
     0
171
     0
290
     0
174
     0
 93
        1
 44
0.0
173
     0
291
     0
 45
0.0
1001
ACAD
1000
AcDbSavedByObjectVersion
1070
     0
  0
VISUALSTYLE
  5
32
102
{ACAD_REACTORS
330
2A
102
}
102
{ACAD_XDICTIONARY
360
9CD
102
}
330
2A
100
AcDbVisualStyle
  2
Basic
 70
     7
 71
     1
 72
     0
 73
     1
 90
        0
 40
-0.6
 41
-30.0
 62
     5
 63
     7
 74
     0
 91
        4
 64
     7
 65
   257
 75
     1
175
     1
 42
1.0
 92
        8
 66
     7
 43
1.0
 76
     1
 77
     6
 78
     2
 67
     7
 79
     5
170
     0
171
     0
290
     0
174
     0
 93
        1
 44
0.0
173
     0
291
     1
 45
0.0
1001
ACAD
1000
AcDbSavedByObjectVersion
1070
     0
  0
VISUALSTYLE
  5
36
102
{ACAD_REACTORS
330
2A
102
}
102
{ACAD_XDICTIONARY
360
9D5
102
}
330
2A
100
AcDbVisualStyle
  2
Brighten
 70
    12
 71
     2
 72
     2
 73
     0
 90
        0
 40
-0.6
 41
-30.0
 62
     5
 63
     7
 74
     1
 91
        4
 64
     7
 65
   257
 75
     1
175
     1
 42
1.0
 92
        8
 66
     7
 43
1.0
 76
     1
 77
     6
 78
     2
 67
     7
 79
     5
170
     0
171
     0
290
     0
174
     0
 93
        1
 44
50.0
173
     0
291
     1
 45
0.0
1001
ACAD
1000
AcDbSavedByObjectVersion
1070
     0
  0
VISUALSTYLE
  5
3A
102
{ACAD_REACTORS
330
2A
102
}
102
{ACAD_XDICTIONARY
360
9DD
102
}
330
2A
100
AcDbVisualStyle
  2
ColorChange
 70
    16
 71
     2
 72
     2
 73
     3
 90
        0
 40
-0.6
 41
-30.0
 62
     5
 63
     8
 74
     1
 91
        4
 64
     7
 65
   257
 75
     1
175
     1
 42
1.0
 92
        8
 66
     8
 43
1.0
 76
     1
 77
     6
 78
     2
 67
     7
 79
     5
170
     0
171
     0
290
     0
174
     0
 93
        1
 44
0.0
173
     0
291
     1
 45
0.0
1001
ACAD
1000
AcDbSavedByObjectVersion
1070
     0
  0
VISUALSTYLE
  5
34
102
{ACAD_REACTORS
330
2A
102
}
102
{ACAD_XDICTIONARY
360
9D1
102
}
330
2A
100
AcDbVisualStyle
  2
Conceptual
 70
     9
 71
     3
 72
     2
 73
     0
 90
        0
 40
-0.6
 41
-30.0
 62
     5
 63
     7
 74
     2
 91
        2
 64
     7
 65
   257
 75
     1
175
     1
 42
40.0
 92
        8
 66
     7
 43
1.0
 76
     1
 77
     6
 78
     2
 67
     7
 79
     3
170
     0
171
     0
290
     0
174
     0
 93
        1
 44
0.0
173
     0
291
     0
 45
0.0
1001
ACAD
1000
AcDbSavedByObjectVersion
1070
     0
  0
VISUALSTYLE
  5
35
102
{ACAD_REACTORS
330
2A
102
}
102
{ACAD_XDICTIONARY
360
9D3
102
}
330
2A
100
AcDbVisualStyle
  2
Dim
 70
    11
 71
     2
 72
     2
 73
     0
 90
        0
 40
-0.6
 41
-30.0
 62
     5
 63
     7
 74
     1
 91
        4
 64
     7
 65
   257
 75
     1
175
     1
 42
1.0
 92
        8
 66
     7
 43
1.0
 76
     1
 77
     6
 78
     2
 67
     7
 79
     5
170
     0
171
     0
290
     0
174
     0
 93
        1
 44
-50.0
173
     0
291
     1
 45
0.0
1001
ACAD
1000
AcDbSavedByObjectVersion
1070
     0
  0
VISUALSTYLE
  5
39
102
{ACAD_REACTORS
330
2A
102
}
102
{ACAD_XDICTIONARY
360
9DB
102
}
330
2A
100
AcDbVisualStyle
  2
Facepattern
 70
    15
 71
     2
 72
     2
 73
     0
 90
        0
 40
-0.6
 41
-30.0
 62
     5
 63
     7
 74
     1
 91
        4
 64
     7
 65
   257
 75
     1
175
     1
 42
1.0
 92
        8
 66
     7
 43
1.0
 76
     1
 77
     6
 78
     2
 67
     7
 79
     5
170
     0
171
     0
290
     0
174
     0
 93
        1
 44
0.0
173
     0
291
     1
 45
0.0
1001
ACAD
1000
AcDbSavedByObjectVersion
1070
     0
  0
VISUALSTYLE
  5
2B
102
{ACAD_REACTORS
330
2A
102
}
102
{ACAD_XDICTIONARY
360
9BF
102
}
330
2A
100
AcDbVisualStyle
  2
Flat
 70
     0
 71
     2
 72
     1
 73
     1
 90
        2
 40
-0.6
 41
30.0
 62
     5
 63
     7
 74
     0
 91
        4
 64
     7
 65
   257
 75
     1
175
     1
 42
1.0
 92
        8
 66
     7
 43
1.0
 76
     1
 77
     6
 78
     2
 67
     7
 79
     5
170
     0
171
     0
290
     0
174
     0
 93
       13
 44
0.0
173
     0
291
     1
 45
0.0
1001
ACAD
1000
AcDbSavedByObjectVersion
1070
     0
  0
VISUALSTYLE
  5
2C
102
{ACAD_REACTORS
330
2A
102
}
102
{ACAD_XDICTIONARY
360
9C1
102
}
330
2A
100
AcDbVisualStyle
  2
FlatWithEdges
 70
     1
 71
     2
 72
     1
 73
     1
 90
        2
 40
-0.6
 41
30.0
 62
     5
 63
     7
 74
     1
 91
        4
 64
     7
 65
   257
 75
     1
175
     1
 42
1.0
 92
        0
 66
   257
 43
1.0
 76
     1
 77
     6
 78
     2
 67
     7
 79
     5
170
     0
171
     0
290
     0
174
     0
 93
       13
 44
0.0
173
     0
291
     1
 45
0.0
1001
ACAD
1000
AcDbSavedByObjectVersion
1070
     0
  0
VISUALSTYLE
  5
2D
102
{ACAD_REACTORS
330
2A
102
}
102
{ACAD_XDICTIONARY
360
9C3
102
}
330
2A
100
AcDbVisualStyle
  2
Gouraud
 70
     2
 71
     2
 72
     2
 73
     1
 90
        2
 40
-0.6
 41
30.0
 62
     5
 63
     7
 74
     0
 91
        4
 64
     7
 65
   257
 75
     1
175
     1
 42
1.0
 92
        0
 66
     7
 43
1.0
 76
     1
 77
     6
 78
     2
 67
     7
 79
     5
170
     0
171
     0
290
     0
174
     0
 93
       13
 44
0.0
173
     0
291
     1
 45
0.0
1001
ACAD
1000
AcDbSavedByObjectVersion
1070
     0
  0
VISUALSTYLE
  5
2E
102
{ACAD_REACTORS
330
2A
102
}
102
{ACAD_XDICTIONARY
360
9C5
102
}
330
2A
100
AcDbVisualStyle
  2
GouraudWithEdges
 70
     3
 71
     2
 72
     2
 73
     1
 90
        2
 40
-0.6
 41
30.0
 62
     5
 63
     7
 74
     1
 91
        4
 64
     7
 65
   257
 75
     1
175
     1
 42
1.0
 92
        0
 66
   257
 43
1.0
 76
     1
 77
     6
 78
     2
 67
     7
 79
     5
170
     0
171
     0
290
     0
174
     0
 93
       13
 44
0.0
173
     0
291
     1
 45
0.0
1001
ACAD
1000
AcDbSavedByObjectVersion
1070
     0
  0
VISUALSTYLE
  5
38
102
{ACAD_REACTORS
330
2A
102
}
102
{ACAD_XDICTIONARY
360
9D9
102
}
330
2A
100
AcDbVisualStyle
  2
Linepattern
 70
    14
 71
     2
 72
     2
 73
     0
 90
        0
 40
-0.6
 41
-30.0
 62
     5
 63
     7
 74
     1
 91
        4
 64
     7
 65
   257
 75
     7
175
     7
 42
1.0
 92
        8
 66
     7
 43
1.0
 76
     1
 77
     6
 78
     2
 67
     7
 79
     5
170
     0
171
     0
290
     0
174
     0
 93
        1
 44
0.0
173
     0
291
     1
 45
0.0
1001
ACAD
1000
AcDbSavedByObjectVersion
1070
     0
  0
VISUALSTYLE
  5
33
102
{ACAD_REACTORS
330
2A
102
}
102
{ACAD_XDICTIONARY
360
9CF
102
}
330
2A
100
AcDbVisualStyle
  2
Realistic
 70
     8
 71
     2
 72
     2
 73
     0
 90
        0
 40
-0.6
 41
-30.0
 62
     5
 63
     7
 74
     1
 91
        0
 64
     7
 65
   257
 75
     1
175
     1
 42
1.0
 92
        8
 66
     8
 43
1.0
 76
     1
 77
     6
 78
     2
 67
     7
 79
     5
170
     0
171
     0
290
     0
174
     0
 93
       13
 44
0.0
173
     0
291
     0
 45
0.0
1001
ACAD
1000
AcDbSavedByObjectVersion
1070
     0
  0
VISUALSTYLE
  5
37
102
{ACAD_REACTORS
330
2A
102
}
102
{ACAD_XDICTIONARY
360
9D7
102
}
330
2A
100
AcDbVisualStyle
  2
Thicken
 70
    13
 71
     2
 72
     2
 73
     0
 90
        0
 40
-0.6
 41
-30.0
 62
     5
 63
     7
 74
     1
 91
        4
 64
     7
 65
   257
 75
     1
175
     1
 42
1.0
 92
       12
 66
     7
 43
1.0
 76
     1
 77
     6
 78
     2
 67
     7
 79
     5
170
     0
171
     0
290
     0
174
     0
 93
        1
 44
0.0
173
     0
291
     1
 45
0.0
1001
ACAD
1000
AcDbSavedByObjectVersion
1070
     0
  0
DICTIONARYVAR
  5
9BC
102
{ACAD_REACTORS
330
9B7
102
}
330
9B7
100
DictionaryVariables
280
     0
  1
1:1
  0
DICTIONARYVAR
  5
9BD
102
{ACAD_REACTORS
330
9B7
102
}
330
9B7
100
DictionaryVariables
280
     0
  1
2
  0
DICTIONARYVAR
  5
9BE
102
{ACAD_REACTORS
330
9B7
102
}
330
9B7
100
DictionaryVariables
280
     0
  1
1
  0
DICTIONARYVAR
  5
9BB
102
{ACAD_REACTORS
330
9B7
102
}
330
9B7
100
DictionaryVariables
280
     0
  1
80.000000
  0
DICTIONARYVAR
  5
9BA
102
{ACAD_REACTORS
330
9B7
102
}
330
9B7
100
DictionaryVariables
280
     0
  1
5.000000
  0
DICTIONARY
  5
9E1
330
3D
100
AcDbDictionary
280
     1
281
     1
  3
ACAD_XREC_ROUNDTRIP
360
9E2
  0
DICTIONARY
  5
9DF
330
3C
100
AcDbDictionary
280
     1
281
     1
  3
ACAD_XREC_ROUNDTRIP
360
9E0
  0
DICTIONARY
  5
9E3
330
3E
100
AcDbDictionary
280
     1
281
     1
  3
ACAD_XREC_ROUNDTRIP
360
9E4
  0
DICTIONARY
  5
9C7
330
2F
100
AcDbDictionary
280
     1
281
     1
  3
ACAD_XREC_ROUNDTRIP
360
9C8
  0
DICTIONARY
  5
9CB
330
31
100
AcDbDictionary
280
     1
281
     1
  3
ACAD_XREC_ROUNDTRIP
360
9CC
  0
DICTIONARY
  5
9C9
330
30
100
AcDbDictionary
280
     1
281
     1
  3
ACAD_XREC_ROUNDTRIP
360
9CA
  0
DICTIONARY
  5
9CD
330
32
100
AcDbDictionary
280
     1
281
     1
  3
ACAD_XREC_ROUNDTRIP
360
9CE
  0
DICTIONARY
  5
9D5
330
36
100
AcDbDictionary
280
     1
281
     1
  3
ACAD_XREC_ROUNDTRIP
360
9D6
  0
DICTIONARY
  5
9DD
330
3A
100
AcDbDictionary
280
     1
281
     1
  3
ACAD_XREC_ROUNDTRIP
360
9DE
  0
DICTIONARY
  5
9D1
330
34
100
AcDbDictionary
280
     1
281
     1
  3
ACAD_XREC_ROUNDTRIP
360
9D2
  0
DICTIONARY
  5
9D3
330
35
100
AcDbDictionary
280
     1
281
     1
  3
ACAD_XREC_ROUNDTRIP
360
9D4
  0
DICTIONARY
  5
9DB
330
39
100
AcDbDictionary
280
     1
281
     1
  3
ACAD_XREC_ROUNDTRIP
360
9DC
  0
DICTIONARY
  5
9BF
330
2B
100
AcDbDictionary
280
     1
281
     1
  3
ACAD_XREC_ROUNDTRIP
360
9C0
  0
DICTIONARY
  5
9C1
330
2C
100
AcDbDictionary
280
     1
281
     1
  3
ACAD_XREC_ROUNDTRIP
360
9C2
  0
DICTIONARY
  5
9C3
330
2D
100
AcDbDictionary
280
     1
281
     1
  3
ACAD_XREC_ROUNDTRIP
360
9C4
  0
DICTIONARY
  5
9C5
330
2E
100
AcDbDictionary
280
     1
281
     1
  3
ACAD_XREC_ROUNDTRIP
360
9C6
  0
DICTIONARY
  5
9D9
330
38
100
AcDbDictionary
280
     1
281
     1
  3
ACAD_XREC_ROUNDTRIP
360
9DA
  0
DICTIONARY
  5
9CF
330
33
100
AcDbDictionary
280
     1
281
     1
  3
ACAD_XREC_ROUNDTRIP
360
9D0
  0
DICTIONARY
  5
9D7
330
37
100
AcDbDictionary
280
     1
281
     1
  3
ACAD_XREC_ROUNDTRIP
360
9D8
  0
XRECORD
  5
9E2
102
{ACAD_REACTORS
330
9E1
102
}
330
9E1
100
AcDbXrecord
280
     1
102
MATERIAL
148
0.0
149
0.0
149
0.0
 93
        0
 94
      127
282
     0
 72
     1
 77
     1
171
     1
175
     1
179
     1
273
     0
  0
XRECORD
  5
9E0
102
{ACAD_REACTORS
330
9DF
102
}
330
9DF
100
AcDbXrecord
280
     1
102
MATERIAL
148
0.0
149
0.0
149
0.0
 93
        0
 94
      127
282
     0
 72
     1
 77
     1
171
     1
175
     1
179
     1
273
     0
  0
XRECORD
  5
9E4
102
{ACAD_REACTORS
330
9E3
102
}
330
9E3
100
AcDbXrecord
280
     1
102
MATERIAL
148
0.0
149
0.0
149
0.0
 93
        0
 94
      127
282
     0
 72
     1
 77
     1
171
     1
175
     1
179
     1
273
     0
  0
XRECORD
  5
9C8
102
{ACAD_REACTORS
330
9C7
102
}
330
9C7
100
AcDbXrecord
280
     1
102
RTVSPropertyOp0
 70
     1
102
RTVSPropertyOp1
 70
     1
102
RTVSPropertyOp2
 70
     1
102
RTVSPropertyOp3
 70
     1
102
RTVSPropertyOp4
 70
     1
102
RTVSPropertyOp5
 70
     1
102
RTVSPropertyOp6
 70
     1
102
RTVSPropertyOp7
 70
     1
102
RTVSPropertyOp8
 70
     1
102
RTVSPropertyOp9
 70
     1
102
RTVSPropertyOp10
 70
     1
102
RTVSPropertyOp11
 70
     1
102
RTVSPropertyOp12
 70
     1
102
RTVSPropertyOp13
 70
     1
102
RTVSPropertyOp14
 70
     1
102
RTVSPropertyOp15
 70
     1
102
RTVSPropertyOp16
 70
     1
102
RTVSPropertyOp17
 70
     1
102
RTVSPropertyOp18
 70
     1
102
RTVSPropertyOp19
 70
     1
102
RTVSPropertyOp20
 70
     1
102
RTVSPropertyOp21
 70
     1
102
RTVSPropertyOp22
 70
     1
102
RTVSPropertyOp23
 70
     1
102
RTVSPropertyOp24
 70
     1
102
RTVSPropertyOp25
 70
     1
102
RTVSPropertyOp26
 70
     1
102
RTVSPropertyOp27
 70
     1
  0
XRECORD
  5
9CC
102
{ACAD_REACTORS
330
9CB
102
}
330
9CB
100
AcDbXrecord
280
     1
102
RTVSPropertyOp0
 70
     1
102
RTVSPropertyOp1
 70
     1
102
RTVSPropertyOp2
 70
     1
102
RTVSPropertyOp3
 70
     1
102
RTVSPropertyOp4
 70
     1
102
RTVSPropertyOp5
 70
     1
102
RTVSPropertyOp6
 70
     1
102
RTVSPropertyOp7
 70
     1
102
RTVSPropertyOp8
 70
     1
102
RTVSPropertyOp9
 70
     1
102
RTVSPropertyOp10
 70
     1
102
RTVSPropertyOp11
 70
     1
102
RTVSPropertyOp12
 70
     1
102
RTVSPropertyOp13
 70
     1
102
RTVSPropertyOp14
 70
     1
102
RTVSPropertyOp15
 70
     1
102
RTVSPropertyOp16
 70
     1
102
RTVSPropertyOp17
 70
     1
102
RTVSPropertyOp18
 70
     1
102
RTVSPropertyOp19
 70
     1
102
RTVSPropertyOp20
 70
     1
102
RTVSPropertyOp21
 70
     1
102
RTVSPropertyOp22
 70
     1
102
RTVSPropertyOp23
 70
     1
102
RTVSPropertyOp24
 70
     1
102
RTVSPropertyOp25
 70
     1
102
RTVSPropertyOp26
 70
     1
102
RTVSPropertyOp27
 70
     1
  0
XRECORD
  5
9CA
102
{ACAD_REACTORS
330
9C9
102
}
330
9C9
100
AcDbXrecord
280
     1
102
RTVSPropertyOp0
 70
     1
102
RTVSPropertyOp1
 70
     1
102
RTVSPropertyOp2
 70
     1
102
RTVSPropertyOp3
 70
     1
102
RTVSPropertyOp4
 70
     1
102
RTVSPropertyOp5
 70
     1
102
RTVSPropertyOp6
 70
     1
102
RTVSPropertyOp7
 70
     1
102
RTVSPropertyOp8
 70
     1
102
RTVSPropertyOp9
 70
     1
102
RTVSPropertyOp10
 70
     1
102
RTVSPropertyOp11
 70
     1
102
RTVSPropertyOp12
 70
     1
102
RTVSPropertyOp13
 70
     1
102
RTVSPropertyOp14
 70
     1
102
RTVSPropertyOp15
 70
     1
102
RTVSPropertyOp16
 70
     1
102
RTVSPropertyOp17
 70
     1
102
RTVSPropertyOp18
 70
     1
102
RTVSPropertyOp19
 70
     1
102
RTVSPropertyOp20
 70
     1
102
RTVSPropertyOp21
 70
     1
102
RTVSPropertyOp22
 70
     1
102
RTVSPropertyOp23
 70
     1
102
RTVSPropertyOp24
 70
     1
102
RTVSPropertyOp25
 70
     1
102
RTVSPropertyOp26
 70
     1
102
RTVSPropertyOp27
 70
     1
  0
XRECORD
  5
9CE
102
{ACAD_REACTORS
330
9CD
102
}
330
9CD
100
AcDbXrecord
280
     1
102
RTVSPropertyOp0
 70
     1
102
RTVSPropertyOp1
 70
     1
102
RTVSPropertyOp2
 70
     1
102
RTVSPropertyOp3
 70
     1
102
RTVSPropertyOp4
 70
     1
102
RTVSPropertyOp5
 70
     1
102
RTVSPropertyOp6
 70
     1
102
RTVSPropertyOp7
 70
     1
102
RTVSPropertyOp8
 70
     1
102
RTVSPropertyOp9
 70
     1
102
RTVSPropertyOp10
 70
     1
102
RTVSPropertyOp11
 70
     1
102
RTVSPropertyOp12
 70
     1
102
RTVSPropertyOp13
 70
     1
102
RTVSPropertyOp14
 70
     1
102
RTVSPropertyOp15
 70
     1
102
RTVSPropertyOp16
 70
     1
102
RTVSPropertyOp17
 70
     1
102
RTVSPropertyOp18
 70
     1
102
RTVSPropertyOp19
 70
     1
102
RTVSPropertyOp20
 70
     1
102
RTVSPropertyOp21
 70
     1
102
RTVSPropertyOp22
 70
     1
102
RTVSPropertyOp23
 70
     1
102
RTVSPropertyOp24
 70
     1
102
RTVSPropertyOp25
 70
     1
102
RTVSPropertyOp26
 70
     1
102
RTVSPropertyOp27
 70
     1
  0
XRECORD
  5
9D6
102
{ACAD_REACTORS
330
9D5
102
}
330
9D5
100
AcDbXrecord
280
     1
102
RTVSPropertyOp0
 70
     1
102
RTVSPropertyOp1
 70
     1
102
RTVSPropertyOp2
 70
     1
102
RTVSPropertyOp3
 70
     1
102
RTVSPropertyOp4
 70
     1
102
RTVSPropertyOp5
 70
     1
102
RTVSPropertyOp6
 70
     1
102
RTVSPropertyOp7
 70
     1
102
RTVSPropertyOp8
 70
     1
102
RTVSPropertyOp9
 70
     1
102
RTVSPropertyOp10
 70
     1
102
RTVSPropertyOp11
 70
     1
102
RTVSPropertyOp12
 70
     1
102
RTVSPropertyOp13
 70
     1
102
RTVSPropertyOp14
 70
     1
102
RTVSPropertyOp15
 70
     1
102
RTVSPropertyOp16
 70
     1
102
RTVSPropertyOp17
 70
     1
102
RTVSPropertyOp18
 70
     1
102
RTVSPropertyOp19
 70
     1
102
RTVSPropertyOp20
 70
     1
102
RTVSPropertyOp21
 70
     1
102
RTVSPropertyOp22
 70
     1
102
RTVSPropertyOp23
 70
     1
102
RTVSPropertyOp24
 70
     1
102
RTVSPropertyOp25
 70
     1
102
RTVSPropertyOp26
 70
     1
102
RTVSPropertyOp27
 70
     1
  0
XRECORD
  5
9DE
102
{ACAD_REACTORS
330
9DD
102
}
330
9DD
100
AcDbXrecord
280
     1
102
RTVSPropertyOp0
 70
     1
102
RTVSPropertyOp1
 70
     1
102
RTVSPropertyOp2
 70
     1
102
RTVSPropertyOp3
 70
     1
102
RTVSPropertyOp4
 70
     1
102
RTVSPropertyOp5
 70
     1
102
RTVSPropertyOp6
 70
     1
102
RTVSPropertyOp7
 70
     1
102
RTVSPropertyOp8
 70
     1
102
RTVSPropertyOp9
 70
     1
102
RTVSPropertyOp10
 70
     1
102
RTVSPropertyOp11
 70
     1
102
RTVSPropertyOp12
 70
     1
102
RTVSPropertyOp13
 70
     1
102
RTVSPropertyOp14
 70
     1
102
RTVSPropertyOp15
 70
     1
102
RTVSPropertyOp16
 70
     1
102
RTVSPropertyOp17
 70
     1
102
RTVSPropertyOp18
 70
     1
102
RTVSPropertyOp19
 70
     1
102
RTVSPropertyOp20
 70
     1
102
RTVSPropertyOp21
 70
     1
102
RTVSPropertyOp22
 70
     1
102
RTVSPropertyOp23
 70
     1
102
RTVSPropertyOp24
 70
     1
102
RTVSPropertyOp25
 70
     1
102
RTVSPropertyOp26
 70
     1
102
RTVSPropertyOp27
 70
     1
  0
XRECORD
  5
9D2
102
{ACAD_REACTORS
330
9D1
102
}
330
9D1
100
AcDbXrecord
280
     1
102
RTVSPropertyOp0
 70
     1
102
RTVSPropertyOp1
 70
     1
102
RTVSPropertyOp2
 70
     1
102
RTVSPropertyOp3
 70
     1
102
RTVSPropertyOp4
 70
     1
102
RTVSPropertyOp5
 70
     1
102
RTVSPropertyOp6
 70
     1
102
RTVSPropertyOp7
 70
     1
102
RTVSPropertyOp8
 70
     1
102
RTVSPropertyOp9
 70
     1
102
RTVSPropertyOp10
 70
     1
102
RTVSPropertyOp11
 70
     1
102
RTVSPropertyOp12
 70
     1
102
RTVSPropertyOp13
 70
     1
102
RTVSPropertyOp14
 70
     1
102
RTVSPropertyOp15
 70
     1
102
RTVSPropertyOp16
 70
     1
102
RTVSPropertyOp17
 70
     1
102
RTVSPropertyOp18
 70
     1
102
RTVSPropertyOp19
 70
     1
102
RTVSPropertyOp20
 70
     1
102
RTVSPropertyOp21
 70
     1
102
RTVSPropertyOp22
 70
     1
102
RTVSPropertyOp23
 70
     1
102
RTVSPropertyOp24
 70
     1
102
RTVSPropertyOp25
 70
     1
102
RTVSPropertyOp26
 70
     1
102
RTVSPropertyOp27
 70
     1
  0
XRECORD
  5
9D4
102
{ACAD_REACTORS
330
9D3
102
}
330
9D3
100
AcDbXrecord
280
     1
102
RTVSPropertyOp0
 70
     1
102
RTVSPropertyOp1
 70
     1
102
RTVSPropertyOp2
 70
     1
102
RTVSPropertyOp3
 70
     1
102
RTVSPropertyOp4
 70
     1
102
RTVSPropertyOp5
 70
     1
102
RTVSPropertyOp6
 70
     1
102
RTVSPropertyOp7
 70
     1
102
RTVSPropertyOp8
 70
     1
102
RTVSPropertyOp9
 70
     1
102
RTVSPropertyOp10
 70
     1
102
RTVSPropertyOp11
 70
     1
102
RTVSPropertyOp12
 70
     1
102
RTVSPropertyOp13
 70
     1
102
RTVSPropertyOp14
 70
     1
102
RTVSPropertyOp15
 70
     1
102
RTVSPropertyOp16
 70
     1
102
RTVSPropertyOp17
 70
     1
102
RTVSPropertyOp18
 70
     1
102
RTVSPropertyOp19
 70
     1
102
RTVSPropertyOp20
 70
     1
102
RTVSPropertyOp21
 70
     1
102
RTVSPropertyOp22
 70
     1
102
RTVSPropertyOp23
 70
     1
102
RTVSPropertyOp24
 70
     1
102
RTVSPropertyOp25
 70
     1
102
RTVSPropertyOp26
 70
     1
102
RTVSPropertyOp27
 70
     1
  0
XRECORD
  5
9DC
102
{ACAD_REACTORS
330
9DB
102
}
330
9DB
100
AcDbXrecord
280
     1
102
RTVSPropertyOp0
 70
     1
102
RTVSPropertyOp1
 70
     1
102
RTVSPropertyOp2
 70
     1
102
RTVSPropertyOp3
 70
     1
102
RTVSPropertyOp4
 70
     1
102
RTVSPropertyOp5
 70
     1
102
RTVSPropertyOp6
 70
     1
102
RTVSPropertyOp7
 70
     1
102
RTVSPropertyOp8
 70
     1
102
RTVSPropertyOp9
 70
     1
102
RTVSPropertyOp10
 70
     1
102
RTVSPropertyOp11
 70
     1
102
RTVSPropertyOp12
 70
     1
102
RTVSPropertyOp13
 70
     1
102
RTVSPropertyOp14
 70
     1
102
RTVSPropertyOp15
 70
     1
102
RTVSPropertyOp16
 70
     1
102
RTVSPropertyOp17
 70
     1
102
RTVSPropertyOp18
 70
     1
102
RTVSPropertyOp19
 70
     1
102
RTVSPropertyOp20
 70
     1
102
RTVSPropertyOp21
 70
     1
102
RTVSPropertyOp22
 70
     1
102
RTVSPropertyOp23
 70
     1
102
RTVSPropertyOp24
 70
     1
102
RTVSPropertyOp25
 70
     1
102
RTVSPropertyOp26
 70
     1
102
RTVSPropertyOp27
 70
     1
  0
XRECORD
  5
9C0
102
{ACAD_REACTORS
330
9BF
102
}
330
9BF
100
AcDbXrecord
280
     1
102
RTVSPropertyOp0
 70
     1
102
RTVSPropertyOp1
 70
     1
102
RTVSPropertyOp2
 70
     1
102
RTVSPropertyOp3
 70
     1
102
RTVSPropertyOp4
 70
     1
102
RTVSPropertyOp5
 70
     1
102
RTVSPropertyOp6
 70
     1
102
RTVSPropertyOp7
 70
     1
102
RTVSPropertyOp8
 70
     1
102
RTVSPropertyOp9
 70
     1
102
RTVSPropertyOp10
 70
     1
102
RTVSPropertyOp11
 70
     1
102
RTVSPropertyOp12
 70
     1
102
RTVSPropertyOp13
 70
     1
102
RTVSPropertyOp14
 70
     1
102
RTVSPropertyOp15
 70
     1
102
RTVSPropertyOp16
 70
     1
102
RTVSPropertyOp17
 70
     1
102
RTVSPropertyOp18
 70
     1
102
RTVSPropertyOp19
 70
     1
102
RTVSPropertyOp20
 70
     1
102
RTVSPropertyOp21
 70
     1
102
RTVSPropertyOp22
 70
     1
102
RTVSPropertyOp23
 70
     1
102
RTVSPropertyOp24
 70
     1
102
RTVSPropertyOp25
 70
     1
102
RTVSPropertyOp26
 70
     1
102
RTVSPropertyOp27
 70
     1
  0
XRECORD
  5
9C2
102
{ACAD_REACTORS
330
9C1
102
}
330
9C1
100
AcDbXrecord
280
     1
102
RTVSPropertyOp0
 70
     1
102
RTVSPropertyOp1
 70
     1
102
RTVSPropertyOp2
 70
     1
102
RTVSPropertyOp3
 70
     1
102
RTVSPropertyOp4
 70
     1
102
RTVSPropertyOp5
 70
     1
102
RTVSPropertyOp6
 70
     1
102
RTVSPropertyOp7
 70
     1
102
RTVSPropertyOp8
 70
     1
102
RTVSPropertyOp9
 70
     1
102
RTVSPropertyOp10
 70
     1
102
RTVSPropertyOp11
 70
     1
102
RTVSPropertyOp12
 70
     1
102
RTVSPropertyOp13
 70
     1
102
RTVSPropertyOp14
 70
     1
102
RTVSPropertyOp15
 70
     1
102
RTVSPropertyOp16
 70
     1
102
RTVSPropertyOp17
 70
     1
102
RTVSPropertyOp18
 70
     1
102
RTVSPropertyOp19
 70
     1
102
RTVSPropertyOp20
 70
     1
102
RTVSPropertyOp21
 70
     1
102
RTVSPropertyOp22
 70
     1
102
RTVSPropertyOp23
 70
     1
102
RTVSPropertyOp24
 70
     1
102
RTVSPropertyOp25
 70
     1
102
RTVSPropertyOp26
 70
     1
102
RTVSPropertyOp27
 70
     1
  0
XRECORD
  5
9C4
102
{ACAD_REACTORS
330
9C3
102
}
330
9C3
100
AcDbXrecord
280
     1
102
RTVSPropertyOp0
 70
     1
102
RTVSPropertyOp1
 70
     1
102
RTVSPropertyOp2
 70
     1
102
RTVSPropertyOp3
 70
     1
102
RTVSPropertyOp4
 70
     1
102
RTVSPropertyOp5
 70
     1
102
RTVSPropertyOp6
 70
     1
102
RTVSPropertyOp7
 70
     1
102
RTVSPropertyOp8
 70
     1
102
RTVSPropertyOp9
 70
     1
102
RTVSPropertyOp10
 70
     1
102
RTVSPropertyOp11
 70
     1
102
RTVSPropertyOp12
 70
     1
102
RTVSPropertyOp13
 70
     1
102
RTVSPropertyOp14
 70
     1
102
RTVSPropertyOp15
 70
     1
102
RTVSPropertyOp16
 70
     1
102
RTVSPropertyOp17
 70
     1
102
RTVSPropertyOp18
 70
     1
102
RTVSPropertyOp19
 70
     1
102
RTVSPropertyOp20
 70
     1
102
RTVSPropertyOp21
 70
     1
102
RTVSPropertyOp22
 70
     1
102
RTVSPropertyOp23
 70
     1
102
RTVSPropertyOp24
 70
     1
102
RTVSPropertyOp25
 70
     1
102
RTVSPropertyOp26
 70
     1
102
RTVSPropertyOp27
 70
     1
  0
XRECORD
  5
9C6
102
{ACAD_REACTORS
330
9C5
102
}
330
9C5
100
AcDbXrecord
280
     1
102
RTVSPropertyOp0
 70
     1
102
RTVSPropertyOp1
 70
     1
102
RTVSPropertyOp2
 70
     1
102
RTVSPropertyOp3
 70
     1
102
RTVSPropertyOp4
 70
     1
102
RTVSPropertyOp5
 70
     1
102
RTVSPropertyOp6
 70
     1
102
RTVSPropertyOp7
 70
     1
102
RTVSPropertyOp8
 70
     1
102
RTVSPropertyOp9
 70
     1
102
RTVSPropertyOp10
 70
     1
102
RTVSPropertyOp11
 70
     1
102
RTVSPropertyOp12
 70
     1
102
RTVSPropertyOp13
 70
     1
102
RTVSPropertyOp14
 70
     1
102
RTVSPropertyOp15
 70
     1
102
RTVSPropertyOp16
 70
     1
102
RTVSPropertyOp17
 70
     1
102
RTVSPropertyOp18
 70
     1
102
RTVSPropertyOp19
 70
     1
102
RTVSPropertyOp20
 70
     1
102
RTVSPropertyOp21
 70
     1
102
RTVSPropertyOp22
 70
     1
102
RTVSPropertyOp23
 70
     1
102
RTVSPropertyOp24
 70
     1
102
RTVSPropertyOp25
 70
     1
102
RTVSPropertyOp26
 70
     1
102
RTVSPropertyOp27
 70
     1
  0
XRECORD
  5
9DA
102
{ACAD_REACTORS
330
9D9
102
}
330
9D9
100
AcDbXrecord
280
     1
102
RTVSPropertyOp0
 70
     1
102
RTVSPropertyOp1
 70
     1
102
RTVSPropertyOp2
 70
     1
102
RTVSPropertyOp3
 70
     1
102
RTVSPropertyOp4
 70
     1
102
RTVSPropertyOp5
 70
     1
102
RTVSPropertyOp6
 70
     1
102
RTVSPropertyOp7
 70
     1
102
RTVSPropertyOp8
 70
     1
102
RTVSPropertyOp9
 70
     1
102
RTVSPropertyOp10
 70
     1
102
RTVSPropertyOp11
 70
     1
102
RTVSPropertyOp12
 70
     1
102
RTVSPropertyOp13
 70
     1
102
RTVSPropertyOp14
 70
     1
102
RTVSPropertyOp15
 70
     1
102
RTVSPropertyOp16
 70
     1
102
RTVSPropertyOp17
 70
     1
102
RTVSPropertyOp18
 70
     1
102
RTVSPropertyOp19
 70
     1
102
RTVSPropertyOp20
 70
     1
102
RTVSPropertyOp21
 70
     1
102
RTVSPropertyOp22
 70
     1
102
RTVSPropertyOp23
 70
     1
102
RTVSPropertyOp24
 70
     1
102
RTVSPropertyOp25
 70
     1
102
RTVSPropertyOp26
 70
     1
102
RTVSPropertyOp27
 70
     1
  0
XRECORD
  5
9D0
102
{ACAD_REACTORS
330
9CF
102
}
330
9CF
100
AcDbXrecord
280
     1
102
RTVSPropertyOp0
 70
     1
102
RTVSPropertyOp1
 70
     1
102
RTVSPropertyOp2
 70
     1
102
RTVSPropertyOp3
 70
     1
102
RTVSPropertyOp4
 70
     1
102
RTVSPropertyOp5
 70
     1
102
RTVSPropertyOp6
 70
     1
102
RTVSPropertyOp7
 70
     1
102
RTVSPropertyOp8
 70
     1
102
RTVSPropertyOp9
 70
     1
102
RTVSPropertyOp10
 70
     1
102
RTVSPropertyOp11
 70
     1
102
RTVSPropertyOp12
 70
     1
102
RTVSPropertyOp13
 70
     1
102
RTVSPropertyOp14
 70
     1
102
RTVSPropertyOp15
 70
     1
102
RTVSPropertyOp16
 70
     1
102
RTVSPropertyOp17
 70
     1
102
RTVSPropertyOp18
 70
     1
102
RTVSPropertyOp19
 70
     1
102
RTVSPropertyOp20
 70
     1
102
RTVSPropertyOp21
 70
     1
102
RTVSPropertyOp22
 70
     1
102
RTVSPropertyOp23
 70
     1
102
RTVSPropertyOp24
 70
     1
102
RTVSPropertyOp25
 70
     1
102
RTVSPropertyOp26
 70
     1
102
RTVSPropertyOp27
 70
     1
  0
XRECORD
  5
9D8
102
{ACAD_REACTORS
330
9D7
102
}
330
9D7
100
AcDbXrecord
280
     1
102
RTVSPropertyOp0
 70
     1
102
RTVSPropertyOp1
 70
     1
102
RTVSPropertyOp2
 70
     1
102
RTVSPropertyOp3
 70
     1
102
RTVSPropertyOp4
 70
     1
102
RTVSPropertyOp5
 70
     1
102
RTVSPropertyOp6
 70
     1
102
RTVSPropertyOp7
 70
     1
102
RTVSPropertyOp8
 70
     1
102
RTVSPropertyOp9
 70
     1
102
RTVSPropertyOp10
 70
     1
102
RTVSPropertyOp11
 70
     1
102
RTVSPropertyOp12
 70
     1
102
RTVSPropertyOp13
 70
     1
102
RTVSPropertyOp14
 70
     1
102
RTVSPropertyOp15
 70
     1
102
RTVSPropertyOp16
 70
     1
102
RTVSPropertyOp17
 70
     1
102
RTVSPropertyOp18
 70
     1
102
RTVSPropertyOp19
 70
     1
102
RTVSPropertyOp20
 70
     1
102
RTVSPropertyOp21
 70
     1
102
RTVSPropertyOp22
 70
     1
102
RTVSPropertyOp23
 70
     1
102
RTVSPropertyOp24
 70
     1
102
RTVSPropertyOp25
 70
     1
102
RTVSPropertyOp26
 70
     1
102
RTVSPropertyOp27
 70
     1
  0
ENDSEC
  0
EOF
