  0
SECTION
  2
HEADER
  9
$ACADVER
  1
AC1015
  9
$ACADMAINTVER
 70
     6
  9
$DWGCODEPAGE
  3
ANSI_1252
  9
$INSBASE
 10
0.0
 20
0.0
 30
0.0
  9
$EXTMIN
 10
0.0
 20
0.0
 30
0.0
  9
$EXTMAX
 10
25.0
 20
35.0
 30
0.0
  9
$LIMMIN
 10
0.0
 20
0.0
  9
$LIMMAX
 10
420.0
 20
297.0
  9
$ORTHOMODE
 70
     0
  9
$REGENMODE
 70
     1
  9
$FILLMODE
 70
     1
  9
$QTEXTMODE
 70
     0
  9
$MIRRTEXT
 70
     1
  9
$LTSCALE
 40
5.7
  9
$ATTMODE
 70
     1
  9
$TEXTSIZE
 40
2.5
  9
$TRACEWID
 40
1.0
  9
$TEXTSTYLE
  7
Standard
  9
$CLAYER
  8
0
  9
$CELTYPE
  6
ByLayer
  9
$CECOLOR
 62
   256
  9
$CELTSCALE
 40
1.0
  9
$DISPSILH
 70
     0
  9
$DIMSCALE
 40
1.0
  9
$DIMASZ
 40
2.5
  9
$DIMEXO
 40
0.625
  9
$DIMDLI
 40
3.75
  9
$DIMRND
 40
0.0
  9
$DIMDLE
 40
0.0
  9
$DIMEXE
 40
1.25
  9
$DIMTP
 40
0.0
  9
$DIMTM
 40
0.0
  9
$DIMTXT
 40
2.5
  9
$DIMCEN
 40
2.5
  9
$DIMTSZ
 40
0.0
  9
$DIMTOL
 70
     0
  9
$DIMLIM
 70
     0
  9
$DIMTIH
 70
     0
  9
$DIMTOH
 70
     0
  9
$DIMSE1
 70
     0
  9
$DIMSE2
 70
     0
  9
$DIMTAD
 70
     1
  9
$DIMZIN
 70
     8
  9
$DIMBLK
  1

  9
$DIMASO
 70
     1
  9
$DIMSHO
 70
     1
  9
$DIMPOST
  1

  9
$DIMAPOST
  1

  9
$DIMALT
 70
     0
  9
$DIMALTD
 70
     3
  9
$DIMALTF
 40
0.03937007874016
  9
$DIMLFAC
 40
1.0
  9
$DIMTOFL
 70
     1
  9
$DIMTVP
 40
0.0
  9
$DIMTIX
 70
     0
  9
$DIMSOXD
 70
     0
  9
$DIMSAH
 70
     0
  9
$DIMBLK1
  1

  9
$DIMBLK2
  1

  9
$DIMSTYLE
  2
ISO-25
  9
$DIMCLRD
 70
     0
  9
$DIMCLRE
 70
     0
  9
$DIMCLRT
 70
     0
  9
$DIMTFAC
 40
1.0
  9
$DIMGAP
 40
0.625
  9
$DIMJUST
 70
     0
  9
$DIMSD1
 70
     0
  9
$DIMSD2
 70
     0
  9
$DIMTOLJ
 70
     0
  9
$DIMTZIN
 70
     8
  9
$DIMALTZ
 70
     0
  9
$DIMALTTZ
 70
     0
  9
$DIMUPT
 70
     0
  9
$DIMDEC
 70
     2
  9
$DIMTDEC
 70
     2
  9
$DIMALTU
 70
     2
  9
$DIMALTTD
 70
     3
  9
$DIMTXSTY
  7
Standard
  9
$DIMAUNIT
 70
     0
  9
$DIMADEC
 70
     0
  9
$DIMALTRND
 40
0.0
  9
$DIMAZIN
 70
     0
  9
$DIMDSEP
 70
    44
  9
$DIMATFIT
 70
     3
  9
$DIMFRAC
 70
     0
  9
$DIMLDRBLK
  1

  9
$DIMLUNIT
 70
     2
  9
$DIMLWD
 70
    -2
  9
$DIMLWE
 70
    -2
  9
$DIMTMOVE
 70
     0
  9
$LUNITS
 70
     2
  9
$LUPREC
 70
     4
  9
$SKETCHINC
 40
1.0
  9
$FILLETRAD
 40
10.0
  9
$AUNITS
 70
     0
  9
$AUPREC
 70
     0
  9
$MENU
  1
.
  9
$ELEVATION
 40
0.0
  9
$PELEVATION
 40
0.0
  9
$THICKNESS
 40
0.0
  9
$LIMCHECK
 70
     0
  9
$CHAMFERA
 40
10.0
  9
$CHAMFERB
 40
10.0
  9
$CHAMFERC
 40
20.0
  9
$CHAMFERD
 40
0.0
  9
$SKPOLY
 70
     0
  9
$TDCREATE
 40
2459625.595833333
  9
$TDUCREATE
 40
2459625.554166667
  9
$TDUPDATE
 40
2459625.599305556
  9
$TDUUPDATE
 40
2459625.557638889
  9
$TDINDWG
 40
0.0000000116
  9
$TDUSRTIMER
 40
0.0000000116
  9
$USRTIMER
 70
     1
  9
$ANGBASE
 50
0.0
  9
$ANGDIR
 70
     0
  9
$PDMODE
 70
     0
  9
$PDSIZE
 40
0.0
  9
$PLINEWID
 40
0.0
  9
$SPLFRAME
 70
     0
  9
$SPLINETYPE
 70
     6
  9
$SPLINESEGS
 70
     8
  9
$HANDSEED
  5
71A
  9
$SURFTAB1
 70
     6
  9
$SURFTAB2
 70
     6
  9
$SURFTYPE
 70
     6
  9
$SURFU
 70
     6
  9
$SURFV
 70
     6
  9
$UCSBASE
  2

  9
$UCSNAME
  2

  9
$UCSORG
 10
0.0
 20
0.0
 30
0.0
  9
$UCSXDIR
 10
1.0
 20
0.0
 30
0.0
  9
$UCSYDIR
 10
0.0
 20
1.0
 30
0.0
  9
$UCSORTHOREF
  2

  9
$UCSORTHOVIEW
 70
     0
  9
$UCSORGTOP
 10
0.0
 20
0.0
 30
0.0
  9
$UCSORGBOTTOM
 10
0.0
 20
0.0
 30
0.0
  9
$UCSORGLEFT
 10
0.0
 20
0.0
 30
0.0
  9
$UCSORGRIGHT
 10
0.0
 20
0.0
 30
0.0
  9
$UCSORGFRONT
 10
0.0
 20
0.0
 30
0.0
  9
$UCSORGBACK
 10
0.0
 20
0.0
 30
0.0
  9
$PUCSBASE
  2

  9
$PUCSNAME
  2

  9
$PUCSORG
 10
0.0
 20
0.0
 30
0.0
  9
$PUCSXDIR
 10
1.0
 20
0.0
 30
0.0
  9
$PUCSYDIR
 10
0.0
 20
1.0
 30
0.0
  9
$PUCSORTHOREF
  2

  9
$PUCSORTHOVIEW
 70
     0
  9
$PUCSORGTOP
 10
0.0
 20
0.0
 30
0.0
  9
$PUCSORGBOTTOM
 10
0.0
 20
0.0
 30
0.0
  9
$PUCSORGLEFT
 10
0.0
 20
0.0
 30
0.0
  9
$PUCSORGRIGHT
 10
0.0
 20
0.0
 30
0.0
  9
$PUCSORGFRONT
 10
0.0
 20
0.0
 30
0.0
  9
$PUCSORGBACK
 10
0.0
 20
0.0
 30
0.0
  9
$USERI1
 70
     0
  9
$USERI2
 70
     0
  9
$USERI3
 70
     0
  9
$USERI4
 70
     0
  9
$USERI5
 70
     0
  9
$USERR1
 40
0.0
  9
$USERR2
 40
0.0
  9
$USERR3
 40
0.0
  9
$USERR4
 40
0.0
  9
$USERR5
 40
0.0
  9
$WORLDVIEW
 70
     1
  9
$SHADEDGE
 70
     3
  9
$SHADEDIF
 70
    70
  9
$TILEMODE
 70
     1
  9
$MAXACTVP
 70
    64
  9
$PINSBASE
 10
0.0
 20
0.0
 30
0.0
  9
$PLIMCHECK
 70
     0
  9
$PEXTMIN
 10
1.000000000000000E+20
 20
1.000000000000000E+20
 30
1.000000000000000E+20
  9
$PEXTMAX
 10
-1.000000000000000E+20
 20
-1.000000000000000E+20
 30
-1.000000000000000E+20
  9
$PLIMMIN
 10
0.0
 20
0.0
  9
$PLIMMAX
 10
420.0
 20
297.0
  9
$UNITMODE
 70
     0
  9
$VISRETAIN
 70
     1
  9
$PLINEGEN
 70
     0
  9
$PSLTSCALE
 70
     1
  9
$TREEDEPTH
 70
  3020
  9
$CMLSTYLE
  2
Standard
  9
$CMLJUST
 70
     0
  9
$CMLSCALE
 40
20.0
  9
$PROXYGRAPHICS
 70
     1
  9
$MEASUREMENT
 70
     1
  9
$CELWEIGHT
370
    -1
  9
$ENDCAPS
280
     0
  9
$JOINSTYLE
280
     0
  9
$LWDISPLAY
290
     0
  9
$INSUNITS
 70
     4
  9
$HYPERLINKBASE
  1

  9
$STYLESHEET
  1

  9
$XEDIT
290
     1
  9
$CEPSNTYPE
380
     0
  9
$PSTYLEMODE
290
     1
  9
$FINGERPRINTGUID
  2
{84D0FAED-A5B6-476C-9C58-1D1246D7E079}
  9
$VERSIONGUID
  2
{FAEB1C32-E019-11D5-929B-00C0DF256EC4}
  9
$EXTNAMES
290
     1
  9
$PSVPSCALE
 40
0.0
  9
$OLESTARTUP
290
     0
  0
ENDSEC
  0
SECTION
  2
CLASSES
  0
CLASS
  1
ACDBDICTIONARYWDFLT
  2
AcDbDictionaryWithDefault
  3
ObjectDBX Classes
 90
        0
280
     0
281
     0
  0
CLASS
  1
VISUALSTYLE
  2
AcDbVisualStyle
  3
ObjectDBX Classes
 90
     4095
280
     0
281
     0
  0
CLASS
  1
MATERIAL
  2
AcDbMaterial
  3
ObjectDBX Classes
 90
     1153
280
     0
281
     0
  0
CLASS
  1
SCALE
  2
AcDbScale
  3
ObjectDBX Classes
 90
     1153
280
     0
281
     0
  0
CLASS
  1
DICTIONARYVAR
  2
AcDbDictionaryVar
  3
ObjectDBX Classes
 90
        0
280
     0
281
     0
  0
CLASS
  1
ACDBPLACEHOLDER
  2
AcDbPlaceHolder
  3
ObjectDBX Classes
 90
        0
280
     0
281
     0
  0
CLASS
  1
LAYOUT
  2
AcDbLayout
  3
ObjectDBX Classes
 90
        0
280
     0
281
     0
  0
ENDSEC
  0
SECTION
  2
TABLES
  0
TABLE
  2
VPORT
  5
8
330
0
100
AcDbSymbolTable
 70
     1
  0
VPORT
  5
29
330
8
100
AcDbSymbolTableRecord
100
AcDbViewportTableRecord
  2
*Active
 70
     0
 10
0.0
 20
0.0
 11
1.0
 21
1.0
 12
11.26
 22
4.5
 13
0.0
 23
0.0
 14
10.0
 24
10.0
 15
10.0
 25
10.0
 16
0.0
 26
0.0
 36
1.0
 17
0.0
 27
0.0
 37
0.0
 40
9.0
 41
2.503333333333333
 42
50.0
 43
0.0
 44
0.0
 50
0.0
 51
0.0
 71
     0
 72
   100
 73
     1
 74
     3
 75
     0
 76
     0
 77
     0
 78
     0
281
     0
 65
     1
110
0.0
120
0.0
130
0.0
111
1.0
121
0.0
131
0.0
112
0.0
122
1.0
132
0.0
 79
     0
146
0.0
  0
ENDTAB
  0
TABLE
  2
LTYPE
  5
5
330
0
100
AcDbSymbolTable
 70
    10
  0
LTYPE
  5
14
330
5
100
AcDbSymbolTableRecord
100
AcDbLinetypeTableRecord
  2
ByBlock
 70
     0
  3

 72
    65
 73
     0
 40
0.0
  0
LTYPE
  5
15
330
5
100
AcDbSymbolTableRecord
100
AcDbLinetypeTableRecord
  2
ByLayer
 70
     0
  3

 72
    65
 73
     0
 40
0.0
  0
LTYPE
  5
16
330
5
100
AcDbSymbolTableRecord
100
AcDbLinetypeTableRecord
  2
Continuous
 70
     0
  3
Solid line
 72
    65
 73
     0
 40
0.0
  0
LTYPE
  5
45
330
5
100
AcDbSymbolTableRecord
100
AcDbLinetypeTableRecord
  2
phl_thick
 70
     0
  3
THICK
 72
    65
 73
     0
 40
0.0
  0
LTYPE
  5
15C
330
5
100
AcDbSymbolTableRecord
100
AcDbLinetypeTableRecord
  2
ls_CUT
 70
     0
  3
THICK
 72
    65
 73
     0
 40
0.0
  0
LTYPE
  5
162
330
5
100
AcDbSymbolTableRecord
100
AcDbLinetypeTableRecord
  2
ls1
 70
     0
  3
THICK
 72
    65
 73
     0
 40
0.0
  0
LTYPE
  5
168
330
5
100
AcDbSymbolTableRecord
100
AcDbLinetypeTableRecord
  2
SK1
 70
     0
  3
THICK
 72
    65
 73
     0
 40
0.0
  0
LTYPE
  5
170
330
5
100
AcDbSymbolTableRecord
100
AcDbLinetypeTableRecord
  2
ls_SK2
 70
     0
  3
THIN
 72
    65
 73
     0
 40
0.0
  0
LTYPE
  5
21E
330
5
100
AcDbSymbolTableRecord
100
AcDbLinetypeTableRecord
  2
ls_2
 70
     0
  3
THIN
 72
    65
 73
     0
 40
0.0
  0
LTYPE
  5
32C
330
5
100
AcDbSymbolTableRecord
100
AcDbLinetypeTableRecord
  2
LONGDASH_DASH
 70
     0
  3
THIN_DASHDOT
 72
    65
 73
     4
 40
0.85
 49
0.4
 74
     0
 49
-0.2
 74
     0
 49
0.05
 74
     0
 49
-0.2
 74
     0
  0
LTYPE
  5
369
330
5
100
AcDbSymbolTableRecord
100
AcDbLinetypeTableRecord
  2
ls_SK1
 70
     0
  3
THICK
 72
    65
 73
     0
 40
0.0
  0
LTYPE
  5
3AE
330
5
100
AcDbSymbolTableRecord
100
AcDbLinetypeTableRecord
  2
INFTOTAL
 70
     0
  3
THIN
 72
    65
 73
     0
 40
0.0
  0
ENDTAB
  0
TABLE
  2
LAYER
  5
2
330
0
100
AcDbSymbolTable
 70
    11
  0
LAYER
  5
10
330
2
100
AcDbSymbolTableRecord
100
AcDbLayerTableRecord
  2
0
 70
     0
 62
     7
  6
Continuous
370
    -3
390
F
  0
LAYER
  5
44
330
2
100
AcDbSymbolTableRecord
100
AcDbLayerTableRecord
  2
1
 70
     0
 62
4
  6
CONTINUOUS
370
50
370
    -3
390
F
  0
LAYER
  5
15B
330
2
100
AcDbSymbolTableRecord
100
AcDbLayerTableRecord
  2
CUT
 70
     0
 62
1
  6
CONTINUOUS
370
25
370
    -3
390
F
  0
LAYER
  5
161
330
2
100
AcDbSymbolTableRecord
100
AcDbLayerTableRecord
  2
NOCUT
 70
     0
 62
7
  6
CONTINUOUS
370
25
370
    -3
390
F
  0
LAYER
  5
167
330
2
100
AcDbSymbolTableRecord
100
AcDbLayerTableRecord
  2
SK1
 70
     0
 62
4
  6
CONTINUOUS
370
50
370
    -3
390
F
  0
LAYER
  5
16F
330
2
100
AcDbSymbolTableRecord
100
AcDbLayerTableRecord
  2
SK2
 70
     0
 62
7
  6
CONTINUOUS
370
25
370
    -3
390
F
  0
LAYER
  5
21D
330
2
100
AcDbSymbolTableRecord
100
AcDbLayerTableRecord
  2
2
 70
     0
 62
7
  6
CONTINUOUS
370
25
370
    -3
390
F
  0
LAYER
  5
32B
330
2
100
AcDbSymbolTableRecord
100
AcDbLayerTableRecord
  2
4
 70
     0
 62
2
  6
LONGDASH_DASH
370
25
370
    -3
390
F
  0
LAYER
  5
32E
330
2
100
AcDbSymbolTableRecord
100
AcDbLayerTableRecord
  2
SK4
 70
     0
 62
2
  6
LONGDASH_DASH
370
25
370
    -3
390
F
  0
LAYER
  5
3A2
330
2
100
AcDbSymbolTableRecord
100
AcDbLayerTableRecord
  2
SK6
 70
     0
 62
5
  6
CONTINUOUS
370
25
370
    -3
390
F
  0
LAYER
  5
3AD
330
2
100
AcDbSymbolTableRecord
100
AcDbLayerTableRecord
  2
INFTOTAL
 70
     0
 62
9
  6
CONTINUOUS
370
18
370
    -3
390
F
  0
ENDTAB
  0
TABLE
  2
STYLE
  5
3
330
0
100
AcDbSymbolTable
 70
     1
  0
STYLE
  5
11
330
3
100
AcDbSymbolTableRecord
100
AcDbTextStyleTableRecord
  2
Standard
 70
     0
 40
0.0
 41
1.0
 50
0.0
 71
     0
 42
2.5
  3
Monospac821 BT
  4

  0
ENDTAB
  0
TABLE
  2
VIEW
  5
6
330
0
100
AcDbSymbolTable
 70
     0
  0
ENDTAB
  0
TABLE
  2
UCS
  5
7
330
0
100
AcDbSymbolTable
 70
     0
  0
ENDTAB
  0
TABLE
  2
APPID
  5
9
330
0
100
AcDbSymbolTable
 70
     2
  0
APPID
  5
12
330
9
100
AcDbSymbolTableRecord
100
AcDbRegAppTableRecord
  2
ACAD
 70
     0
  0
APPID
  5
3F
330
9
100
AcDbSymbolTableRecord
100
AcDbRegAppTableRecord
  2
ccLab
 70
     0
  0
ENDTAB
  0
TABLE
  2
DIMSTYLE
  5
A
330
0
100
AcDbSymbolTable
 70
     1
100
AcDbDimStyleTable
  0
DIMSTYLE
105
27
330
A
100
AcDbSymbolTableRecord
100
AcDbDimStyleTableRecord
  2
ISO-25
 70
     0
 41
2.5
 42
0.625
 43
3.75
 44
1.25
 73
     0
 74
     0
 77
     1
 78
     8
140
2.5
141
2.5
143
0.03937007874016
147
0.625
171
     3
172
     1
271
     2
272
     2
274
     3
278
    44
283
     0
284
     8
340
11
  0
ENDTAB
  0
TABLE
  2
BLOCK_RECORD
  5
1
330
0
100
AcDbSymbolTable
 70
     2
  0
BLOCK_RECORD
  5
1F
330
1
100
AcDbSymbolTableRecord
100
AcDbBlockTableRecord
  2
*Model_Space
340
22
  0
BLOCK_RECORD
  5
1B
330
1
100
AcDbSymbolTableRecord
100
AcDbBlockTableRecord
  2
*Paper_Space
340
1E
  0
BLOCK_RECORD
  5
23
330
1
100
AcDbSymbolTableRecord
100
AcDbBlockTableRecord
  2
*Paper_Space0
340
26
  0
ENDTAB
  0
ENDSEC
  0
SECTION
  2
BLOCKS
  0
BLOCK
  5
20
330
1F
100
AcDbEntity
  8
0
100
AcDbBlockBegin
  2
*Model_Space
 70
     0
 10
0.0
 20
0.0
 30
0.0
  3
*Model_Space
  1

  0
ENDBLK
  5
21
330
1F
100
AcDbEntity
  8
0
100
AcDbBlockEnd
  0
BLOCK
  5
1C
330
1B
100
AcDbEntity
 67
     1
  8
0
100
AcDbBlockBegin
  2
*Paper_Space
 70
     0
 10
0.0
 20
0.0
 30
0.0
  3
*Paper_Space
  1

  0
ENDBLK
  5
1D
330
1B
100
AcDbEntity
 67
     1
  8
0
100
AcDbBlockEnd
  0
BLOCK
  5
24
330
23
100
AcDbEntity
  8
0
100
AcDbBlockBegin
  2
*Paper_Space0
 70
     0
 10
0.0
 20
0.0
 30
0.0
  3
*Paper_Space0
  1

  0
ENDBLK
  5
25
330
23
100
AcDbEntity
  8
0
100
AcDbBlockEnd
  0
ENDSEC
  0
SECTION
  2
ENTITIES
  0
LINE
  5
3B2
330
1F
100
AcDbEntity
  8
1
  6
CONTINUOUS
370
50
 62
4
100
AcDbLine
 10
10.798465
 20
-0.941159
 30
0.0
 11
10.798291
 21
-0.823024
 31
0.0
  0
LINE
  5
3B3
330
1F
100
AcDbEntity
  8
1
  6
CONTINUOUS
370
50
 62
4
100
AcDbLine
 10
10.798848
 20
-1.057065
 30
0.0
 11
10.798465
 21
-0.941159
 31
0.0
  0
LINE
  5
3B4
330
1F
100
AcDbEntity
  8
1
  6
CONTINUOUS
370
50
 62
4
100
AcDbLine
 10
10.799448
 20
-1.169524
 30
0.0
 11
10.798848
 21
-1.057065
 31
0.0
  0
LINE
  5
3B5
330
1F
100
AcDbEntity
  8
1
  6
CONTINUOUS
370
50
 62
4
100
AcDbLine
 10
10.800265
 20
-1.277449
 30
0.0
 11
10.799448
 21
-1.169524
 31
0.0
  0
LINE
  5
3B6
330
1F
100
AcDbEntity
  8
1
  6
CONTINUOUS
370
50
 62
4
100
AcDbLine
 10
10.801297
 20
-1.3799
 30
0.0
 11
10.800265
 21
-1.277449
 31
0.0
  0
LINE
  5
3B7
330
1F
100
AcDbEntity
  8
1
  6
CONTINUOUS
370
50
 62
4
100
AcDbLine
 10
10.802537
 20
-1.475969
 30
0.0
 11
10.801297
 21
-1.3799
 31
0.0
  0
LINE
  5
3B8
330
1F
100
AcDbEntity
  8
1
  6
CONTINUOUS
370
50
 62
4
100
AcDbLine
 10
10.803976
 20
-1.564966
 30
0.0
 11
10.802537
 21
-1.475969
 31
0.0
  0
LINE
  5
3B9
330
1F
100
AcDbEntity
  8
1
  6
CONTINUOUS
370
50
 62
4
100
AcDbLine
 10
10.805601
 20
-1.646303
 30
0.0
 11
10.803976
 21
-1.564966
 31
0.0
  0
LINE
  5
3BA
330
1F
100
AcDbEntity
  8
1
  6
CONTINUOUS
370
50
 62
4
100
AcDbLine
 10
10.807395
 20
-1.719396
 30
0.0
 11
10.805601
 21
-1.646303
 31
0.0
  0
LINE
  5
3BB
330
1F
100
AcDbEntity
  8
1
  6
CONTINUOUS
370
50
 62
4
100
AcDbLine
 10
10.809339
 20
-1.783874
 30
0.0
 11
10.807395
 21
-1.719396
 31
0.0
  0
LINE
  5
3BC
330
1F
100
AcDbEntity
  8
1
  6
CONTINUOUS
370
50
 62
4
100
AcDbLine
 10
10.811407
 20
-1.839571
 30
0.0
 11
10.809339
 21
-1.783874
 31
0.0
  0
LINE
  5
3BD
330
1F
100
AcDbEntity
  8
1
  6
CONTINUOUS
370
50
 62
4
100
AcDbLine
 10
10.813592
 20
-1.8867
 30
0.0
 11
10.811407
 21
-1.839571
 31
0.0
  0
LINE
  5
3BE
330
1F
100
AcDbEntity
  8
1
  6
CONTINUOUS
370
50
 62
4
100
AcDbLine
 10
10.815949
 20
-1.926409
 30
0.0
 11
10.813592
 21
-1.8867
 31
0.0
  0
LINE
  5
3BF
330
1F
100
AcDbEntity
  8
1
  6
CONTINUOUS
370
50
 62
4
100
AcDbLine
 10
10.8453
 20
1.83727
 30
0.0
 11
10.843488
 21
1.866607
 31
0.0
  0
LINE
  5
3C0
330
1F
100
AcDbEntity
  8
1
  6
CONTINUOUS
370
50
 62
4
100
AcDbLine
 10
10.843488
 20
1.866607
 30
0.0
 11
10.841657
 21
1.893416
 31
0.0
  0
LINE
  5
3C1
330
1F
100
AcDbEntity
  8
1
  6
CONTINUOUS
370
50
 62
4
100
AcDbLine
 10
10.841657
 20
1.893416
 30
0.0
 11
10.839811
 21
1.917533
 31
0.0
  0
LINE
  5
3C2
330
1F
100
AcDbEntity
  8
1
  6
CONTINUOUS
370
50
 62
4
100
AcDbLine
 10
10.818472
 20
-1.958157
 30
0.0
 11
10.815949
 21
-1.926409
 31
0.0
  0
LINE
  5
3C3
330
1F
100
AcDbEntity
  8
1
  6
CONTINUOUS
370
50
 62
4
100
AcDbLine
 10
10.839811
 20
1.917533
 30
0.0
 11
10.837958
 21
1.938796
 31
0.0
  0
LINE
  5
3C4
330
1F
100
AcDbEntity
  8
1
  6
CONTINUOUS
370
50
 62
4
100
AcDbLine
 10
10.837958
 20
1.938796
 30
0.0
 11
10.836103
 21
1.957044
 31
0.0
  0
LINE
  5
3C5
330
1F
100
AcDbEntity
  8
1
  6
CONTINUOUS
370
50
 62
4
100
AcDbLine
 10
10.821143
 20
-1.981241
 30
0.0
 11
10.818472
 21
-1.958157
 31
0.0
  0
LINE
  5
3C6
330
1F
100
AcDbEntity
  8
1
  6
CONTINUOUS
370
50
 62
4
100
AcDbLine
 10
10.836103
 20
1.957044
 30
0.0
 11
10.834253
 21
1.972149
 31
0.0
  0
LINE
  5
3C7
330
1F
100
AcDbEntity
  8
1
  6
CONTINUOUS
370
50
 62
4
100
AcDbLine
 10
1.621317
 20
-1.876113
 30
0.0
 11
1.617105
 21
-1.842547
 31
0.0
  0
LINE
  5
3C8
330
1F
100
AcDbEntity
  8
1
  6
CONTINUOUS
370
50
 62
4
100
AcDbLine
 10
10.834253
 20
1.972149
 30
0.0
 11
10.832412
 21
1.984049
 31
0.0
  0
LINE
  5
3C9
330
1F
100
AcDbEntity
  8
1
  6
CONTINUOUS
370
50
 62
4
100
AcDbLine
 10
10.823944
 20
-1.99526
 30
0.0
 11
10.821143
 21
-1.981241
 31
0.0
  0
LINE
  5
3CA
330
1F
100
AcDbEntity
  8
1
  6
CONTINUOUS
370
50
 62
4
100
AcDbLine
 10
10.832412
 20
1.984049
 30
0.0
 11
10.830585
 21
1.992692
 31
0.0
  0
LINE
  5
3CB
330
1F
100
AcDbEntity
  8
1
  6
CONTINUOUS
370
50
 62
4
100
AcDbLine
 10
11.825738
 20
-0.055338
 30
0.0
 11
11.821624
 21
-0.038832
 31
0.0
  0
LINE
  5
3CC
330
1F
100
AcDbEntity
  8
1
  6
CONTINUOUS
370
50
 62
4
100
AcDbLine
 10
11.821624
 20
-0.038832
 30
0.0
 11
11.816685
 21
-0.02166
 31
0.0
  0
LINE
  5
3CD
330
1F
100
AcDbEntity
  8
1
  6
CONTINUOUS
370
50
 62
4
100
AcDbLine
 10
11.816685
 20
-0.02166
 30
0.0
 11
11.810847
 21
-0.003674
 31
0.0
  0
LINE
  5
3CE
330
1F
100
AcDbEntity
  8
1
  6
CONTINUOUS
370
50
 62
4
100
AcDbLine
 10
10.830585
 20
1.992692
 30
0.0
 11
10.828779
 21
1.998022
 31
0.0
  0
LINE
  5
3CF
330
1F
100
AcDbEntity
  8
1
  6
CONTINUOUS
370
50
 62
4
100
AcDbLine
 10
11.810847
 20
-0.003674
 30
0.0
 11
11.804025
 21
0.015292
 31
0.0
  0
LINE
  5
3D0
330
1F
100
AcDbEntity
  8
1
  6
CONTINUOUS
370
50
 62
4
100
AcDbLine
 10
11.804025
 20
0.015292
 30
0.0
 11
11.796105
 21
0.035432
 31
0.0
  0
LINE
  5
3D1
330
1F
100
AcDbEntity
  8
1
  6
CONTINUOUS
370
50
 62
4
100
AcDbLine
 10
11.796105
 20
0.035432
 30
0.0
 11
11.786957
 21
0.056974
 31
0.0
  0
LINE
  5
3D2
330
1F
100
AcDbEntity
  8
1
  6
CONTINUOUS
370
50
 62
4
100
AcDbLine
 10
11.786957
 20
0.056974
 30
0.0
 11
11.776411
 21
0.080192
 31
0.0
  0
LINE
  5
3D3
330
1F
100
AcDbEntity
  8
1
  6
CONTINUOUS
370
50
 62
4
100
AcDbLine
 10
11.783882
 20
0.080018
 30
0.0
 11
11.75804
 21
0.132665
 31
0.0
  0
LINE
  5
3D4
330
1F
100
AcDbEntity
  8
1
  6
CONTINUOUS
370
50
 62
4
100
AcDbLine
 10
10.828779
 20
1.998022
 30
0.0
 11
10.828456
 21
1.998627
 31
0.0
  0
LINE
  5
3D5
330
1F
100
AcDbEntity
  8
1
  6
CONTINUOUS
370
50
 62
4
100
AcDbLine
 10
11.75804
 20
0.132665
 30
0.0
 11
11.723445
 21
0.197012
 31
0.0
  0
LINE
  5
3D6
330
1F
100
AcDbEntity
  8
1
  6
CONTINUOUS
370
50
 62
4
100
AcDbLine
 10
11.04832
 20
1.24602
 30
0.0
 11
11.020902
 21
1.29404
 31
0.0
  0
LINE
  5
3D7
330
1F
100
AcDbEntity
  8
1
  6
CONTINUOUS
370
50
 62
4
100
AcDbLine
 10
11.723445
 20
0.197012
 30
0.0
 11
11.676203
 21
0.278949
 31
0.0
  0
LINE
  5
3D8
330
1F
100
AcDbEntity
  8
1
  6
CONTINUOUS
370
50
 62
4
100
AcDbLine
 10
11.020902
 20
1.29404
 30
0.0
 11
10.992833
 21
1.342013
 31
0.0
  0
LINE
  5
3D9
330
1F
100
AcDbEntity
  8
1
  6
CONTINUOUS
370
50
 62
4
100
AcDbLine
 10
12.0
 20
0.0
 30
0.0
 11
10.828461
 21
1.998623
 31
0.0
  0
LINE
  5
3DA
330
1F
100
AcDbEntity
  8
1
  6
CONTINUOUS
370
50
 62
4
100
AcDbLine
 10
10.992833
 20
1.342013
 30
0.0
 11
10.964231
 21
1.389887
 31
0.0
  0
LINE
  5
3DB
330
1F
100
AcDbEntity
  8
1
  6
CONTINUOUS
370
50
 62
4
100
AcDbLine
 10
11.676203
 20
0.278949
 30
0.0
 11
11.609472
 21
0.388702
 31
0.0
  0
LINE
  5
3DC
330
1F
100
AcDbEntity
  8
1
  6
CONTINUOUS
370
50
 62
4
100
AcDbLine
 10
10.964231
 20
1.389887
 30
0.0
 11
10.935143
 21
1.437578
 31
0.0
  0
LINE
  5
3DD
330
1F
100
AcDbEntity
  8
1
  6
CONTINUOUS
370
50
 62
4
100
AcDbLine
 10
10.826852
 20
-2.0
 30
0.0
 11
10.823944
 21
-1.99526
 31
0.0
  0
LINE
  5
3DE
330
1F
100
AcDbEntity
  8
1
  6
CONTINUOUS
370
50
 62
4
100
AcDbLine
 10
10.935143
 20
1.437578
 30
0.0
 11
10.905615
 21
1.485006
 31
0.0
  0
LINE
  5
3DF
330
1F
100
AcDbEntity
  8
1
  6
CONTINUOUS
370
50
 62
4
100
AcDbLine
 10
12.0
 20
0.0
 30
0.0
 11
10.8453
 21
1.83727
 31
0.0
  0
LINE
  5
3E0
330
1F
100
AcDbEntity
  8
1
  6
CONTINUOUS
370
50
 62
4
100
AcDbLine
 10
11.609472
 20
0.388702
 30
0.0
 11
11.510078
 21
0.545823
 31
0.0
  0
LINE
  5
3E1
330
1F
100
AcDbEntity
  8
1
  6
CONTINUOUS
370
50
 62
4
100
AcDbLine
 10
10.905615
 20
1.485006
 30
0.0
 11
10.875693
 21
1.532087
 31
0.0
  0
LINE
  5
3E2
330
1F
100
AcDbEntity
  8
1
  6
CONTINUOUS
370
50
 62
4
100
AcDbLine
 10
10.828456
 20
1.998627
 30
0.0
 11
10.828134
 21
1.999122
 31
0.0
  0
LINE
  5
3E3
330
1F
100
AcDbEntity
  8
1
  6
CONTINUOUS
370
50
 62
4
100
AcDbLine
 10
11.510078
 20
0.545823
 30
0.0
 11
11.349084
 21
0.7931119999999999
 31
0.0
  0
LINE
  5
3E4
330
1F
100
AcDbEntity
  8
1
  6
CONTINUOUS
370
50
 62
4
100
AcDbLine
 10
10.875693
 20
1.532087
 30
0.0
 11
10.8453
 21
1.578676
 31
0.0
  0
LINE
  5
3E5
330
1F
100
AcDbEntity
  8
1
  6
CONTINUOUS
370
50
 62
4
100
AcDbLine
 10
11.349084
 20
0.7931119999999999
 30
0.0
 11
11.04832
 21
1.24602
 31
0.0
  0
LINE
  5
3E6
330
1F
100
AcDbEntity
  8
1
  6
CONTINUOUS
370
50
 62
4
100
AcDbLine
 10
10.828134
 20
1.999122
 30
0.0
 11
10.827811
 21
1.999507
 31
0.0
  0
LINE
  5
3E7
330
1F
100
AcDbEntity
  8
1
  6
CONTINUOUS
370
50
 62
4
100
AcDbLine
 10
1.647296
 20
-1.905066
 30
0.0
 11
1.621317
 21
-1.876113
 31
0.0
  0
LINE
  5
3E8
330
1F
100
AcDbEntity
  8
1
  6
CONTINUOUS
370
50
 62
4
100
AcDbLine
 10
10.827811
 20
1.999507
 30
0.0
 11
10.827491
 21
1.999781
 31
0.0
  0
LINE
  5
3E9
330
1F
100
AcDbEntity
  8
1
  6
CONTINUOUS
370
50
 62
4
100
AcDbLine
 10
11.280272
 20
-0.228553
 30
0.0
 11
11.149288
 21
-0.12752
 31
0.0
  0
LINE
  5
3EA
330
1F
100
AcDbEntity
  8
1
  6
CONTINUOUS
370
50
 62
4
100
AcDbLine
 10
11.149288
 20
-0.12752
 30
0.0
 11
11.004038
 21
-0.016583
 31
0.0
  0
LINE
  5
3EB
330
1F
100
AcDbEntity
  8
1
  6
CONTINUOUS
370
50
 62
4
100
AcDbLine
 10
11.004038
 20
-0.016583
 30
0.0
 11
10.843645
 21
0.104849
 31
0.0
  0
LINE
  5
3EC
330
1F
100
AcDbEntity
  8
1
  6
CONTINUOUS
370
50
 62
4
100
AcDbLine
 10
10.843645
 20
0.104849
 30
0.0
 11
10.667274
 21
0.237383
 31
0.0
  0
LINE
  5
3ED
330
1F
100
AcDbEntity
  8
1
  6
CONTINUOUS
370
50
 62
4
100
AcDbLine
 10
10.667274
 20
0.237383
 30
0.0
 11
10.474091
 21
0.381629
 31
0.0
  0
LINE
  5
3EE
330
1F
100
AcDbEntity
  8
1
  6
CONTINUOUS
370
50
 62
4
100
AcDbLine
 10
10.474091
 20
0.381629
 30
0.0
 11
10.264372
 21
0.5373519999999999
 31
0.0
  0
LINE
  5
3EF
330
1F
100
AcDbEntity
  8
1
  6
CONTINUOUS
370
50
 62
4
100
AcDbLine
 10
10.264372
 20
0.5373519999999999
 30
0.0
 11
10.043308
 21
0.700623
 31
0.0
  0
LINE
  5
3F0
330
1F
100
AcDbEntity
  8
1
  6
CONTINUOUS
370
50
 62
4
100
AcDbLine
 10
0.000866
 20
1.9995
 30
0.0
 11
0.0
 21
2.0
 31
0.0
  0
LINE
  5
3F1
330
1F
100
AcDbEntity
  8
1
  6
CONTINUOUS
370
50
 62
4
100
AcDbLine
 10
1.689389
 20
-1.928691
 30
0.0
 11
1.647296
 21
-1.905066
 31
0.0
  0
LINE
  5
3F2
330
1F
100
AcDbEntity
  8
1
  6
CONTINUOUS
370
50
 62
4
100
AcDbLine
 10
10.827491
 20
1.999781
 30
0.0
 11
10.827171
 21
1.999944
 31
0.0
  0
LINE
  5
3F3
330
1F
100
AcDbEntity
  8
1
  6
CONTINUOUS
370
50
 62
4
100
AcDbLine
 10
11.825738
 20
-0.055338
 30
0.0
 11
10.043308
 21
0.700623
 31
0.0
  0
LINE
  5
3F4
330
1F
100
AcDbEntity
  8
1
  6
CONTINUOUS
370
50
 62
4
100
AcDbLine
 10
4.737608
 20
1.461847
 30
0.0
 11
4.654929
 21
1.494207
 31
0.0
  0
LINE
  5
3F5
330
1F
100
AcDbEntity
  8
1
  6
CONTINUOUS
370
50
 62
4
100
AcDbLine
 10
4.654929
 20
1.494207
 30
0.0
 11
4.572928
 21
1.526004
 31
0.0
  0
LINE
  5
3F6
330
1F
100
AcDbEntity
  8
1
  6
CONTINUOUS
370
50
 62
4
100
AcDbLine
 10
4.572928
 20
1.526004
 30
0.0
 11
4.491383
 21
1.557194
 31
0.0
  0
LINE
  5
3F7
330
1F
100
AcDbEntity
  8
1
  6
CONTINUOUS
370
50
 62
4
100
AcDbLine
 10
4.491383
 20
1.557194
 30
0.0
 11
4.410067
 21
1.587736
 31
0.0
  0
LINE
  5
3F8
330
1F
100
AcDbEntity
  8
1
  6
CONTINUOUS
370
50
 62
4
100
AcDbLine
 10
12.0
 20
0.0
 30
0.0
 11
11.783882
 21
0.080018
 31
0.0
  0
LINE
  5
3F9
330
1F
100
AcDbEntity
  8
1
  6
CONTINUOUS
370
50
 62
4
100
AcDbLine
 10
4.410067
 20
1.587736
 30
0.0
 11
4.328758
 21
1.617586
 31
0.0
  0
LINE
  5
3FA
330
1F
100
AcDbEntity
  8
1
  6
CONTINUOUS
370
50
 62
4
100
AcDbLine
 10
9.421040999999999
 20
-0.086741
 30
0.0
 11
9.336941999999999
 21
-0.056245
 31
0.0
  0
LINE
  5
3FB
330
1F
100
AcDbEntity
  8
1
  6
CONTINUOUS
370
50
 62
4
100
AcDbLine
 10
9.336941999999999
 20
-0.056245
 30
0.0
 11
9.252809
 21
-0.025742
 31
0.0
  0
LINE
  5
3FC
330
1F
100
AcDbEntity
  8
1
  6
CONTINUOUS
370
50
 62
4
100
AcDbLine
 10
9.505131
 20
-0.117225
 30
0.0
 11
9.421040999999999
 21
-0.086741
 31
0.0
  0
LINE
  5
3FD
330
1F
100
AcDbEntity
  8
1
  6
CONTINUOUS
370
50
 62
4
100
AcDbLine
 10
9.252809
 20
-0.025742
 30
0.0
 11
9.168621
 21
0.004763
 31
0.0
  0
LINE
  5
3FE
330
1F
100
AcDbEntity
  8
1
  6
CONTINUOUS
370
50
 62
4
100
AcDbLine
 10
9.168621
 20
0.004763
 30
0.0
 11
9.084359
 21
0.035264
 31
0.0
  0
LINE
  5
3FF
330
1F
100
AcDbEntity
  8
1
  6
CONTINUOUS
370
50
 62
4
100
AcDbLine
 10
9.719866999999999
 20
-0.194944
 30
0.0
 11
9.505131
 21
-0.117225
 31
0.0
  0
LINE
  5
400
330
1F
100
AcDbEntity
  8
1
  6
CONTINUOUS
370
50
 62
4
100
AcDbLine
 10
9.084359
 20
0.035264
 30
0.0
 11
9.0
 21
0.065755
 31
0.0
  0
LINE
  5
401
330
1F
100
AcDbEntity
  8
1
  6
CONTINUOUS
370
50
 62
4
100
AcDbLine
 10
9.0
 20
0.066145
 30
0.0
 11
8.613137
 21
0.20565
 31
0.0
  0
LINE
  5
402
330
1F
100
AcDbEntity
  8
1
  6
CONTINUOUS
370
50
 62
4
100
AcDbLine
 10
9.935017
 20
-0.272455
 30
0.0
 11
9.719866999999999
 21
-0.194944
 31
0.0
  0
LINE
  5
403
330
1F
100
AcDbEntity
  8
1
  6
CONTINUOUS
370
50
 62
4
100
AcDbLine
 10
8.613137
 20
0.20565
 30
0.0
 11
8.227579
 21
0.34419
 31
0.0
  0
LINE
  5
404
330
1F
100
AcDbEntity
  8
1
  6
CONTINUOUS
370
50
 62
4
100
AcDbLine
 10
12.0
 20
0.0
 30
0.0
 11
11.776411
 21
0.080192
 31
0.0
  0
LINE
  5
405
330
1F
100
AcDbEntity
  8
1
  6
CONTINUOUS
370
50
 62
4
100
AcDbLine
 10
10.150712
 20
-0.349569
 30
0.0
 11
9.935017
 21
-0.272455
 31
0.0
  0
LINE
  5
406
330
1F
100
AcDbEntity
  8
1
  6
CONTINUOUS
370
50
 62
4
100
AcDbLine
 10
4.328758
 20
1.617586
 30
0.0
 11
4.247233
 21
1.646702
 31
0.0
  0
LINE
  5
407
330
1F
100
AcDbEntity
  8
1
  6
CONTINUOUS
370
50
 62
4
100
AcDbLine
 10
8.227579
 20
0.34419
 30
0.0
 11
7.841647
 21
0.48125
 31
0.0
  0
LINE
  5
408
330
1F
100
AcDbEntity
  8
1
  6
CONTINUOUS
370
50
 62
4
100
AcDbLine
 10
1.74314
 20
-1.947754
 30
0.0
 11
1.689389
 21
-1.928691
 31
0.0
  0
LINE
  5
409
330
1F
100
AcDbEntity
  8
1
  6
CONTINUOUS
370
50
 62
4
100
AcDbLine
 10
10.366701
 20
-0.426132
 30
0.0
 11
10.150712
 21
-0.349569
 31
0.0
  0
LINE
  5
40A
330
1F
100
AcDbEntity
  8
1
  6
CONTINUOUS
370
50
 62
4
100
AcDbLine
 10
10.582732
 20
-0.5020789999999999
 30
0.0
 11
10.366701
 21
-0.426132
 31
0.0
  0
LINE
  5
40B
330
1F
100
AcDbEntity
  8
1
  6
CONTINUOUS
370
50
 62
4
100
AcDbLine
 10
10.798554
 20
-0.577342
 30
0.0
 11
10.582732
 21
-0.5020789999999999
 31
0.0
  0
LINE
  5
40C
330
1F
100
AcDbEntity
  8
1
  6
CONTINUOUS
370
50
 62
4
100
AcDbLine
 10
7.841647
 20
0.48125
 30
0.0
 11
7.454413
 21
0.616085
 31
0.0
  0
LINE
  5
40D
330
1F
100
AcDbEntity
  8
1
  6
CONTINUOUS
370
50
 62
4
100
AcDbLine
 10
4.247233
 20
1.646702
 30
0.0
 11
4.165267
 21
1.675042
 31
0.0
  0
LINE
  5
40E
330
1F
100
AcDbEntity
  8
1
  6
CONTINUOUS
370
50
 62
4
100
AcDbLine
 10
7.454413
 20
0.616085
 30
0.0
 11
7.067113
 21
0.7478589999999999
 31
0.0
  0
LINE
  5
40F
330
1F
100
AcDbEntity
  8
1
  6
CONTINUOUS
370
50
 62
4
100
AcDbLine
 10
4.165267
 20
1.675042
 30
0.0
 11
4.082635
 21
1.702561
 31
0.0
  0
LINE
  5
410
330
1F
100
AcDbEntity
  8
1
  6
CONTINUOUS
370
50
 62
4
100
AcDbLine
 10
7.067113
 20
0.7478589999999999
 30
0.0
 11
6.680572
 21
0.8758509999999999
 31
0.0
  0
LINE
  5
411
330
1F
100
AcDbEntity
  8
1
  6
CONTINUOUS
370
50
 62
4
100
AcDbLine
 10
4.082635
 20
1.702561
 30
0.0
 11
3.999116
 21
1.729219
 31
0.0
  0
LINE
  5
412
330
1F
100
AcDbEntity
  8
1
  6
CONTINUOUS
370
50
 62
4
100
AcDbLine
 10
6.680572
 20
0.8758509999999999
 30
0.0
 11
6.293302
 21
0.999278
 31
0.0
  0
LINE
  5
413
330
1F
100
AcDbEntity
  8
1
  6
CONTINUOUS
370
50
 62
4
100
AcDbLine
 10
6.293302
 20
0.999278
 30
0.0
 11
5.903321
 21
1.118154
 31
0.0
  0
LINE
  5
414
330
1F
100
AcDbEntity
  8
1
  6
CONTINUOUS
370
50
 62
4
100
AcDbLine
 10
3.999116
 20
1.729219
 30
0.0
 11
3.91471
 21
1.754909
 31
0.0
  0
LINE
  5
415
330
1F
100
AcDbEntity
  8
1
  6
CONTINUOUS
370
50
 62
4
100
AcDbLine
 10
5.903321
 20
1.118154
 30
0.0
 11
5.513442
 21
1.232389
 31
0.0
  0
LINE
  5
416
330
1F
100
AcDbEntity
  8
1
  6
CONTINUOUS
370
50
 62
4
100
AcDbLine
 10
3.91471
 20
1.754909
 30
0.0
 11
3.830261
 21
1.779326
 31
0.0
  0
LINE
  5
417
330
1F
100
AcDbEntity
  8
1
  6
CONTINUOUS
370
50
 62
4
100
AcDbLine
 10
5.513442
 20
1.232389
 30
0.0
 11
5.125381
 21
1.341273
 31
0.0
  0
LINE
  5
418
330
1F
100
AcDbEntity
  8
1
  6
CONTINUOUS
370
50
 62
4
100
AcDbLine
 10
3.830261
 20
1.779326
 30
0.0
 11
3.745796
 21
1.802445
 31
0.0
  0
LINE
  5
419
330
1F
100
AcDbEntity
  8
1
  6
CONTINUOUS
370
50
 62
4
100
AcDbLine
 10
5.125381
 20
1.341273
 30
0.0
 11
4.737608
 21
1.444117
 31
0.0
  0
LINE
  5
41A
330
1F
100
AcDbEntity
  8
1
  6
CONTINUOUS
370
50
 62
4
100
AcDbLine
 10
3.745796
 20
1.802445
 30
0.0
 11
3.661219
 21
1.824274
 31
0.0
  0
LINE
  5
41B
330
1F
100
AcDbEntity
  8
1
  6
CONTINUOUS
370
50
 62
4
100
AcDbLine
 10
1.807295
 20
-1.963365
 30
0.0
 11
1.74314
 21
-1.947754
 31
0.0
  0
LINE
  5
41C
330
1F
100
AcDbEntity
  8
1
  6
CONTINUOUS
370
50
 62
4
100
AcDbLine
 10
3.661219
 20
1.824274
 30
0.0
 11
3.576439
 21
1.844822
 31
0.0
  0
LINE
  5
41D
330
1F
100
AcDbEntity
  8
1
  6
CONTINUOUS
370
50
 62
4
100
AcDbLine
 10
3.576439
 20
1.844822
 30
0.0
 11
3.491359
 21
1.8641
 31
0.0
  0
LINE
  5
41E
330
1F
100
AcDbEntity
  8
1
  6
CONTINUOUS
370
50
 62
4
100
AcDbLine
 10
4.739608
 20
-1.790018
 30
0.0
 11
4.555772999999999
 21
-1.749633
 31
0.0
  0
LINE
  5
41F
330
1F
100
AcDbEntity
  8
1
  6
CONTINUOUS
370
50
 62
4
100
AcDbLine
 10
10.8453
 20
1.578676
 30
0.0
 11
10.581344
 21
1.635549
 31
0.0
  0
LINE
  5
420
330
1F
100
AcDbEntity
  8
1
  6
CONTINUOUS
370
50
 62
4
100
AcDbLine
 10
4.555772999999999
 20
-1.749633
 30
0.0
 11
4.370028
 21
-1.709789
 31
0.0
  0
LINE
  5
421
330
1F
100
AcDbEntity
  8
1
  6
CONTINUOUS
370
50
 62
4
100
AcDbLine
 10
3.491359
 20
1.8641
 30
0.0
 11
3.405967
 21
1.8821
 31
0.0
  0
LINE
  5
422
330
1F
100
AcDbEntity
  8
1
  6
CONTINUOUS
370
50
 62
4
100
AcDbLine
 10
4.370028
 20
-1.709789
 30
0.0
 11
4.18196
 21
-1.67154
 31
0.0
  0
LINE
  5
423
330
1F
100
AcDbEntity
  8
1
  6
CONTINUOUS
370
50
 62
4
100
AcDbLine
 10
10.581344
 20
1.635549
 30
0.0
 11
10.31711
 21
1.688639
 31
0.0
  0
LINE
  5
424
330
1F
100
AcDbEntity
  8
1
  6
CONTINUOUS
370
50
 62
4
100
AcDbLine
 10
3.405967
 20
1.8821
 30
0.0
 11
3.320408
 21
1.898802
 31
0.0
  0
LINE
  5
425
330
1F
100
AcDbEntity
  8
1
  6
CONTINUOUS
370
50
 62
4
100
AcDbLine
 10
4.18196
 20
-1.67154
 30
0.0
 11
3.991156
 21
-1.63594
 31
0.0
  0
LINE
  5
426
330
1F
100
AcDbEntity
  8
1
  6
CONTINUOUS
370
50
 62
4
100
AcDbLine
 10
10.31711
 20
1.688639
 30
0.0
 11
10.052983
 21
1.737879
 31
0.0
  0
LINE
  5
427
330
1F
100
AcDbEntity
  8
1
  6
CONTINUOUS
370
50
 62
4
100
AcDbLine
 10
3.320408
 20
1.898802
 30
0.0
 11
3.234765
 21
1.914208
 31
0.0
  0
LINE
  5
428
330
1F
100
AcDbEntity
  8
1
  6
CONTINUOUS
370
50
 62
4
100
AcDbLine
 10
10.827171
 20
1.999944
 30
0.0
 11
10.826852
 21
2.0
 31
0.0
  0
LINE
  5
429
330
1F
100
AcDbEntity
  8
1
  6
CONTINUOUS
370
50
 62
4
100
AcDbLine
 10
1.879489
 20
-1.975791
 30
0.0
 11
1.807295
 21
-1.963365
 31
0.0
  0
LINE
  5
42A
330
1F
100
AcDbEntity
  8
1
  6
CONTINUOUS
370
50
 62
4
100
AcDbLine
 10
10.052983
 20
1.737879
 30
0.0
 11
9.78936
 21
1.783182
 31
0.0
  0
LINE
  5
42B
330
1F
100
AcDbEntity
  8
1
  6
CONTINUOUS
370
50
 62
4
100
AcDbLine
 10
3.234765
 20
1.914208
 30
0.0
 11
3.149119
 21
1.928322
 31
0.0
  0
LINE
  5
42C
330
1F
100
AcDbEntity
  8
1
  6
CONTINUOUS
370
50
 62
4
100
AcDbLine
 10
3.991156
 20
-1.63594
 30
0.0
 11
3.797202
 21
-1.604043
 31
0.0
  0
LINE
  5
42D
330
1F
100
AcDbEntity
  8
1
  6
CONTINUOUS
370
50
 62
4
100
AcDbLine
 10
9.78936
 20
1.783182
 30
0.0
 11
9.526347
 21
1.824367
 31
0.0
  0
LINE
  5
42E
330
1F
100
AcDbEntity
  8
1
  6
CONTINUOUS
370
50
 62
4
100
AcDbLine
 10
3.149119
 20
1.928322
 30
0.0
 11
3.063552
 21
1.941146
 31
0.0
  0
LINE
  5
42F
330
1F
100
AcDbEntity
  8
1
  6
CONTINUOUS
370
50
 62
4
100
AcDbLine
 10
5.1385
 20
-1.862124
 30
0.0
 11
4.739608
 21
-1.80367
 31
0.0
  0
LINE
  5
430
330
1F
100
AcDbEntity
  8
1
  6
CONTINUOUS
370
50
 62
4
100
AcDbLine
 10
9.526347
 20
1.824367
 30
0.0
 11
9.26342
 21
1.861362
 31
0.0
  0
LINE
  5
431
330
1F
100
AcDbEntity
  8
1
  6
CONTINUOUS
370
50
 62
4
100
AcDbLine
 10
3.797202
 20
-1.604043
 30
0.0
 11
3.599784
 21
-1.576918
 31
0.0
  0
LINE
  5
432
330
1F
100
AcDbEntity
  8
1
  6
CONTINUOUS
370
50
 62
4
100
AcDbLine
 10
3.063552
 20
1.941146
 30
0.0
 11
2.97804
 21
1.952699
 31
0.0
  0
LINE
  5
433
330
1F
100
AcDbEntity
  8
1
  6
CONTINUOUS
370
50
 62
4
100
AcDbLine
 10
9.26342
 20
1.861362
 30
0.0
 11
9.0
 21
1.894114
 31
0.0
  0
LINE
  5
434
330
1F
100
AcDbEntity
  8
1
  6
CONTINUOUS
370
50
 62
4
100
AcDbLine
 10
1.957307
 20
-1.985276
 30
0.0
 11
1.879489
 21
-1.975791
 31
0.0
  0
LINE
  5
435
330
1F
100
AcDbEntity
  8
1
  6
CONTINUOUS
370
50
 62
4
100
AcDbLine
 10
5.537634
 20
-1.910378
 30
0.0
 11
5.1385
 21
-1.862124
 31
0.0
  0
LINE
  5
436
330
1F
100
AcDbEntity
  8
1
  6
CONTINUOUS
370
50
 62
4
100
AcDbLine
 10
2.97804
 20
1.952699
 30
0.0
 11
2.892373
 21
1.96302
 31
0.0
  0
LINE
  5
437
330
1F
100
AcDbEntity
  8
1
  6
CONTINUOUS
370
50
 62
4
100
AcDbLine
 10
9.0
 20
1.893456
 30
0.0
 11
8.688426
 21
1.926625
 31
0.0
  0
LINE
  5
438
330
1F
100
AcDbEntity
  8
1
  6
CONTINUOUS
370
50
 62
4
100
AcDbLine
 10
2.892373
 20
1.96302
 30
0.0
 11
2.806756
 21
1.972097
 31
0.0
  0
LINE
  5
439
330
1F
100
AcDbEntity
  8
1
  6
CONTINUOUS
370
50
 62
4
100
AcDbLine
 10
3.599784
 20
-1.576918
 30
0.0
 11
3.405972
 21
-1.556401
 31
0.0
  0
LINE
  5
43A
330
1F
100
AcDbEntity
  8
1
  6
CONTINUOUS
370
50
 62
4
100
AcDbLine
 10
5.938375
 20
-1.948195
 30
0.0
 11
5.537634
 21
-1.910378
 31
0.0
  0
LINE
  5
43B
330
1F
100
AcDbEntity
  8
1
  6
CONTINUOUS
370
50
 62
4
100
AcDbLine
 10
2.806756
 20
1.972097
 30
0.0
 11
2.721426
 21
1.97991
 31
0.0
  0
LINE
  5
43C
330
1F
100
AcDbEntity
  8
1
  6
CONTINUOUS
370
50
 62
4
100
AcDbLine
 10
8.688426
 20
1.926625
 30
0.0
 11
8.376925
 21
1.953754
 31
0.0
  0
LINE
  5
43D
330
1F
100
AcDbEntity
  8
1
  6
CONTINUOUS
370
50
 62
4
100
AcDbLine
 10
2.038335
 20
-1.992065
 30
0.0
 11
1.957307
 21
-1.985276
 31
0.0
  0
LINE
  5
43E
330
1F
100
AcDbEntity
  8
1
  6
CONTINUOUS
370
50
 62
4
100
AcDbLine
 10
2.721426
 20
1.97991
 30
0.0
 11
2.636622
 21
1.986443
 31
0.0
  0
LINE
  5
43F
330
1F
100
AcDbEntity
  8
1
  6
CONTINUOUS
370
50
 62
4
100
AcDbLine
 10
3.405972
 20
-1.556401
 30
0.0
 11
3.220678
 21
-1.542855
 31
0.0
  0
LINE
  5
440
330
1F
100
AcDbEntity
  8
1
  6
CONTINUOUS
370
50
 62
4
100
AcDbLine
 10
6.337961
 20
-1.975521
 30
0.0
 11
5.938375
 21
-1.948195
 31
0.0
  0
LINE
  5
441
330
1F
100
AcDbEntity
  8
1
  6
CONTINUOUS
370
50
 62
4
100
AcDbLine
 10
8.376925
 20
1.953754
 30
0.0
 11
8.065638
 21
1.974657
 31
0.0
  0
LINE
  5
442
330
1F
100
AcDbEntity
  8
1
  6
CONTINUOUS
370
50
 62
4
100
AcDbLine
 10
2.636622
 20
1.986443
 30
0.0
 11
2.552582
 21
1.991675
 31
0.0
  0
LINE
  5
443
330
1F
100
AcDbEntity
  8
1
  6
CONTINUOUS
370
50
 62
4
100
AcDbLine
 10
2.122175
 20
-1.996515
 30
0.0
 11
2.038335
 21
-1.992065
 31
0.0
  0
LINE
  5
444
330
1F
100
AcDbEntity
  8
1
  6
CONTINUOUS
370
50
 62
4
100
AcDbLine
 10
2.552582
 20
1.991675
 30
0.0
 11
2.468422
 21
1.99562
 31
0.0
  0
LINE
  5
445
330
1F
100
AcDbEntity
  8
1
  6
CONTINUOUS
370
50
 62
4
100
AcDbLine
 10
8.065638
 20
1.974657
 30
0.0
 11
7.754366
 21
1.989243
 31
0.0
  0
LINE
  5
446
330
1F
100
AcDbEntity
  8
1
  6
CONTINUOUS
370
50
 62
4
100
AcDbLine
 10
6.734509
 20
-1.992554
 30
0.0
 11
6.337961
 21
-1.975521
 31
0.0
  0
LINE
  5
447
330
1F
100
AcDbEntity
  8
1
  6
CONTINUOUS
370
50
 62
4
100
AcDbLine
 10
3.220678
 20
-1.542855
 30
0.0
 11
3.044415
 21
-1.535747
 31
0.0
  0
LINE
  5
448
330
1F
100
AcDbEntity
  8
1
  6
CONTINUOUS
370
50
 62
4
100
AcDbLine
 10
2.468422
 20
1.99562
 30
0.0
 11
2.383463
 21
1.998232
 31
0.0
  0
LINE
  5
449
330
1F
100
AcDbEntity
  8
1
  6
CONTINUOUS
370
50
 62
4
100
AcDbLine
 10
2.209287
 20
-1.998911
 30
0.0
 11
2.122175
 21
-1.996515
 31
0.0
  0
LINE
  5
44A
330
1F
100
AcDbEntity
  8
1
  6
CONTINUOUS
370
50
 62
4
100
AcDbLine
 10
7.754366
 20
1.989243
 30
0.0
 11
7.442545
 21
1.997485
 31
0.0
  0
LINE
  5
44B
330
1F
100
AcDbEntity
  8
1
  6
CONTINUOUS
370
50
 62
4
100
AcDbLine
 10
11.783882
 20
0.080018
 30
0.0
 11
11.776411
 21
0.080192
 31
0.0
  0
LINE
  5
44C
330
1F
100
AcDbEntity
  8
1
  6
CONTINUOUS
370
50
 62
4
100
AcDbLine
 10
7.130843
 20
-1.999367
 30
0.0
 11
6.734509
 21
-1.992554
 31
0.0
  0
LINE
  5
44D
330
1F
100
AcDbEntity
  8
1
  6
CONTINUOUS
370
50
 62
4
100
AcDbLine
 10
2.383463
 20
1.998232
 30
0.0
 11
2.298595
 21
1.999395
 31
0.0
  0
LINE
  5
44E
330
1F
100
AcDbEntity
  8
1
  6
CONTINUOUS
370
50
 62
4
100
AcDbLine
 10
3.044415
 20
-1.535747
 30
0.0
 11
2.877696
 21
-1.534549
 31
0.0
  0
LINE
  5
44F
330
1F
100
AcDbEntity
  8
1
  6
CONTINUOUS
370
50
 62
4
100
AcDbLine
 10
7.442545
 20
1.997485
 30
0.0
 11
7.130846999999999
 21
1.999367
 31
0.0
  0
LINE
  5
450
330
1F
100
AcDbEntity
  8
1
  6
CONTINUOUS
370
50
 62
4
100
AcDbLine
 10
2.298595
 20
-1.999395
 30
0.0
 11
2.209287
 21
-1.998911
 31
0.0
  0
LINE
  5
451
330
1F
100
AcDbEntity
  8
1
  6
CONTINUOUS
370
50
 62
4
100
AcDbLine
 10
9.0
 20
-2.0
 30
0.0
 11
10.826852
 21
-2.0
 31
0.0
  0
LINE
  5
452
330
1F
100
AcDbEntity
  8
1
  6
CONTINUOUS
370
50
 62
4
100
AcDbLine
 10
7.194827
 20
-1.9995
 30
0.0
 11
9.0
 21
-1.9995
 31
0.0
  0
LINE
  5
453
330
1F
100
AcDbEntity
  8
1
  6
CONTINUOUS
370
50
 62
4
100
AcDbLine
 10
0.000866
 20
-1.9995
 30
0.0
 11
2.277673
 21
-1.9995
 31
0.0
  0
LINE
  5
454
330
1F
100
AcDbEntity
  8
1
  6
CONTINUOUS
370
50
 62
4
100
AcDbLine
 10
7.194827
 20
1.9995
 30
0.0
 11
9.0
 21
1.9995
 31
0.0
  0
LINE
  5
455
330
1F
100
AcDbEntity
  8
1
  6
CONTINUOUS
370
50
 62
4
100
AcDbLine
 10
0.000866
 20
1.9995
 30
0.0
 11
2.277673
 21
1.9995
 31
0.0
  0
LINE
  5
456
330
1F
100
AcDbEntity
  8
1
  6
CONTINUOUS
370
50
 62
4
100
AcDbLine
 10
9.0
 20
2.0
 30
0.0
 11
10.826852
 21
2.0
 31
0.0
  0
LINE
  5
457
330
1F
100
AcDbEntity
  8
1
  6
CONTINUOUS
370
50
 62
4
100
AcDbLine
 10
2.298595
 20
-1.999395
 30
0.0
 11
2.384058
 21
-1.998218
 31
0.0
  0
LINE
  5
458
330
1F
100
AcDbEntity
  8
1
  6
CONTINUOUS
370
50
 62
4
100
AcDbLine
 10
6.734513
 20
1.992554
 30
0.0
 11
7.130846999999999
 21
1.999367
 31
0.0
  0
LINE
  5
459
330
1F
100
AcDbEntity
  8
1
  6
CONTINUOUS
370
50
 62
4
100
AcDbLine
 10
2.721033
 20
-1.538728
 30
0.0
 11
2.877696
 21
-1.534549
 31
0.0
  0
LINE
  5
45A
330
1F
100
AcDbEntity
  8
1
  6
CONTINUOUS
370
50
 62
4
100
AcDbLine
 10
2.384058
 20
-1.998218
 30
0.0
 11
2.469606
 21
-1.995574
 31
0.0
  0
LINE
  5
45B
330
1F
100
AcDbEntity
  8
1
  6
CONTINUOUS
370
50
 62
4
100
AcDbLine
 10
6.337963999999999
 20
1.975521
 30
0.0
 11
6.734513
 21
1.992554
 31
0.0
  0
LINE
  5
45C
330
1F
100
AcDbEntity
  8
1
  6
CONTINUOUS
370
50
 62
4
100
AcDbLine
 10
2.469606
 20
-1.995574
 30
0.0
 11
2.554335
 21
-1.991579
 31
0.0
  0
LINE
  5
45D
330
1F
100
AcDbEntity
  8
1
  6
CONTINUOUS
370
50
 62
4
100
AcDbLine
 10
2.57469
 20
-1.547752
 30
0.0
 11
2.721033
 21
-1.538728
 31
0.0
  0
LINE
  5
45E
330
1F
100
AcDbEntity
  8
1
  6
CONTINUOUS
370
50
 62
4
100
AcDbLine
 10
2.554335
 20
-1.991579
 30
0.0
 11
2.638984
 21
-1.986278
 31
0.0
  0
LINE
  5
45F
330
1F
100
AcDbEntity
  8
1
  6
CONTINUOUS
370
50
 62
4
100
AcDbLine
 10
5.938378
 20
1.948195
 30
0.0
 11
6.337963999999999
 21
1.975521
 31
0.0
  0
LINE
  5
460
330
1F
100
AcDbEntity
  8
1
  6
CONTINUOUS
370
50
 62
4
100
AcDbLine
 10
2.638984
 20
-1.986278
 30
0.0
 11
2.724401
 21
-1.979659
 31
0.0
  0
LINE
  5
461
330
1F
100
AcDbEntity
  8
1
  6
CONTINUOUS
370
50
 62
4
100
AcDbLine
 10
10.798554
 20
-0.577342
 30
0.0
 11
10.832964
 21
-0.574436
 31
0.0
  0
LINE
  5
462
330
1F
100
AcDbEntity
  8
1
  6
CONTINUOUS
370
50
 62
4
100
AcDbLine
 10
2.724401
 20
-1.979659
 30
0.0
 11
2.810343
 21
-1.971741
 31
0.0
  0
LINE
  5
463
330
1F
100
AcDbEntity
  8
1
  6
CONTINUOUS
370
50
 62
4
100
AcDbLine
 10
5.537635
 20
1.910378
 30
0.0
 11
5.938378
 21
1.948195
 31
0.0
  0
LINE
  5
464
330
1F
100
AcDbEntity
  8
1
  6
CONTINUOUS
370
50
 62
4
100
AcDbLine
 10
2.436811
 20
-1.561074
 30
0.0
 11
2.57469
 21
-1.547752
 31
0.0
  0
LINE
  5
465
330
1F
100
AcDbEntity
  8
1
  6
CONTINUOUS
370
50
 62
4
100
AcDbLine
 10
2.810343
 20
-1.971741
 30
0.0
 11
2.896566
 21
-1.962544
 31
0.0
  0
LINE
  5
466
330
1F
100
AcDbEntity
  8
1
  6
CONTINUOUS
370
50
 62
4
100
AcDbLine
 10
5.138501
 20
1.862125
 30
0.0
 11
5.537635
 21
1.910378
 31
0.0
  0
LINE
  5
467
330
1F
100
AcDbEntity
  8
1
  6
CONTINUOUS
370
50
 62
4
100
AcDbLine
 10
2.896566
 20
-1.962544
 30
0.0
 11
2.982827
 21
-1.952085
 31
0.0
  0
LINE
  5
468
330
1F
100
AcDbEntity
  8
1
  6
CONTINUOUS
370
50
 62
4
100
AcDbLine
 10
2.307436
 20
-1.578171
 30
0.0
 11
2.436811
 21
-1.561074
 31
0.0
  0
LINE
  5
469
330
1F
100
AcDbEntity
  8
1
  6
CONTINUOUS
370
50
 62
4
100
AcDbLine
 10
2.982827
 20
-1.952085
 30
0.0
 11
3.068931
 21
-1.940377
 31
0.0
  0
LINE
  5
46A
330
1F
100
AcDbEntity
  8
1
  6
CONTINUOUS
370
50
 62
4
100
AcDbLine
 10
4.739608
 20
1.80367
 30
0.0
 11
5.138501
 21
1.862125
 31
0.0
  0
LINE
  5
46B
330
1F
100
AcDbEntity
  8
1
  6
CONTINUOUS
370
50
 62
4
100
AcDbLine
 10
3.068931
 20
-1.940377
 30
0.0
 11
3.155105
 21
-1.927377
 31
0.0
  0
LINE
  5
46C
330
1F
100
AcDbEntity
  8
1
  6
CONTINUOUS
370
50
 62
4
100
AcDbLine
 10
3.155105
 20
-1.927377
 30
0.0
 11
3.241351
 21
-1.913069
 31
0.0
  0
LINE
  5
46D
330
1F
100
AcDbEntity
  8
1
  6
CONTINUOUS
370
50
 62
4
100
AcDbLine
 10
2.187228
 20
-1.598527
 30
0.0
 11
2.307436
 21
-1.578171
 31
0.0
  0
LINE
  5
46E
330
1F
100
AcDbEntity
  8
1
  6
CONTINUOUS
370
50
 62
4
100
AcDbLine
 10
10.832964
 20
-0.574436
 30
0.0
 11
10.867625
 21
-0.568418
 31
0.0
  0
LINE
  5
46F
330
1F
100
AcDbEntity
  8
1
  6
CONTINUOUS
370
50
 62
4
100
AcDbLine
 10
10.826852
 20
-2.0
 30
0.0
 11
10.827171
 21
-1.999944
 31
0.0
  0
LINE
  5
470
330
1F
100
AcDbEntity
  8
1
  6
CONTINUOUS
370
50
 62
4
100
AcDbLine
 10
10.043308
 20
0.700623
 30
0.0
 11
10.109434
 21
0.712274
 31
0.0
  0
LINE
  5
471
330
1F
100
AcDbEntity
  8
1
  6
CONTINUOUS
370
50
 62
4
100
AcDbLine
 10
3.241351
 20
-1.913069
 30
0.0
 11
3.327589
 21
-1.897451
 31
0.0
  0
LINE
  5
472
330
1F
100
AcDbEntity
  8
1
  6
CONTINUOUS
370
50
 62
4
100
AcDbLine
 10
10.109434
 20
0.712274
 30
0.0
 11
10.176048
 21
0.725015
 31
0.0
  0
LINE
  5
473
330
1F
100
AcDbEntity
  8
1
  6
CONTINUOUS
370
50
 62
4
100
AcDbLine
 10
3.327589
 20
-1.897451
 30
0.0
 11
3.413735
 21
-1.880518
 31
0.0
  0
LINE
  5
474
330
1F
100
AcDbEntity
  8
1
  6
CONTINUOUS
370
50
 62
4
100
AcDbLine
 10
4.177894999999999
 20
1.670744
 30
0.0
 11
4.272946
 21
1.689714
 31
0.0
  0
LINE
  5
475
330
1F
100
AcDbEntity
  8
1
  6
CONTINUOUS
370
50
 62
4
100
AcDbLine
 10
4.272946
 20
1.689714
 30
0.0
 11
4.367354
 21
1.709228
 31
0.0
  0
LINE
  5
476
330
1F
100
AcDbEntity
  8
1
  6
CONTINUOUS
370
50
 62
4
100
AcDbLine
 10
10.176048
 20
0.725015
 30
0.0
 11
10.242763
 21
0.7388979999999999
 31
0.0
  0
LINE
  5
477
330
1F
100
AcDbEntity
  8
1
  6
CONTINUOUS
370
50
 62
4
100
AcDbLine
 10
2.076849
 20
-1.621625
 30
0.0
 11
2.187228
 21
-1.598527
 31
0.0
  0
LINE
  5
478
330
1F
100
AcDbEntity
  8
1
  6
CONTINUOUS
370
50
 62
4
100
AcDbLine
 10
3.413735
 20
-1.880518
 30
0.0
 11
3.499702
 21
-1.862269
 31
0.0
  0
LINE
  5
479
330
1F
100
AcDbEntity
  8
1
  6
CONTINUOUS
370
50
 62
4
100
AcDbLine
 10
4.367354
 20
1.709228
 30
0.0
 11
4.461171
 21
1.729149
 31
0.0
  0
LINE
  5
47A
330
1F
100
AcDbEntity
  8
1
  6
CONTINUOUS
370
50
 62
4
100
AcDbLine
 10
4.461171
 20
1.729149
 30
0.0
 11
4.554450999999999
 21
1.749345
 31
0.0
  0
LINE
  5
47B
330
1F
100
AcDbEntity
  8
1
  6
CONTINUOUS
370
50
 62
4
100
AcDbLine
 10
4.554450999999999
 20
1.749345
 30
0.0
 11
4.647246
 21
1.769679
 31
0.0
  0
LINE
  5
47C
330
1F
100
AcDbEntity
  8
1
  6
CONTINUOUS
370
50
 62
4
100
AcDbLine
 10
4.647246
 20
1.769679
 30
0.0
 11
4.739608
 21
1.790018
 31
0.0
  0
LINE
  5
47D
330
1F
100
AcDbEntity
  8
1
  6
CONTINUOUS
370
50
 62
4
100
AcDbLine
 10
10.242763
 20
0.7388979999999999
 30
0.0
 11
10.309189
 21
0.7539739999999999
 31
0.0
  0
LINE
  5
47E
330
1F
100
AcDbEntity
  8
1
  6
CONTINUOUS
370
50
 62
4
100
AcDbLine
 10
3.499702
 20
-1.862269
 30
0.0
 11
3.585341
 21
-1.842727
 31
0.0
  0
LINE
  5
47F
330
1F
100
AcDbEntity
  8
1
  6
CONTINUOUS
370
50
 62
4
100
AcDbLine
 10
3.585341
 20
-1.842727
 30
0.0
 11
3.670688
 21
-1.821896
 31
0.0
  0
LINE
  5
480
330
1F
100
AcDbEntity
  8
1
  6
CONTINUOUS
370
50
 62
4
100
AcDbLine
 10
10.309189
 20
0.7539739999999999
 30
0.0
 11
10.374939
 21
0.770296
 31
0.0
  0
LINE
  5
481
330
1F
100
AcDbEntity
  8
1
  6
CONTINUOUS
370
50
 62
4
100
AcDbLine
 10
1.976819
 20
-1.646979
 30
0.0
 11
2.076849
 21
-1.621625
 31
0.0
  0
LINE
  5
482
330
1F
100
AcDbEntity
  8
1
  6
CONTINUOUS
370
50
 62
4
100
AcDbLine
 10
3.670688
 20
-1.821896
 30
0.0
 11
3.755838
 21
-1.799765
 31
0.0
  0
LINE
  5
483
330
1F
100
AcDbEntity
  8
1
  6
CONTINUOUS
370
50
 62
4
100
AcDbLine
 10
10.867625
 20
-0.568418
 30
0.0
 11
10.902493
 21
-0.559245
 31
0.0
  0
LINE
  5
484
330
1F
100
AcDbEntity
  8
1
  6
CONTINUOUS
370
50
 62
4
100
AcDbLine
 10
10.374939
 20
0.770296
 30
0.0
 11
10.439625
 21
0.787914
 31
0.0
  0
LINE
  5
485
330
1F
100
AcDbEntity
  8
1
  6
CONTINUOUS
370
50
 62
4
100
AcDbLine
 10
3.755838
 20
-1.799765
 30
0.0
 11
3.840887
 21
-1.776325
 31
0.0
  0
LINE
  5
486
330
1F
100
AcDbEntity
  8
1
  6
CONTINUOUS
370
50
 62
4
100
AcDbLine
 10
3.840887
 20
-1.776325
 30
0.0
 11
3.92593
 21
-1.751567
 31
0.0
  0
LINE
  5
487
330
1F
100
AcDbEntity
  8
1
  6
CONTINUOUS
370
50
 62
4
100
AcDbLine
 10
10.439625
 20
0.787914
 30
0.0
 11
10.50286
 21
0.806881
 31
0.0
  0
LINE
  5
488
330
1F
100
AcDbEntity
  8
1
  6
CONTINUOUS
370
50
 62
4
100
AcDbLine
 10
1.887358
 20
-1.674203
 30
0.0
 11
1.976819
 21
-1.646979
 31
0.0
  0
LINE
  5
489
330
1F
100
AcDbEntity
  8
1
  6
CONTINUOUS
370
50
 62
4
100
AcDbLine
 10
3.92593
 20
-1.751567
 30
0.0
 11
4.010854999999999
 21
-1.725545
 31
0.0
  0
LINE
  5
48A
330
1F
100
AcDbEntity
  8
1
  6
CONTINUOUS
370
50
 62
4
100
AcDbLine
 10
11.280272
 20
-0.228553
 30
0.0
 11
11.825738
 21
-0.055338
 31
0.0
  0
LINE
  5
48B
330
1F
100
AcDbEntity
  8
1
  6
CONTINUOUS
370
50
 62
4
100
AcDbLine
 10
4.010854999999999
 20
-1.725545
 30
0.0
 11
4.094816
 21
-1.698574
 31
0.0
  0
LINE
  5
48C
330
1F
100
AcDbEntity
  8
1
  6
CONTINUOUS
370
50
 62
4
100
AcDbLine
 10
10.50286
 20
0.806881
 30
0.0
 11
10.564255
 21
0.827247
 31
0.0
  0
LINE
  5
48D
330
1F
100
AcDbEntity
  8
1
  6
CONTINUOUS
370
50
 62
4
100
AcDbLine
 10
4.094816
 20
-1.698574
 30
0.0
 11
4.17791
 21
-1.670735
 31
0.0
  0
LINE
  5
48E
330
1F
100
AcDbEntity
  8
1
  6
CONTINUOUS
370
50
 62
4
100
AcDbLine
 10
10.902493
 20
-0.559245
 30
0.0
 11
10.937518
 21
-0.5468729999999999
 31
0.0
  0
LINE
  5
48F
330
1F
100
AcDbEntity
  8
1
  6
CONTINUOUS
370
50
 62
4
100
AcDbLine
 10
1.80919
 20
-1.702839
 30
0.0
 11
1.887358
 21
-1.674203
 31
0.0
  0
LINE
  5
490
330
1F
100
AcDbEntity
  8
1
  6
CONTINUOUS
370
50
 62
4
100
AcDbLine
 10
10.564255
 20
0.827247
 30
0.0
 11
10.624596
 21
0.849513
 31
0.0
  0
LINE
  5
491
330
1F
100
AcDbEntity
  8
1
  6
CONTINUOUS
370
50
 62
4
100
AcDbLine
 10
10.624596
 20
0.849513
 30
0.0
 11
10.684561
 21
0.87434
 31
0.0
  0
LINE
  5
492
330
1F
100
AcDbEntity
  8
1
  6
CONTINUOUS
370
50
 62
4
100
AcDbLine
 10
10.937518
 20
-0.5468729999999999
 30
0.0
 11
10.972653
 21
-0.53126
 31
0.0
  0
LINE
  5
493
330
1F
100
AcDbEntity
  8
1
  6
CONTINUOUS
370
50
 62
4
100
AcDbLine
 10
1.738975
 20
-1.734497
 30
0.0
 11
1.80919
 21
-1.702839
 31
0.0
  0
LINE
  5
494
330
1F
100
AcDbEntity
  8
1
  6
CONTINUOUS
370
50
 62
4
100
AcDbLine
 10
10.684561
 20
0.87434
 30
0.0
 11
10.743159
 21
0.901866
 31
0.0
  0
LINE
  5
495
330
1F
100
AcDbEntity
  8
1
  6
CONTINUOUS
370
50
 62
4
100
AcDbLine
 10
10.827171
 20
-1.999944
 30
0.0
 11
10.827491
 21
-1.999781
 31
0.0
  0
LINE
  5
496
330
1F
100
AcDbEntity
  8
1
  6
CONTINUOUS
370
50
 62
4
100
AcDbLine
 10
10.972653
 20
-0.53126
 30
0.0
 11
11.007708
 21
-0.512446
 31
0.0
  0
LINE
  5
497
330
1F
100
AcDbEntity
  8
1
  6
CONTINUOUS
370
50
 62
4
100
AcDbLine
 10
10.743159
 20
0.901866
 30
0.0
 11
10.799397
 21
0.93223
 31
0.0
  0
LINE
  5
498
330
1F
100
AcDbEntity
  8
1
  6
CONTINUOUS
370
50
 62
4
100
AcDbLine
 10
0.0
 20
-2.0
 30
0.0
 11
0.000866
 21
-1.9995
 31
0.0
  0
LINE
  5
499
330
1F
100
AcDbEntity
  8
1
  6
CONTINUOUS
370
50
 62
4
100
AcDbLine
 10
1.679873
 20
-1.769188
 30
0.0
 11
1.738975
 21
-1.734497
 31
0.0
  0
LINE
  5
49A
330
1F
100
AcDbEntity
  8
1
  6
CONTINUOUS
370
50
 62
4
100
AcDbLine
 10
11.007708
 20
-0.512446
 30
0.0
 11
11.04207
 21
-0.490789
 31
0.0
  0
LINE
  5
49B
330
1F
100
AcDbEntity
  8
1
  6
CONTINUOUS
370
50
 62
4
100
AcDbLine
 10
10.799397
 20
0.93223
 30
0.0
 11
10.852361
 21
0.965625
 31
0.0
  0
LINE
  5
49C
330
1F
100
AcDbEntity
  8
1
  6
CONTINUOUS
370
50
 62
4
100
AcDbLine
 10
11.04207
 20
-0.490789
 30
0.0
 11
11.075595
 21
-0.466446
 31
0.0
  0
LINE
  5
49D
330
1F
100
AcDbEntity
  8
1
  6
CONTINUOUS
370
50
 62
4
100
AcDbLine
 10
10.852361
 20
0.965625
 30
0.0
 11
10.901771
 21
1.002791
 31
0.0
  0
LINE
  5
49E
330
1F
100
AcDbEntity
  8
1
  6
CONTINUOUS
370
50
 62
4
100
AcDbLine
 10
11.075595
 20
-0.466446
 30
0.0
 11
11.108187
 21
-0.439548
 31
0.0
  0
LINE
  5
49F
330
1F
100
AcDbEntity
  8
1
  6
CONTINUOUS
370
50
 62
4
100
AcDbLine
 10
10.827491
 20
-1.999781
 30
0.0
 11
10.827811
 21
-1.999507
 31
0.0
  0
LINE
  5
4A0
330
1F
100
AcDbEntity
  8
1
  6
CONTINUOUS
370
50
 62
4
100
AcDbLine
 10
1.637439
 20
-1.805849
 30
0.0
 11
1.679873
 21
-1.769188
 31
0.0
  0
LINE
  5
4A1
330
1F
100
AcDbEntity
  8
1
  6
CONTINUOUS
370
50
 62
4
100
AcDbLine
 10
10.901771
 20
1.002791
 30
0.0
 11
10.946447
 21
1.0441
 31
0.0
  0
LINE
  5
4A2
330
1F
100
AcDbEntity
  8
1
  6
CONTINUOUS
370
50
 62
4
100
AcDbLine
 10
11.108187
 20
-0.439548
 30
0.0
 11
11.139751
 21
-0.410225
 31
0.0
  0
LINE
  5
4A3
330
1F
100
AcDbEntity
  8
1
  6
CONTINUOUS
370
50
 62
4
100
AcDbLine
 10
11.139751
 20
-0.410225
 30
0.0
 11
11.170195
 21
-0.378608
 31
0.0
  0
LINE
  5
4A4
330
1F
100
AcDbEntity
  8
1
  6
CONTINUOUS
370
50
 62
4
100
AcDbLine
 10
11.170195
 20
-0.378608
 30
0.0
 11
11.19942
 21
-0.344827
 31
0.0
  0
LINE
  5
4A5
330
1F
100
AcDbEntity
  8
1
  6
CONTINUOUS
370
50
 62
4
100
AcDbLine
 10
10.946447
 20
1.0441
 30
0.0
 11
10.984818
 21
1.08959
 31
0.0
  0
LINE
  5
4A6
330
1F
100
AcDbEntity
  8
1
  6
CONTINUOUS
370
50
 62
4
100
AcDbLine
 10
10.827811
 20
-1.999507
 30
0.0
 11
10.828134
 21
-1.999122
 31
0.0
  0
LINE
  5
4A7
330
1F
100
AcDbEntity
  8
1
  6
CONTINUOUS
370
50
 62
4
100
AcDbLine
 10
11.19942
 20
-0.344827
 30
0.0
 11
11.227552
 21
-0.308699
 31
0.0
  0
LINE
  5
4A8
330
1F
100
AcDbEntity
  8
1
  6
CONTINUOUS
370
50
 62
4
100
AcDbLine
 10
11.227552
 20
-0.308699
 30
0.0
 11
11.254615
 21
-0.269937
 31
0.0
  0
LINE
  5
4A9
330
1F
100
AcDbEntity
  8
1
  6
CONTINUOUS
370
50
 62
4
100
AcDbLine
 10
10.828134
 20
-1.999122
 30
0.0
 11
10.828456
 21
-1.998627
 31
0.0
  0
LINE
  5
4AA
330
1F
100
AcDbEntity
  8
1
  6
CONTINUOUS
370
50
 62
4
100
AcDbLine
 10
11.254615
 20
-0.269937
 30
0.0
 11
11.280272
 21
-0.228553
 31
0.0
  0
LINE
  5
4AB
330
1F
100
AcDbEntity
  8
1
  6
CONTINUOUS
370
50
 62
4
100
AcDbLine
 10
10.984818
 20
1.08959
 30
0.0
 11
11.015161
 21
1.138653
 31
0.0
  0
LINE
  5
4AC
330
1F
100
AcDbEntity
  8
1
  6
CONTINUOUS
370
50
 62
4
100
AcDbLine
 10
10.828461
 20
-1.998623
 30
0.0
 11
12.0
 21
0.0
 31
0.0
  0
LINE
  5
4AD
330
1F
100
AcDbEntity
  8
1
  6
CONTINUOUS
370
50
 62
4
100
AcDbLine
 10
1.617105
 20
-1.842547
 30
0.0
 11
1.637439
 21
-1.805849
 31
0.0
  0
LINE
  5
4AE
330
1F
100
AcDbEntity
  8
1
  6
CONTINUOUS
370
50
 62
4
100
AcDbLine
 10
10.828456
 20
-1.998627
 30
0.0
 11
10.828779
 21
-1.998022
 31
0.0
  0
LINE
  5
4AF
330
1F
100
AcDbEntity
  8
1
  6
CONTINUOUS
370
50
 62
4
100
AcDbLine
 10
11.015161
 20
1.138653
 30
0.0
 11
11.036639
 21
1.19132
 31
0.0
  0
LINE
  5
4B0
330
1F
100
AcDbEntity
  8
1
  6
CONTINUOUS
370
50
 62
4
100
AcDbLine
 10
11.036639
 20
1.19132
 30
0.0
 11
11.04832
 21
1.24602
 31
0.0
  0
LINE
  5
4B1
330
1F
100
AcDbEntity
  8
1
  6
CONTINUOUS
370
50
 62
4
100
AcDbLine
 10
10.798321
 20
-0.7027209999999999
 30
0.0
 11
10.798555
 21
-0.577332
 31
0.0
  0
LINE
  5
4B2
330
1F
100
AcDbEntity
  8
1
  6
CONTINUOUS
370
50
 62
4
100
AcDbLine
 10
10.798291
 20
-0.823024
 30
0.0
 11
10.798321
 21
-0.7027209999999999
 31
0.0
  0
LINE
  5
4B3
330
1F
100
AcDbEntity
  8
1
  6
CONTINUOUS
370
50
 62
4
100
AcDbLine
 10
0.0
 20
-2.0
 30
0.0
 11
0.0
 21
2.0
 31
0.0
  0
LINE
  5
4B4
330
1F
100
AcDbEntity
  8
1
  6
CONTINUOUS
370
50
 62
4
100
AcDbLine
 10
0.000866
 20
-1.9995
 30
0.0
 11
0.000866
 21
1.9995
 31
0.0
  0
LINE
  5
4B5
330
1F
100
AcDbEntity
  8
1
  6
CONTINUOUS
370
50
 62
4
100
AcDbLine
 10
4.737608
 20
1.444117
 30
0.0
 11
4.737608
 21
1.461847
 31
0.0
  0
LINE
  5
4B6
330
1F
100
AcDbEntity
  8
1
  6
CONTINUOUS
370
50
 62
4
100
AcDbLine
 10
4.739608
 20
-1.80367
 30
0.0
 11
4.739608
 21
-1.790018
 31
0.0
  0
LINE
  5
4B7
330
1F
100
AcDbEntity
  8
1
  6
CONTINUOUS
370
50
 62
4
100
AcDbLine
 10
4.739608
 20
1.443604
 30
0.0
 11
4.739608
 21
1.498382
 31
0.0
  0
LINE
  5
4B8
330
1F
100
AcDbEntity
  8
1
  6
CONTINUOUS
370
50
 62
4
100
AcDbLine
 10
4.739608
 20
1.498382
 30
0.0
 11
4.739608
 21
1.555472
 31
0.0
  0
LINE
  5
4B9
330
1F
100
AcDbEntity
  8
1
  6
CONTINUOUS
370
50
 62
4
100
AcDbLine
 10
4.739608
 20
1.555472
 30
0.0
 11
4.739608
 21
1.614761
 31
0.0
  0
LINE
  5
4BA
330
1F
100
AcDbEntity
  8
1
  6
CONTINUOUS
370
50
 62
4
100
AcDbLine
 10
4.739608
 20
1.614761
 30
0.0
 11
4.739608
 21
1.676104
 31
0.0
  0
LINE
  5
4BB
330
1F
100
AcDbEntity
  8
1
  6
CONTINUOUS
370
50
 62
4
100
AcDbLine
 10
4.739608
 20
1.676104
 30
0.0
 11
4.739608
 21
1.739137
 31
0.0
  0
LINE
  5
4BC
330
1F
100
AcDbEntity
  8
1
  6
CONTINUOUS
370
50
 62
4
100
AcDbLine
 10
4.739608
 20
1.739137
 30
0.0
 11
4.739608
 21
1.80367
 31
0.0
  0
LINE
  5
4BD
330
1F
100
AcDbEntity
  8
1
  6
CONTINUOUS
370
50
 62
4
100
AcDbLine
 10
9.0
 20
0.066147
 30
0.0
 11
9.0
 21
1.893629
 31
0.0
  0
LINE
  5
4BE
330
1F
100
AcDbEntity
  8
1
  6
CONTINUOUS
370
50
 62
4
100
AcDbLine
 10
9.0
 20
-2.0
 30
0.0
 11
9.0
 21
0.065755
 31
0.0
  0
LINE
  5
4BF
330
1F
100
AcDbEntity
  8
1
  6
CONTINUOUS
370
50
 62
4
100
AcDbLine
 10
9.0
 20
1.893633
 30
0.0
 11
9.0
 21
1.893713
 31
0.0
  0
LINE
  5
4C0
330
1F
100
AcDbEntity
  8
1
  6
CONTINUOUS
370
50
 62
4
100
AcDbLine
 10
9.0
 20
1.893713
 30
0.0
 11
9.0
 21
1.893794
 31
0.0
  0
LINE
  5
4C1
330
1F
100
AcDbEntity
  8
1
  6
CONTINUOUS
370
50
 62
4
100
AcDbLine
 10
9.0
 20
1.893794
 30
0.0
 11
9.0
 21
1.893874
 31
0.0
  0
LINE
  5
4C2
330
1F
100
AcDbEntity
  8
1
  6
CONTINUOUS
370
50
 62
4
100
AcDbLine
 10
9.0
 20
1.893874
 30
0.0
 11
9.0
 21
1.893954
 31
0.0
  0
LINE
  5
4C3
330
1F
100
AcDbEntity
  8
1
  6
CONTINUOUS
370
50
 62
4
100
AcDbLine
 10
9.0
 20
1.893954
 30
0.0
 11
9.0
 21
1.894034
 31
0.0
  0
LINE
  5
4C4
330
1F
100
AcDbEntity
  8
1
  6
CONTINUOUS
370
50
 62
4
100
AcDbLine
 10
9.0
 20
1.894034
 30
0.0
 11
9.0
 21
1.894114
 31
0.0
  0
LINE
  5
4C5
330
1F
100
AcDbEntity
  8
1
  6
CONTINUOUS
370
50
 62
4
100
AcDbLine
 10
9.0
 20
1.894114
 30
0.0
 11
9.0
 21
2.0
 31
0.0
  0
LINE
  5
4C6
330
1F
100
AcDbEntity
  8
1
  6
CONTINUOUS
370
50
 62
4
100
AcDbLine
 10
10.8453
 20
1.578676
 30
0.0
 11
10.8453
 21
1.83727
 31
0.0
  0
LINE
  5
4C7
330
1F
100
AcDbEntity
  8
CUT
  6
CONTINUOUS
370
25
 62
1
100
AcDbLine
 10
9.0
 20
0.0
 30
0.0
 11
12.0
 21
0.0
 31
0.0
  0
LINE
  5
4C8
330
1F
100
AcDbEntity
  8
CUT
  6
CONTINUOUS
370
25
 62
1
100
AcDbLine
 10
12.0
 20
0.0
 30
0.0
 11
10.84529946
 21
2.0
 31
0.0
  0
LINE
  5
4C9
330
1F
100
AcDbEntity
  8
CUT
  6
CONTINUOUS
370
25
 62
1
100
AcDbLine
 10
10.84529946
 20
2.0
 30
0.0
 11
9.0
 21
2.0
 31
0.0
  0
LINE
  5
4CA
330
1F
100
AcDbEntity
  8
CUT
  6
CONTINUOUS
370
25
 62
1
100
AcDbLine
 10
9.0
 20
2.0
 30
0.0
 11
9.0
 21
0.0
 31
0.0
  0
LINE
  5
4CB
330
1F
100
AcDbEntity
  8
NOCUT
  6
CONTINUOUS
370
25
 62
7
100
AcDbLine
 10
0.0
 20
0.0
 30
0.0
 11
9.0
 21
0.0
 31
0.0
  0
LINE
  5
4CC
330
1F
100
AcDbEntity
  8
NOCUT
  6
CONTINUOUS
370
25
 62
7
100
AcDbLine
 10
9.0
 20
0.0
 30
0.0
 11
9.0
 21
2.0
 31
0.0
  0
LINE
  5
4CD
330
1F
100
AcDbEntity
  8
NOCUT
  6
CONTINUOUS
370
25
 62
7
100
AcDbLine
 10
9.0
 20
2.0
 30
0.0
 11
0.0
 21
2.0
 31
0.0
  0
LINE
  5
4CE
330
1F
100
AcDbEntity
  8
NOCUT
  6
CONTINUOUS
370
25
 62
7
100
AcDbLine
 10
0.0
 20
2.0
 30
0.0
 11
0.0
 21
0.0
 31
0.0
  0
LINE
  5
4CF
330
1F
100
AcDbEntity
  8
SK1
  6
CONTINUOUS
370
50
 62
4
100
AcDbLine
 10
0.0
 20
2.0
 30
0.0
 11
-27.7
 21
2.0
 31
0.0
  0
LINE
  5
4D0
330
1F
100
AcDbEntity
  8
SK1
  6
CONTINUOUS
370
50
 62
4
100
AcDbLine
 10
-27.7
 20
2.0
 30
0.0
 11
-28.0
 21
1.7
 31
0.0
  0
LINE
  5
4D1
330
1F
100
AcDbEntity
  8
SK1
  6
CONTINUOUS
370
50
 62
4
100
AcDbLine
 10
-28.0
 20
1.7
 30
0.0
 11
-28.0
 21
-1.7
 31
0.0
  0
LINE
  5
4D2
330
1F
100
AcDbEntity
  8
SK1
  6
CONTINUOUS
370
50
 62
4
100
AcDbLine
 10
-28.0
 20
-1.7
 30
0.0
 11
-27.7
 21
-2.0
 31
0.0
  0
LINE
  5
4D3
330
1F
100
AcDbEntity
  8
SK1
  6
CONTINUOUS
370
50
 62
4
100
AcDbLine
 10
-27.7
 20
-2.0
 30
0.0
 11
0.0
 21
-2.0
 31
0.0
  0
LINE
  5
4D4
330
1F
100
AcDbEntity
  8
SK1
  6
CONTINUOUS
370
50
 62
4
100
AcDbLine
 10
-27.7
 20
2.0
 30
0.0
 11
-27.7
 21
-2.0
 31
0.0
  0
LINE
  5
4D5
330
1F
100
AcDbEntity
  8
SK2
  6
CONTINUOUS
370
25
 62
7
100
AcDbLine
 10
-40.0000002
 20
-2.000001
 30
0.0
 11
-41.00000000000008
 21
-2.000001
 31
0.0
  0
LINE
  5
4D6
330
1F
100
AcDbEntity
  8
SK2
  6
CONTINUOUS
370
25
 62
7
100
AcDbLine
 10
-28.0
 20
-2.000001
 30
0.0
 11
-39.9999998
 21
-2.000001
 31
0.0
  0
LINE
  5
4D7
330
1F
100
AcDbEntity
  8
SK2
  6
CONTINUOUS
370
25
 62
7
100
AcDbLine
 10
-41.0
 20
2.0
 30
0.0
 11
-28.0
 21
2.0
 31
0.0
  0
LINE
  5
4D8
330
1F
100
AcDbEntity
  8
SK2
  6
CONTINUOUS
370
25
 62
7
100
AcDbLine
 10
-40.0
 20
-9.0
 30
0.0
 11
-40.0
 21
15.475
 31
0.0
  0
LINE
  5
4D9
330
1F
100
AcDbEntity
  8
SK2
  6
CONTINUOUS
370
25
 62
7
100
AcDbLine
 10
-40.0
 20
-2.0
 30
0.0
 11
-39.0
 21
-7.0
 31
0.0
  0
LINE
  5
4DA
330
1F
100
AcDbEntity
  8
SK2
  6
CONTINUOUS
370
25
 62
7
100
AcDbLine
 10
-39.0
 20
-7.0
 30
0.0
 11
-41.0
 21
-7.0
 31
0.0
  0
LINE
  5
4DB
330
1F
100
AcDbEntity
  8
SK2
  6
CONTINUOUS
370
25
 62
7
100
AcDbLine
 10
-41.0
 20
-7.0
 30
0.0
 11
-40.0
 21
-2.0
 31
0.0
  0
LINE
  5
4DC
330
1F
100
AcDbEntity
  8
SK2
  6
CONTINUOUS
370
25
 62
7
100
AcDbLine
 10
-39.24406922210655
 20
-7.0
 30
0.0
 11
-39.04067820368443
 21
-6.796608981577876
 31
0.0
  0
LINE
  5
4DD
330
1F
100
AcDbEntity
  8
SK2
  6
CONTINUOUS
370
25
 62
7
100
AcDbLine
 10
-39.66833329081848
 20
-7.0
 30
0.0
 11
-39.11138888180309
 21
-6.443055590984606
 31
0.0
  0
LINE
  5
4DE
330
1F
100
AcDbEntity
  8
SK2
  6
CONTINUOUS
370
25
 62
7
100
AcDbLine
 10
-40.09259735953041
 20
-7.0
 30
0.0
 11
-39.18209955992174
 21
-6.089502200391323
 31
0.0
  0
LINE
  5
4DF
330
1F
100
AcDbEntity
  8
SK2
  6
CONTINUOUS
370
25
 62
7
100
AcDbLine
 10
-40.51686142824234
 20
-7.0
 30
0.0
 11
-39.25281023804039
 21
-5.735948809798039
 31
0.0
  0
LINE
  5
4E0
330
1F
100
AcDbEntity
  8
SK2
  6
CONTINUOUS
370
25
 62
7
100
AcDbLine
 10
-40.94112549695427
 20
-7.0
 30
0.0
 11
-39.32352091615905
 21
-5.382395419204769
 31
0.0
  0
LINE
  5
4E1
330
1F
100
AcDbEntity
  8
SK2
  6
CONTINUOUS
370
25
 62
7
100
AcDbLine
 10
-40.90865260858344
 20
-6.543263042917239
 30
0.0
 11
-39.39423159427771
 21
-5.0288420286115
 31
0.0
  0
LINE
  5
4E2
330
1F
100
AcDbEntity
  8
SK2
  6
CONTINUOUS
370
25
 62
7
100
AcDbLine
 10
-40.80258659140546
 20
-6.012932957027331
 30
0.0
 11
-39.46494227239636
 21
-4.675288638018223
 31
0.0
  0
LINE
  5
4E3
330
1F
100
AcDbEntity
  8
SK2
  6
CONTINUOUS
370
25
 62
7
100
AcDbLine
 10
-40.69652057422748
 20
-5.482602871137424
 30
0.0
 11
-39.53565295051501
 21
-4.321735247424947
 31
0.0
  0
LINE
  5
4E4
330
1F
100
AcDbEntity
  8
SK2
  6
CONTINUOUS
370
25
 62
7
100
AcDbLine
 10
-40.5904545570495
 20
-4.952272785247509
 30
0.0
 11
-39.60636362863367
 21
-3.96818185683167
 31
0.0
  0
LINE
  5
4E5
330
1F
100
AcDbEntity
  8
SK2
  6
CONTINUOUS
370
25
 62
7
100
AcDbLine
 10
-40.48438853987152
 20
-4.421942699357587
 30
0.0
 11
-39.67707430675232
 21
-3.614628466238393
 31
0.0
  0
LINE
  5
4E6
330
1F
100
AcDbEntity
  8
SK2
  6
CONTINUOUS
370
25
 62
7
100
AcDbLine
 10
-40.37832252269354
 20
-3.891612613467679
 30
0.0
 11
-39.74778498487098
 21
-3.261075075645117
 31
0.0
  0
LINE
  5
4E7
330
1F
100
AcDbEntity
  8
SK2
  6
CONTINUOUS
370
25
 62
7
100
AcDbLine
 10
-40.27225650551555
 20
-3.361282527577764
 30
0.0
 11
-39.81849566298963
 21
-2.907521685051847
 31
0.0
  0
LINE
  5
4E8
330
1F
100
AcDbEntity
  8
SK2
  6
CONTINUOUS
370
25
 62
7
100
AcDbLine
 10
-40.16619048833757
 20
-2.830952441687849
 30
0.0
 11
-39.88920634110828
 21
-2.553968294458564
 31
0.0
  0
LINE
  5
4E9
330
1F
100
AcDbEntity
  8
SK2
  6
CONTINUOUS
370
25
 62
7
100
AcDbLine
 10
-40.06012447115958
 20
-2.30062235579792
 30
0.0
 11
-39.95991701922694
 21
-2.20041490386528
 31
0.0
  0
LINE
  5
4EA
330
1F
100
AcDbEntity
  8
SK2
  6
CONTINUOUS
370
25
 62
7
100
AcDbLine
 10
-40.95640973689883
 20
-6.78204868449415
 30
0.0
 11
-40.73845842139298
 21
-7.0
 31
0.0
  0
LINE
  5
4EB
330
1F
100
AcDbEntity
  8
SK2
  6
CONTINUOUS
370
25
 62
7
100
AcDbLine
 10
-40.88569905878018
 20
-6.42849529390088
 30
0.0
 11
-40.31419435268106
 21
-7.0
 31
0.0
  0
LINE
  5
4EC
330
1F
100
AcDbEntity
  8
SK2
  6
CONTINUOUS
370
25
 62
7
100
AcDbLine
 10
-40.81498838066152
 20
-6.074941903307611
 30
0.0
 11
-39.88993028396913
 21
-7.0
 31
0.0
  0
LINE
  5
4ED
330
1F
100
AcDbEntity
  8
SK2
  6
CONTINUOUS
370
25
 62
7
100
AcDbLine
 10
-40.74427770254287
 20
-5.721388512714327
 30
0.0
 11
-39.46566621525719
 21
-7.0
 31
0.0
  0
LINE
  5
4EE
330
1F
100
AcDbEntity
  8
SK2
  6
CONTINUOUS
370
25
 62
7
100
AcDbLine
 10
-40.67356702442422
 20
-5.367835122121043
 30
0.0
 11
-39.04140214654526
 21
-7.0
 31
0.0
  0
LINE
  5
4EF
330
1F
100
AcDbEntity
  8
SK2
  6
CONTINUOUS
370
25
 62
7
100
AcDbLine
 10
-40.60285634630556
 20
-5.014281731527767
 30
0.0
 11
-39.09571548054167
 21
-6.521422597291654
 31
0.0
  0
LINE
  5
4F0
330
1F
100
AcDbEntity
  8
SK2
  6
CONTINUOUS
370
25
 62
7
100
AcDbLine
 10
-40.5321456681869
 20
-4.66072834093449
 30
0.0
 11
-39.20178149771965
 21
-5.991092511401739
 31
0.0
  0
LINE
  5
4F1
330
1F
100
AcDbEntity
  8
SK2
  6
CONTINUOUS
370
25
 62
7
100
AcDbLine
 10
-40.46143499006825
 20
-4.307174950341221
 30
0.0
 11
-39.30784751489763
 21
-5.460762425511838
 31
0.0
  0
LINE
  5
4F2
330
1F
100
AcDbEntity
  8
SK2
  6
CONTINUOUS
370
25
 62
7
100
AcDbLine
 10
-40.39072431194959
 20
-3.953621559747944
 30
0.0
 11
-39.41391353207562
 21
-4.930432339621916
 31
0.0
  0
LINE
  5
4F3
330
1F
100
AcDbEntity
  8
SK2
  6
CONTINUOUS
370
25
 62
7
100
AcDbLine
 10
-40.32001363383094
 20
-3.600068169154667
 30
0.0
 11
-39.5199795492536
 21
-4.400102253732008
 31
0.0
  0
LINE
  5
4F4
330
1F
100
AcDbEntity
  8
SK2
  6
CONTINUOUS
370
25
 62
7
100
AcDbLine
 10
-40.24930295571228
 20
-3.246514778561391
 30
0.0
 11
-39.62604556643158
 21
-3.869772167842093
 31
0.0
  0
LINE
  5
4F5
330
1F
100
AcDbEntity
  8
SK2
  6
CONTINUOUS
370
25
 62
7
100
AcDbLine
 10
-40.17859227759362
 20
-2.892961387968121
 30
0.0
 11
-39.73211158360957
 21
-3.339442081952178
 31
0.0
  0
LINE
  5
4F6
330
1F
100
AcDbEntity
  8
SK2
  6
CONTINUOUS
370
25
 62
7
100
AcDbLine
 10
-40.10788159947496
 20
-2.539407997374845
 30
0.0
 11
-39.83817760078755
 21
-2.809111996062256
 31
0.0
  0
LINE
  5
4F7
330
1F
100
AcDbEntity
  8
SK2
  6
CONTINUOUS
370
25
 62
7
100
AcDbLine
 10
-40.03717092135631
 20
-2.185854606781561
 30
0.0
 11
-39.94424361796553
 21
-2.278781910172341
 31
0.0
  0
LINE
  5
4F8
330
1F
100
AcDbEntity
  8
SK2
  6
CONTINUOUS
370
25
 62
7
100
AcDbLine
 10
-40.0
 20
2.0
 30
0.0
 11
-41.0
 21
7.0
 31
0.0
  0
LINE
  5
4F9
330
1F
100
AcDbEntity
  8
SK2
  6
CONTINUOUS
370
25
 62
7
100
AcDbLine
 10
-41.0
 20
7.0
 30
0.0
 11
-39.0
 21
7.0
 31
0.0
  0
LINE
  5
4FA
330
1F
100
AcDbEntity
  8
SK2
  6
CONTINUOUS
370
25
 62
7
100
AcDbLine
 10
-39.0
 20
7.0
 30
0.0
 11
-40.0
 21
2.0
 31
0.0
  0
LINE
  5
4FB
330
1F
100
AcDbEntity
  8
SK2
  6
CONTINUOUS
370
25
 62
7
100
AcDbLine
 10
-40.00035713374682
 20
2.001785668734094
 30
0.0
 11
-39.99946429937977
 21
2.002678503101137
 31
0.0
  0
LINE
  5
4FC
330
1F
100
AcDbEntity
  8
SK2
  6
CONTINUOUS
370
25
 62
7
100
AcDbLine
 10
-40.07106781186548
 20
2.35533905932737
 30
0.0
 11
-39.89339828220179
 21
2.533008588991059
 31
0.0
  0
LINE
  5
4FD
330
1F
100
AcDbEntity
  8
SK2
  6
CONTINUOUS
370
25
 62
7
100
AcDbLine
 10
-40.14177848998413
 20
2.708892449920647
 30
0.0
 11
-39.78733226502381
 21
3.063338674880967
 31
0.0
  0
LINE
  5
4FE
330
1F
100
AcDbEntity
  8
SK2
  6
CONTINUOUS
370
25
 62
7
100
AcDbLine
 10
-40.21248916810278
 20
3.062445840513924
 30
0.0
 11
-39.68126624784583
 21
3.593668760770882
 31
0.0
  0
LINE
  5
4FF
330
1F
100
AcDbEntity
  8
SK2
  6
CONTINUOUS
370
25
 62
7
100
AcDbLine
 10
-40.28319984622144
 20
3.4159992311072
 30
0.0
 11
-39.57520023066784
 21
4.123998846660804
 31
0.0
  0
LINE
  5
500
330
1F
100
AcDbEntity
  8
SK2
  6
CONTINUOUS
370
25
 62
7
100
AcDbLine
 10
-40.35391052434009
 20
3.769552621700477
 30
0.0
 11
-39.46913421348986
 21
4.654328932550712
 31
0.0
  0
LINE
  5
501
330
1F
100
AcDbEntity
  8
SK2
  6
CONTINUOUS
370
25
 62
7
100
AcDbLine
 10
-40.42462120245875
 20
4.123106012293761
 30
0.0
 11
-39.36306819631188
 21
5.184659018440627
 31
0.0
  0
LINE
  5
502
330
1F
100
AcDbEntity
  8
SK2
  6
CONTINUOUS
370
25
 62
7
100
AcDbLine
 10
-40.4953318805774
 20
4.47665940288703
 30
0.0
 11
-39.25700217913389
 21
5.714989104330542
 31
0.0
  0
LINE
  5
503
330
1F
100
AcDbEntity
  8
SK2
  6
CONTINUOUS
370
25
 62
7
100
AcDbLine
 10
-40.56604255869606
 20
4.830212793480307
 30
0.0
 11
-39.15093616195591
 21
6.245319190220457
 31
0.0
  0
LINE
  5
504
330
1F
100
AcDbEntity
  8
SK2
  6
CONTINUOUS
370
25
 62
7
100
AcDbLine
 10
-40.63675323681471
 20
5.183766184073583
 30
0.0
 11
-39.04487014477793
 21
6.775649276110364
 31
0.0
  0
LINE
  5
505
330
1F
100
AcDbEntity
  8
SK2
  6
CONTINUOUS
370
25
 62
7
100
AcDbLine
 10
-40.70746391493337
 20
5.537319574666853
 30
0.0
 11
-39.24478348960022
 21
7.0
 31
0.0
  0
LINE
  5
506
330
1F
100
AcDbEntity
  8
SK2
  6
CONTINUOUS
370
25
 62
7
100
AcDbLine
 10
-40.77817459305203
 20
5.890872965260122
 30
0.0
 11
-39.66904755831215
 21
7.0
 31
0.0
  0
LINE
  5
507
330
1F
100
AcDbEntity
  8
SK2
  6
CONTINUOUS
370
25
 62
7
100
AcDbLine
 10
-40.84888527117069
 20
6.244426355853399
 30
0.0
 11
-40.09331162702409
 21
7.0
 31
0.0
  0
LINE
  5
508
330
1F
100
AcDbEntity
  8
SK2
  6
CONTINUOUS
370
25
 62
7
100
AcDbLine
 10
-40.91959594928935
 20
6.597979746446676
 30
0.0
 11
-40.51757569573602
 21
7.0
 31
0.0
  0
LINE
  5
509
330
1F
100
AcDbEntity
  8
SK2
  6
CONTINUOUS
370
25
 62
7
100
AcDbLine
 10
-40.990306627408
 20
6.951533137039952
 30
0.0
 11
-40.94183976444795
 21
7.0
 31
0.0
  0
LINE
  5
50A
330
1F
100
AcDbEntity
  8
SK2
  6
CONTINUOUS
370
25
 62
7
100
AcDbLine
 10
-40.05013106827009
 20
2.250655341350473
 30
0.0
 11
-39.96657928781994
 21
2.167103560900323
 31
0.0
  0
LINE
  5
50B
330
1F
100
AcDbEntity
  8
SK2
  6
CONTINUOUS
370
25
 62
7
100
AcDbLine
 10
-40.15619708544808
 20
2.780985427240388
 30
0.0
 11
-39.89586860970128
 21
2.520656951493592
 31
0.0
  0
LINE
  5
50C
330
1F
100
AcDbEntity
  8
SK2
  6
CONTINUOUS
370
25
 62
7
100
AcDbLine
 10
-40.26226310262606
 20
3.311315513130303
 30
0.0
 11
-39.82515793158262
 21
2.874210342086869
 31
0.0
  0
LINE
  5
50D
330
1F
100
AcDbEntity
  8
SK2
  6
CONTINUOUS
370
25
 62
7
100
AcDbLine
 10
-40.36832911980404
 20
3.841645599020211
 30
0.0
 11
-39.75444725346397
 21
3.227763732680145
 31
0.0
  0
LINE
  5
50E
330
1F
100
AcDbEntity
  8
SK2
  6
CONTINUOUS
370
25
 62
7
100
AcDbLine
 10
-40.47439513698203
 20
4.371975684910133
 30
0.0
 11
-39.68373657534531
 21
3.581317123273422
 31
0.0
  0
LINE
  5
50F
330
1F
100
AcDbEntity
  8
SK2
  6
CONTINUOUS
370
25
 62
7
100
AcDbLine
 10
-40.58046115416001
 20
4.902305770800041
 30
0.0
 11
-39.61302589722666
 21
3.934870513866699
 31
0.0
  0
LINE
  5
510
330
1F
100
AcDbEntity
  8
SK2
  6
CONTINUOUS
370
25
 62
7
100
AcDbLine
 10
-40.68652717133799
 20
5.432635856689963
 30
0.0
 11
-39.542315219108
 21
4.288423904459975
 31
0.0
  0
LINE
  5
511
330
1F
100
AcDbEntity
  8
SK2
  6
CONTINUOUS
370
25
 62
7
100
AcDbLine
 10
-40.79259318851597
 20
5.962965942579871
 30
0.0
 11
-39.47160454098935
 21
4.641977295053245
 31
0.0
  0
LINE
  5
512
330
1F
100
AcDbEntity
  8
SK2
  6
CONTINUOUS
370
25
 62
7
100
AcDbLine
 10
-40.89865920569396
 20
6.493296028469793
 30
0.0
 11
-39.40089386287069
 21
4.995530685646521
 31
0.0
  0
LINE
  5
513
330
1F
100
AcDbEntity
  8
SK2
  6
CONTINUOUS
370
25
 62
7
100
AcDbLine
 10
-40.98109910851224
 20
7.0
 30
0.0
 11
-39.33018318475204
 21
5.349084076239798
 31
0.0
  0
LINE
  5
514
330
1F
100
AcDbEntity
  8
SK2
  6
CONTINUOUS
370
25
 62
7
100
AcDbLine
 10
-40.5568350398003
 20
7.0
 30
0.0
 11
-39.25947250663339
 21
5.702637466833082
 31
0.0
  0
LINE
  5
515
330
1F
100
AcDbEntity
  8
SK2
  6
CONTINUOUS
370
25
 62
7
100
AcDbLine
 10
-40.13257097108838
 20
7.0
 30
0.0
 11
-39.18876182851473
 21
6.056190857426351
 31
0.0
  0
LINE
  5
516
330
1F
100
AcDbEntity
  8
SK2
  6
CONTINUOUS
370
25
 62
7
100
AcDbLine
 10
-39.70830690237644
 20
7.0
 30
0.0
 11
-39.11805115039608
 21
6.409744248019635
 31
0.0
  0
LINE
  5
517
330
1F
100
AcDbEntity
  8
SK2
  6
CONTINUOUS
370
25
 62
7
100
AcDbLine
 10
-39.28404283366451
 20
7.0
 30
0.0
 11
-39.04734047227742
 21
6.763297638612904
 31
0.0
  0
TEXT
  5
518
330
1F
100
AcDbEntity
  8
SK2
  6
CONTINUOUS
370
25
 62
7
100
AcDbText
 10
-41.5
 20
12.34583333333333
 30
0.0
 40
3.5
  1
4
 50
90.00000000000001
 72
     1
 11
-41.5
 21
13.5125
 31
0.0
100
AcDbText
  0
CIRCLE
  5
519
330
1F
100
AcDbEntity
  8
SK2
  6
CONTINUOUS
370
25
 62
7
100
AcDbCircle
 10
-43.25
 20
10.1875
 30
0.0
 40
1.4
  0
LINE
  5
51A
330
1F
100
AcDbEntity
  8
SK2
  6
CONTINUOUS
370
25
 62
7
100
AcDbLine
 10
-41.85
 20
8.787500000000001
 30
0.0
 11
-44.65
 21
11.5875
 31
0.0
  0
LINE
  5
51B
330
1F
100
AcDbEntity
  8
SK2
  6
CONTINUOUS
370
25
 62
7
100
AcDbLine
 10
-28.0
 20
2.0
 30
0.0
 11
-28.0
 21
15.0
 31
0.0
  0
LINE
  5
51C
330
1F
100
AcDbEntity
  8
SK2
  6
CONTINUOUS
370
25
 62
7
100
AcDbLine
 10
0.0000000000000001
 20
15.0
 30
0.0
 11
-0.0000000000000007
 21
2.0
 31
0.0
  0
LINE
  5
51D
330
1F
100
AcDbEntity
  8
SK2
  6
CONTINUOUS
370
25
 62
7
100
AcDbLine
 10
-28.0
 20
14.0
 30
0.0
 11
0.0
 21
14.0
 31
0.0
  0
LINE
  5
51E
330
1F
100
AcDbEntity
  8
SK2
  6
CONTINUOUS
370
25
 62
7
100
AcDbLine
 10
-28.0
 20
14.0
 30
0.0
 11
-23.0
 21
15.0
 31
0.0
  0
LINE
  5
51F
330
1F
100
AcDbEntity
  8
SK2
  6
CONTINUOUS
370
25
 62
7
100
AcDbLine
 10
-23.0
 20
15.0
 30
0.0
 11
-23.0
 21
13.0
 31
0.0
  0
LINE
  5
520
330
1F
100
AcDbEntity
  8
SK2
  6
CONTINUOUS
370
25
 62
7
100
AcDbLine
 10
-23.0
 20
13.0
 30
0.0
 11
-28.0
 21
14.0
 31
0.0
  0
LINE
  5
521
330
1F
100
AcDbEntity
  8
SK2
  6
CONTINUOUS
370
25
 62
7
100
AcDbLine
 10
-23.05203820042825
 20
13.01040764008565
 30
0.0
 11
-23.0
 21
13.0624458405139
 31
0.0
  0
LINE
  5
522
330
1F
100
AcDbEntity
  8
SK2
  6
CONTINUOUS
370
25
 62
7
100
AcDbLine
 10
-23.40559159102153
 20
13.0811183182043
 30
0.0
 11
-23.0
 21
13.48670990922583
 31
0.0
  0
LINE
  5
523
330
1F
100
AcDbEntity
  8
SK2
  6
CONTINUOUS
370
25
 62
7
100
AcDbLine
 10
-23.7591449816148
 20
13.15182899632296
 30
0.0
 11
-23.0
 21
13.91097397793776
 31
0.0
  0
LINE
  5
524
330
1F
100
AcDbEntity
  8
SK2
  6
CONTINUOUS
370
25
 62
7
100
AcDbLine
 10
-24.11269837220807
 20
13.22253967444161
 30
0.0
 11
-23.0
 21
14.33523804664969
 31
0.0
  0
LINE
  5
525
330
1F
100
AcDbEntity
  8
SK2
  6
CONTINUOUS
370
25
 62
7
100
AcDbLine
 10
-24.46625176280135
 20
13.29325035256027
 30
0.0
 11
-23.0
 21
14.75950211536161
 31
0.0
  0
LINE
  5
526
330
1F
100
AcDbEntity
  8
SK2
  6
CONTINUOUS
370
25
 62
7
100
AcDbLine
 10
-24.81980515339462
 20
13.36396103067892
 30
0.0
 11
-23.22970773009192
 21
14.95405845398162
 31
0.0
  0
LINE
  5
527
330
1F
100
AcDbEntity
  8
SK2
  6
CONTINUOUS
370
25
 62
7
100
AcDbLine
 10
-25.17335854398789
 20
13.43467170879758
 30
0.0
 11
-23.76003781598183
 21
14.84799243680364
 31
0.0
  0
LINE
  5
528
330
1F
100
AcDbEntity
  8
SK2
  6
CONTINUOUS
370
25
 62
7
100
AcDbLine
 10
-25.52691193458116
 20
13.50538238691623
 30
0.0
 11
-24.29036790187174
 21
14.74192641962565
 31
0.0
  0
LINE
  5
529
330
1F
100
AcDbEntity
  8
SK2
  6
CONTINUOUS
370
25
 62
7
100
AcDbLine
 10
-25.88046532517444
 20
13.57609306503489
 30
0.0
 11
-24.82069798776165
 21
14.63586040244767
 31
0.0
  0
LINE
  5
52A
330
1F
100
AcDbEntity
  8
SK2
  6
CONTINUOUS
370
25
 62
7
100
AcDbLine
 10
-26.23401871576771
 20
13.64680374315354
 30
0.0
 11
-25.35102807365156
 21
14.52979438526969
 31
0.0
  0
LINE
  5
52B
330
1F
100
AcDbEntity
  8
SK2
  6
CONTINUOUS
370
25
 62
7
100
AcDbLine
 10
-26.58757210636098
 20
13.7175144212722
 30
0.0
 11
-25.88135815954147
 21
14.42372836809171
 31
0.0
  0
LINE
  5
52C
330
1F
100
AcDbEntity
  8
SK2
  6
CONTINUOUS
370
25
 62
7
100
AcDbLine
 10
-26.94112549695426
 20
13.78822509939085
 30
0.0
 11
-26.41168824543138
 21
14.31766235091373
 31
0.0
  0
LINE
  5
52D
330
1F
100
AcDbEntity
  8
SK2
  6
CONTINUOUS
370
25
 62
7
100
AcDbLine
 10
-27.29467888754753
 20
13.8589357775095
 30
0.0
 11
-26.94201833132129
 21
14.21159633373574
 31
0.0
  0
LINE
  5
52E
330
1F
100
AcDbEntity
  8
SK2
  6
CONTINUOUS
370
25
 62
7
100
AcDbLine
 10
-27.6482322781408
 20
13.92964645562816
 30
0.0
 11
-27.4723484172112
 21
14.10553031655776
 31
0.0
  0
LINE
  5
52F
330
1F
100
AcDbEntity
  8
SK2
  6
CONTINUOUS
370
25
 62
7
100
AcDbLine
 10
-27.98543970291621
 20
14.00291205941677
 30
0.0
 11
-27.9781595543743
 21
13.99563191087486
 31
0.0
  0
LINE
  5
530
330
1F
100
AcDbEntity
  8
SK2
  6
CONTINUOUS
370
25
 62
7
100
AcDbLine
 10
-27.63188631232293
 20
14.07362273753541
 30
0.0
 11
-27.44782946848439
 21
13.88956589369688
 31
0.0
  0
LINE
  5
531
330
1F
100
AcDbEntity
  8
SK2
  6
CONTINUOUS
370
25
 62
7
100
AcDbLine
 10
-27.27833292172966
 20
14.14433341565407
 30
0.0
 11
-26.91749938259449
 21
13.7834998765189
 31
0.0
  0
LINE
  5
532
330
1F
100
AcDbEntity
  8
SK2
  6
CONTINUOUS
370
25
 62
7
100
AcDbLine
 10
-26.92477953113638
 20
14.21504409377272
 30
0.0
 11
-26.38716929670457
 21
13.67743385934092
 31
0.0
  0
LINE
  5
533
330
1F
100
AcDbEntity
  8
SK2
  6
CONTINUOUS
370
25
 62
7
100
AcDbLine
 10
-26.57122614054311
 20
14.28575477189138
 30
0.0
 11
-25.85683921081466
 21
13.57136784216293
 31
0.0
  0
LINE
  5
534
330
1F
100
AcDbEntity
  8
SK2
  6
CONTINUOUS
370
25
 62
7
100
AcDbLine
 10
-26.21767274994984
 20
14.35646545001003
 30
0.0
 11
-25.32650912492475
 21
13.46530182498495
 31
0.0
  0
LINE
  5
535
330
1F
100
AcDbEntity
  8
SK2
  6
CONTINUOUS
370
25
 62
7
100
AcDbLine
 10
-25.86411935935656
 20
14.42717612812869
 30
0.0
 11
-24.79617903903484
 21
13.35923580780697
 31
0.0
  0
LINE
  5
536
330
1F
100
AcDbEntity
  8
SK2
  6
CONTINUOUS
370
25
 62
7
100
AcDbLine
 10
-25.51056596876329
 20
14.49788680624734
 30
0.0
 11
-24.26584895314494
 21
13.25316979062899
 31
0.0
  0
LINE
  5
537
330
1F
100
AcDbEntity
  8
SK2
  6
CONTINUOUS
370
25
 62
7
100
AcDbLine
 10
-25.15701257817001
 20
14.56859748436599
 30
0.0
 11
-23.73551886725502
 21
13.147103773451
 31
0.0
  0
LINE
  5
538
330
1F
100
AcDbEntity
  8
SK2
  6
CONTINUOUS
370
25
 62
7
100
AcDbLine
 10
-24.80345918757674
 20
14.63930816248465
 30
0.0
 11
-23.20518878136511
 21
13.04103775627302
 31
0.0
  0
LINE
  5
539
330
1F
100
AcDbEntity
  8
SK2
  6
CONTINUOUS
370
25
 62
7
100
AcDbLine
 10
-24.44990579698347
 20
14.7100188406033
 30
0.0
 11
-23.0
 21
13.26011304361984
 31
0.0
  0
LINE
  5
53A
330
1F
100
AcDbEntity
  8
SK2
  6
CONTINUOUS
370
25
 62
7
100
AcDbLine
 10
-24.0963524063902
 20
14.78072951872196
 30
0.0
 11
-23.0
 21
13.68437711233176
 31
0.0
  0
LINE
  5
53B
330
1F
100
AcDbEntity
  8
SK2
  6
CONTINUOUS
370
25
 62
7
100
AcDbLine
 10
-23.74279901579692
 20
14.85144019684061
 30
0.0
 11
-23.0
 21
14.10864118104369
 31
0.0
  0
LINE
  5
53C
330
1F
100
AcDbEntity
  8
SK2
  6
CONTINUOUS
370
25
 62
7
100
AcDbLine
 10
-23.38924562520365
 20
14.92215087495927
 30
0.0
 11
-23.0
 21
14.53290524975561
 31
0.0
  0
LINE
  5
53D
330
1F
100
AcDbEntity
  8
SK2
  6
CONTINUOUS
370
25
 62
7
100
AcDbLine
 10
-23.03569223461038
 20
14.99286155307792
 30
0.0
 11
-23.0
 21
14.95716931846754
 31
0.0
  0
LINE
  5
53E
330
1F
100
AcDbEntity
  8
SK2
  6
CONTINUOUS
370
25
 62
7
100
AcDbLine
 10
0.0
 20
14.0
 30
0.0
 11
-5.0
 21
13.0
 31
0.0
  0
LINE
  5
53F
330
1F
100
AcDbEntity
  8
SK2
  6
CONTINUOUS
370
25
 62
7
100
AcDbLine
 10
-5.0
 20
13.0
 30
0.0
 11
-5.0
 21
15.0
 31
0.0
  0
LINE
  5
540
330
1F
100
AcDbEntity
  8
SK2
  6
CONTINUOUS
370
25
 62
7
100
AcDbLine
 10
-5.0
 20
15.0
 30
0.0
 11
0.0
 21
14.0
 31
0.0
  0
LINE
  5
541
330
1F
100
AcDbEntity
  8
SK2
  6
CONTINUOUS
370
25
 62
7
100
AcDbLine
 10
-0.00089283436705
 20
13.99982143312659
 30
0.0
 11
-0.0005952229113667
 21
14.00011904458227
 31
0.0
  0
LINE
  5
542
330
1F
100
AcDbEntity
  8
SK2
  6
CONTINUOUS
370
25
 62
7
100
AcDbLine
 10
-0.5312229202569596
 20
13.89375541594861
 30
0.0
 11
-0.3541486135046398
 21
14.07082972270093
 31
0.0
  0
LINE
  5
543
330
1F
100
AcDbEntity
  8
SK2
  6
CONTINUOUS
370
25
 62
7
100
AcDbLine
 10
-1.061553006146869
 20
13.78768939877063
 30
0.0
 11
-0.7077020040979128
 21
14.14154040081958
 31
0.0
  0
LINE
  5
544
330
1F
100
AcDbEntity
  8
SK2
  6
CONTINUOUS
370
25
 62
7
100
AcDbLine
 10
-1.591883092036781
 20
13.68162338159264
 30
0.0
 11
-1.061255394691187
 21
14.21225107893824
 31
0.0
  0
LINE
  5
545
330
1F
100
AcDbEntity
  8
SK2
  6
CONTINUOUS
370
25
 62
7
100
AcDbLine
 10
-2.12221317792669
 20
13.57555736441466
 30
0.0
 11
-1.41480878528446
 21
14.28296175705689
 31
0.0
  0
LINE
  5
546
330
1F
100
AcDbEntity
  8
SK2
  6
CONTINUOUS
370
25
 62
7
100
AcDbLine
 10
-2.652543263816599
 20
13.46949134723668
 30
0.0
 11
-1.768362175877733
 21
14.35367243517555
 31
0.0
  0
LINE
  5
547
330
1F
100
AcDbEntity
  8
SK2
  6
CONTINUOUS
370
25
 62
7
100
AcDbLine
 10
-3.182873349706508
 20
13.3634253300587
 30
0.0
 11
-2.121915566471006
 21
14.4243831132942
 31
0.0
  0
LINE
  5
548
330
1F
100
AcDbEntity
  8
SK2
  6
CONTINUOUS
370
25
 62
7
100
AcDbLine
 10
-3.713203435596417
 20
13.25735931288072
 30
0.0
 11
-2.475468957064279
 21
14.49509379141286
 31
0.0
  0
LINE
  5
549
330
1F
100
AcDbEntity
  8
SK2
  6
CONTINUOUS
370
25
 62
7
100
AcDbLine
 10
-4.243533521486326
 20
13.15129329570274
 30
0.0
 11
-2.829022347657552
 21
14.56580446953151
 31
0.0
  0
LINE
  5
54A
330
1F
100
AcDbEntity
  8
SK2
  6
CONTINUOUS
370
25
 62
7
100
AcDbLine
 10
-4.773863607376236
 20
13.04522727852475
 30
0.0
 11
-3.182575738250825
 21
14.63651514765017
 31
0.0
  0
LINE
  5
54B
330
1F
100
AcDbEntity
  8
SK2
  6
CONTINUOUS
370
25
 62
7
100
AcDbLine
 10
-5.0
 20
13.24335495461292
 30
0.0
 11
-3.536129128844097
 21
14.70722582576882
 31
0.0
  0
LINE
  5
54C
330
1F
100
AcDbEntity
  8
SK2
  6
CONTINUOUS
370
25
 62
7
100
AcDbLine
 10
-5.0
 20
13.66761902332485
 30
0.0
 11
-3.889682519437373
 21
14.77793650388747
 31
0.0
  0
LINE
  5
54D
330
1F
100
AcDbEntity
  8
SK2
  6
CONTINUOUS
370
25
 62
7
100
AcDbLine
 10
-5.0
 20
14.09188309203677
 30
0.0
 11
-4.243235910030646
 21
14.84864718200613
 31
0.0
  0
LINE
  5
54E
330
1F
100
AcDbEntity
  8
SK2
  6
CONTINUOUS
370
25
 62
7
100
AcDbLine
 10
-5.0
 20
14.5161471607487
 30
0.0
 11
-4.596789300623919
 21
14.91935786012478
 31
0.0
  0
LINE
  5
54F
330
1F
100
AcDbEntity
  8
SK2
  6
CONTINUOUS
370
25
 62
7
100
AcDbLine
 10
-5.0
 20
14.94041122946063
 30
0.0
 11
-4.950342691217191
 21
14.99006853824344
 31
0.0
  0
LINE
  5
550
330
1F
100
AcDbEntity
  8
SK2
  6
CONTINUOUS
370
25
 62
7
100
AcDbLine
 10
-5.0
 20
13.06101730552664
 30
0.0
 11
-4.949152245394465
 21
13.01016955092111
 31
0.0
  0
LINE
  5
551
330
1F
100
AcDbEntity
  8
SK2
  6
CONTINUOUS
370
25
 62
7
100
AcDbLine
 10
-5.0
 20
13.48528137423857
 30
0.0
 11
-4.595598854801191
 21
13.08088022903976
 31
0.0
  0
LINE
  5
552
330
1F
100
AcDbEntity
  8
SK2
  6
CONTINUOUS
370
25
 62
7
100
AcDbLine
 10
-5.0
 20
13.9095454429505
 30
0.0
 11
-4.242045464207918
 21
13.15159090715842
 31
0.0
  0
LINE
  5
553
330
1F
100
AcDbEntity
  8
SK2
  6
CONTINUOUS
370
25
 62
7
100
AcDbLine
 10
-5.0
 20
14.33380951166242
 30
0.0
 11
-3.888492073614645
 21
13.22230158527707
 31
0.0
  0
LINE
  5
554
330
1F
100
AcDbEntity
  8
SK2
  6
CONTINUOUS
370
25
 62
7
100
AcDbLine
 10
-5.0
 20
14.75807358037435
 30
0.0
 11
-3.534938683021372
 21
13.29301226339573
 31
0.0
  0
LINE
  5
555
330
1F
100
AcDbEntity
  8
SK2
  6
CONTINUOUS
370
25
 62
7
100
AcDbLine
 10
-4.77207793864215
 20
14.95441558772843
 30
0.0
 11
-3.181385292428098
 21
13.36372294151438
 31
0.0
  0
LINE
  5
556
330
1F
100
AcDbEntity
  8
SK2
  6
CONTINUOUS
370
25
 62
7
100
AcDbLine
 10
-4.241747852752241
 20
14.84834957055045
 30
0.0
 11
-2.827831901834826
 21
13.43443361963303
 31
0.0
  0
LINE
  5
557
330
1F
100
AcDbEntity
  8
SK2
  6
CONTINUOUS
370
25
 62
7
100
AcDbLine
 10
-3.711417766862331
 20
14.74228355337247
 30
0.0
 11
-2.474278511241553
 21
13.50514429775169
 31
0.0
  0
LINE
  5
558
330
1F
100
AcDbEntity
  8
SK2
  6
CONTINUOUS
370
25
 62
7
100
AcDbLine
 10
-3.18108768097242
 20
14.63621753619448
 30
0.0
 11
-2.120725120648279
 21
13.57585497587034
 31
0.0
  0
LINE
  5
559
330
1F
100
AcDbEntity
  8
SK2
  6
CONTINUOUS
370
25
 62
7
100
AcDbLine
 10
-2.650757595082508
 20
14.5301515190165
 30
0.0
 11
-1.767171730055004
 21
13.646565653989
 31
0.0
  0
LINE
  5
55A
330
1F
100
AcDbEntity
  8
SK2
  6
CONTINUOUS
370
25
 62
7
100
AcDbLine
 10
-2.120427509192599
 20
14.42408550183852
 30
0.0
 11
-1.413618339461732
 21
13.71727633210765
 31
0.0
  0
LINE
  5
55B
330
1F
100
AcDbEntity
  8
SK2
  6
CONTINUOUS
370
25
 62
7
100
AcDbLine
 10
-1.590097423302689
 20
14.31801948466054
 30
0.0
 11
-1.060064948868459
 21
13.78798701022631
 31
0.0
  0
LINE
  5
55C
330
1F
100
AcDbEntity
  8
SK2
  6
CONTINUOUS
370
25
 62
7
100
AcDbLine
 10
-1.059767337412779
 20
14.21195346748256
 30
0.0
 11
-0.706511558275185
 21
13.85869768834496
 31
0.0
  0
LINE
  5
55D
330
1F
100
AcDbEntity
  8
SK2
  6
CONTINUOUS
370
25
 62
7
100
AcDbLine
 10
-0.5294372515228676
 20
14.10588745030457
 30
0.0
 11
-0.3529581676819114
 21
13.92940836646362
 31
0.0
  0
TEXT
  5
55E
330
1F
100
AcDbEntity
  8
SK2
  6
CONTINUOUS
370
25
 62
7
100
AcDbText
 10
-16.91666666666667
 20
15.5
 30
0.0
 40
3.5
  1
28
 72
     1
 11
-14.0
 21
15.5
 31
0.0
100
AcDbText
  0
LINE
  5
55F
330
1F
100
AcDbEntity
  8
2
  6
CONTINUOUS
370
25
 62
7
100
AcDbLine
 10
10.84529946
 20
-2.0
 30
0.0
 11
45.0
 21
-2.000000000000004
 31
0.0
  0
LINE
  5
560
330
1F
100
AcDbEntity
  8
2
  6
CONTINUOUS
370
25
 62
7
100
AcDbLine
 10
45.0
 20
1.999999999999996
 30
0.0
 11
10.84529946
 21
2.0
 31
0.0
  0
LINE
  5
561
330
1F
100
AcDbEntity
  8
2
  6
CONTINUOUS
370
25
 62
7
100
AcDbLine
 10
44.0
 20
-9.000000000000004
 30
0.0
 11
44.0
 21
15.475
 31
0.0
  0
LINE
  5
562
330
1F
100
AcDbEntity
  8
2
  6
CONTINUOUS
370
25
 62
7
100
AcDbLine
 10
44.0
 20
-2.000000000000004
 30
0.0
 11
45.0
 21
-7.000000000000004
 31
0.0
  0
LINE
  5
563
330
1F
100
AcDbEntity
  8
2
  6
CONTINUOUS
370
25
 62
7
100
AcDbLine
 10
45.0
 20
-7.000000000000004
 30
0.0
 11
43.0
 21
-7.000000000000004
 31
0.0
  0
LINE
  5
564
330
1F
100
AcDbEntity
  8
2
  6
CONTINUOUS
370
25
 62
7
100
AcDbLine
 10
43.0
 20
-7.000000000000004
 30
0.0
 11
44.0
 21
-2.000000000000004
 31
0.0
  0
LINE
  5
565
330
1F
100
AcDbEntity
  8
2
  6
CONTINUOUS
370
25
 62
7
100
AcDbLine
 10
44.92008180298564
 20
-7.000000000000007
 30
0.0
 11
44.9866803004976
 21
-6.933401502488046
 31
0.0
  0
LINE
  5
566
330
1F
100
AcDbEntity
  8
2
  6
CONTINUOUS
370
25
 62
7
100
AcDbLine
 10
44.49581773427372
 20
-7.0
 30
0.0
 11
44.91596962237895
 21
-6.579848111894769
 31
0.0
  0
LINE
  5
567
330
1F
100
AcDbEntity
  8
2
  6
CONTINUOUS
370
25
 62
7
100
AcDbLine
 10
44.07155366556179
 20
-7.0
 30
0.0
 11
44.8452589442603
 21
-6.226294721301485
 31
0.0
  0
LINE
  5
568
330
1F
100
AcDbEntity
  8
2
  6
CONTINUOUS
370
25
 62
7
100
AcDbLine
 10
43.64728959684985
 20
-7.0
 30
0.0
 11
44.77454826614164
 21
-5.872741330708209
 31
0.0
  0
LINE
  5
569
330
1F
100
AcDbEntity
  8
2
  6
CONTINUOUS
370
25
 62
7
100
AcDbLine
 10
43.22302552813792
 20
-7.000000000000007
 30
0.0
 11
44.70383758802299
 21
-5.519187940114932
 31
0.0
  0
LINE
  5
56A
330
1F
100
AcDbEntity
  8
2
  6
CONTINUOUS
370
25
 62
7
100
AcDbLine
 10
43.0503096351435
 20
-6.748451824282498
 30
0.0
 11
44.63312690990434
 21
-5.165634549521656
 31
0.0
  0
LINE
  5
56B
330
1F
100
AcDbEntity
  8
2
  6
CONTINUOUS
370
25
 62
7
100
AcDbLine
 10
43.15637565232149
 20
-6.218121738392568
 30
0.0
 11
44.56241623178568
 21
-4.812081158928379
 31
0.0
  0
LINE
  5
56C
330
1F
100
AcDbEntity
  8
2
  6
CONTINUOUS
370
25
 62
7
100
AcDbLine
 10
43.26244166949947
 20
-5.687791652502654
 30
0.0
 11
44.49170555366702
 21
-4.458527768335102
 31
0.0
  0
LINE
  5
56D
330
1F
100
AcDbEntity
  8
2
  6
CONTINUOUS
370
25
 62
7
100
AcDbLine
 10
43.36850768667745
 20
-5.157461566612746
 30
0.0
 11
44.42099487554836
 21
-4.10497437774184
 31
0.0
  0
LINE
  5
56E
330
1F
100
AcDbEntity
  8
2
  6
CONTINUOUS
370
25
 62
7
100
AcDbLine
 10
43.47457370385543
 20
-4.627131480722831
 30
0.0
 11
44.35028419742971
 21
-3.751420987148556
 31
0.0
  0
LINE
  5
56F
330
1F
100
AcDbEntity
  8
2
  6
CONTINUOUS
370
25
 62
7
100
AcDbLine
 10
43.58063972103341
 20
-4.096801394832923
 30
0.0
 11
44.27957351931106
 21
-3.39786759655528
 31
0.0
  0
LINE
  5
570
330
1F
100
AcDbEntity
  8
2
  6
CONTINUOUS
370
25
 62
7
100
AcDbLine
 10
43.68670573821139
 20
-3.566471308943015
 30
0.0
 11
44.2088628411924
 21
-3.04431420596201
 31
0.0
  0
LINE
  5
571
330
1F
100
AcDbEntity
  8
2
  6
CONTINUOUS
370
25
 62
7
100
AcDbLine
 10
43.79277175538938
 20
-3.036141223053093
 30
0.0
 11
44.13815216307375
 21
-2.690760815368726
 31
0.0
  0
LINE
  5
572
330
1F
100
AcDbEntity
  8
2
  6
CONTINUOUS
370
25
 62
7
100
AcDbLine
 10
43.89883777256737
 20
-2.505811137163171
 30
0.0
 11
44.06744148495508
 21
-2.337207424775457
 31
0.0
  0
LINE
  5
573
330
1F
100
AcDbEntity
  8
2
  6
CONTINUOUS
370
25
 62
7
100
AcDbLine
 10
43.01040764008565
 20
-6.947961799571743
 30
0.0
 11
43.0624458405139
 21
-7.0
 31
0.0
  0
LINE
  5
574
330
1F
100
AcDbEntity
  8
2
  6
CONTINUOUS
370
25
 62
7
100
AcDbLine
 10
43.0811183182043
 20
-6.594408408978467
 30
0.0
 11
43.48670990922584
 21
-7.000000000000007
 31
0.0
  0
LINE
  5
575
330
1F
100
AcDbEntity
  8
2
  6
CONTINUOUS
370
25
 62
7
100
AcDbLine
 10
43.15182899632296
 20
-6.240855018385197
 30
0.0
 11
43.91097397793776
 21
-7.0
 31
0.0
  0
LINE
  5
576
330
1F
100
AcDbEntity
  8
2
  6
CONTINUOUS
370
25
 62
7
100
AcDbLine
 10
43.22253967444161
 20
-5.887301627791921
 30
0.0
 11
44.3352380466497
 21
-7.000000000000007
 31
0.0
  0
LINE
  5
577
330
1F
100
AcDbEntity
  8
2
  6
CONTINUOUS
370
25
 62
7
100
AcDbLine
 10
43.29325035256027
 20
-5.533748237198644
 30
0.0
 11
44.75950211536163
 21
-7.000000000000007
 31
0.0
  0
LINE
  5
578
330
1F
100
AcDbEntity
  8
2
  6
CONTINUOUS
370
25
 62
7
100
AcDbLine
 10
43.36396103067892
 20
-5.180194846605367
 30
0.0
 11
44.95405845398161
 21
-6.770292269908055
 31
0.0
  0
LINE
  5
579
330
1F
100
AcDbEntity
  8
2
  6
CONTINUOUS
370
25
 62
7
100
AcDbLine
 10
43.43467170879759
 20
-4.826641456012098
 30
0.0
 11
44.84799243680363
 21
-6.23996218401814
 31
0.0
  0
LINE
  5
57A
330
1F
100
AcDbEntity
  8
2
  6
CONTINUOUS
370
25
 62
7
100
AcDbLine
 10
43.50538238691624
 20
-4.473088065418814
 30
0.0
 11
44.74192641962564
 21
-5.709632098128218
 31
0.0
  0
LINE
  5
57B
330
1F
100
AcDbEntity
  8
2
  6
CONTINUOUS
370
25
 62
7
100
AcDbLine
 10
43.57609306503489
 20
-4.119534674825537
 30
0.0
 11
44.63586040244766
 21
-5.17930201223831
 31
0.0
  0
LINE
  5
57C
330
1F
100
AcDbEntity
  8
2
  6
CONTINUOUS
370
25
 62
7
100
AcDbLine
 10
43.64680374315355
 20
-3.765981284232261
 30
0.0
 11
44.52979438526967
 21
-4.648971926348388
 31
0.0
  0
LINE
  5
57D
330
1F
100
AcDbEntity
  8
2
  6
CONTINUOUS
370
25
 62
7
100
AcDbLine
 10
43.7175144212722
 20
-3.412427893638984
 30
0.0
 11
44.42372836809169
 21
-4.11864184045848
 31
0.0
  0
LINE
  5
57E
330
1F
100
AcDbEntity
  8
2
  6
CONTINUOUS
370
25
 62
7
100
AcDbLine
 10
43.78822509939086
 20
-3.058874503045715
 30
0.0
 11
44.31766235091371
 21
-3.588311754568565
 31
0.0
  0
LINE
  5
57F
330
1F
100
AcDbEntity
  8
2
  6
CONTINUOUS
370
25
 62
7
100
AcDbLine
 10
43.85893577750952
 20
-2.705321112452438
 30
0.0
 11
44.21159633373573
 21
-3.057981668678657
 31
0.0
  0
LINE
  5
580
330
1F
100
AcDbEntity
  8
2
  6
CONTINUOUS
370
25
 62
7
100
AcDbLine
 10
43.92964645562817
 20
-2.351767721859154
 30
0.0
 11
44.10553031655775
 21
-2.527651582788735
 31
0.0
  0
LINE
  5
581
330
1F
100
AcDbEntity
  8
2
  6
CONTINUOUS
370
25
 62
7
100
AcDbLine
 10
44.0
 20
1.999999999999996
 30
0.0
 11
43.0
 21
6.999999999999996
 31
0.0
  0
LINE
  5
582
330
1F
100
AcDbEntity
  8
2
  6
CONTINUOUS
370
25
 62
7
100
AcDbLine
 10
43.0
 20
6.999999999999996
 30
0.0
 11
45.0
 21
6.999999999999996
 31
0.0
  0
LINE
  5
583
330
1F
100
AcDbEntity
  8
2
  6
CONTINUOUS
370
25
 62
7
100
AcDbLine
 10
45.0
 20
6.999999999999996
 30
0.0
 11
44.0
 21
1.999999999999996
 31
0.0
  0
LINE
  5
584
330
1F
100
AcDbEntity
  8
2
  6
CONTINUOUS
370
25
 62
7
100
AcDbLine
 10
43.99684985141872
 20
2.015750742906427
 30
0.0
 11
44.00472522287193
 21
2.023626114359637
 31
0.0
  0
LINE
  5
585
330
1F
100
AcDbEntity
  8
2
  6
CONTINUOUS
370
25
 62
7
100
AcDbLine
 10
43.92613917330007
 20
2.369304133499703
 30
0.0
 11
44.11079124004991
 21
2.553956200249552
 31
0.0
  0
LINE
  5
586
330
1F
100
AcDbEntity
  8
2
  6
CONTINUOUS
370
25
 62
7
100
AcDbLine
 10
43.8554284951814
 20
2.722857524092973
 30
0.0
 11
44.2168572572279
 21
3.084286286139474
 31
0.0
  0
LINE
  5
587
330
1F
100
AcDbEntity
  8
2
  6
CONTINUOUS
370
25
 62
7
100
AcDbLine
 10
43.78471781706275
 20
3.076410914686249
 30
0.0
 11
44.32292327440588
 21
3.614616372029381
 31
0.0
  0
LINE
  5
588
330
1F
100
AcDbEntity
  8
2
  6
CONTINUOUS
370
25
 62
7
100
AcDbLine
 10
43.71400713894409
 20
3.429964305279526
 30
0.0
 11
44.42898929158386
 21
4.144946457919296
 31
0.0
  0
LINE
  5
589
330
1F
100
AcDbEntity
  8
2
  6
CONTINUOUS
370
25
 62
7
100
AcDbLine
 10
43.64329646082544
 20
3.78351769587281
 30
0.0
 11
44.53505530876185
 21
4.675276543809218
 31
0.0
  0
LINE
  5
58A
330
1F
100
AcDbEntity
  8
2
  6
CONTINUOUS
370
25
 62
7
100
AcDbLine
 10
43.57258578270679
 20
4.137071086466086
 30
0.0
 11
44.64112132593983
 21
5.205606629699126
 31
0.0
  0
LINE
  5
58B
330
1F
100
AcDbEntity
  8
2
  6
CONTINUOUS
370
25
 62
7
100
AcDbLine
 10
43.50187510458813
 20
4.490624477059363
 30
0.0
 11
44.74718734311781
 21
5.735936715589041
 31
0.0
  0
LINE
  5
58C
330
1F
100
AcDbEntity
  8
2
  6
CONTINUOUS
370
25
 62
7
100
AcDbLine
 10
43.43116442646948
 20
4.84417786765264
 30
0.0
 11
44.85325336029579
 21
6.266266801478942
 31
0.0
  0
LINE
  5
58D
330
1F
100
AcDbEntity
  8
2
  6
CONTINUOUS
370
25
 62
7
100
AcDbLine
 10
43.36045374835082
 20
5.197731258245916
 30
0.0
 11
44.95931937747377
 21
6.796596887368857
 31
0.0
  0
LINE
  5
58E
330
1F
100
AcDbEntity
  8
2
  6
CONTINUOUS
370
25
 62
7
100
AcDbLine
 10
43.28974307023217
 20
5.551284648839193
 30
0.0
 11
44.73845842139297
 21
6.999999999999993
 31
0.0
  0
LINE
  5
58F
330
1F
100
AcDbEntity
  8
2
  6
CONTINUOUS
370
25
 62
7
100
AcDbLine
 10
43.2190323921135
 20
5.904838039432455
 30
0.0
 11
44.31419435268105
 21
7.0
 31
0.0
  0
LINE
  5
590
330
1F
100
AcDbEntity
  8
2
  6
CONTINUOUS
370
25
 62
7
100
AcDbLine
 10
43.14832171399485
 20
6.258391430025732
 30
0.0
 11
43.88993028396911
 21
6.999999999999993
 31
0.0
  0
LINE
  5
591
330
1F
100
AcDbEntity
  8
2
  6
CONTINUOUS
370
25
 62
7
100
AcDbLine
 10
43.0776110358762
 20
6.611944820619016
 30
0.0
 11
43.46566621525718
 21
6.999999999999993
 31
0.0
  0
LINE
  5
592
330
1F
100
AcDbEntity
  8
2
  6
CONTINUOUS
370
25
 62
7
100
AcDbLine
 10
43.00690035775754
 20
6.965498211212292
 30
0.0
 11
43.04140214654524
 21
6.999999999999993
 31
0.0
  0
LINE
  5
593
330
1F
100
AcDbEntity
  8
2
  6
CONTINUOUS
370
25
 62
7
100
AcDbLine
 10
43.93880412759995
 20
2.305979362000258
 30
0.0
 11
44.04079724826671
 21
2.203986241333503
 31
0.0
  0
LINE
  5
594
330
1F
100
AcDbEntity
  8
2
  6
CONTINUOUS
370
25
 62
7
100
AcDbLine
 10
43.83273811042197
 20
2.836309447890166
 30
0.0
 11
44.11150792638536
 21
2.55753963192678
 31
0.0
  0
LINE
  5
595
330
1F
100
AcDbEntity
  8
2
  6
CONTINUOUS
370
25
 62
7
100
AcDbLine
 10
43.72667209324398
 20
3.366639533780081
 30
0.0
 11
44.18221860450402
 21
2.911093022520049
 31
0.0
  0
LINE
  5
596
330
1F
100
AcDbEntity
  8
2
  6
CONTINUOUS
370
25
 62
7
100
AcDbLine
 10
43.620606076066
 20
3.896969619669996
 30
0.0
 11
44.25292928262267
 21
3.264646413113333
 31
0.0
  0
LINE
  5
597
330
1F
100
AcDbEntity
  8
2
  6
CONTINUOUS
370
25
 62
7
100
AcDbLine
 10
43.51454005888802
 20
4.427299705559903
 30
0.0
 11
44.32363996074132
 21
3.618199803706609
 31
0.0
  0
LINE
  5
598
330
1F
100
AcDbEntity
  8
2
  6
CONTINUOUS
370
25
 62
7
100
AcDbLine
 10
43.40847404171004
 20
4.957629791449818
 30
0.0
 11
44.39435063885998
 21
3.971753194299886
 31
0.0
  0
LINE
  5
599
330
1F
100
AcDbEntity
  8
2
  6
CONTINUOUS
370
25
 62
7
100
AcDbLine
 10
43.30240802453205
 20
5.48795987733974
 30
0.0
 11
44.46506131697863
 21
4.325306584893156
 31
0.0
  0
LINE
  5
59A
330
1F
100
AcDbEntity
  8
2
  6
CONTINUOUS
370
25
 62
7
100
AcDbLine
 10
43.19634200735406
 20
6.018289963229662
 30
0.0
 11
44.5357719950973
 21
4.678859975486425
 31
0.0
  0
LINE
  5
59B
330
1F
100
AcDbEntity
  8
2
  6
CONTINUOUS
370
25
 62
7
100
AcDbLine
 10
43.09027599017607
 20
6.548620049119585
 30
0.0
 11
44.60648267321595
 21
5.032413366079709
 31
0.0
  0
LINE
  5
59C
330
1F
100
AcDbEntity
  8
2
  6
CONTINUOUS
370
25
 62
7
100
AcDbLine
 10
43.06316010800758
 20
7.0
 30
0.0
 11
44.6771933513346
 21
5.385966756672978
 31
0.0
  0
LINE
  5
59D
330
1F
100
AcDbEntity
  8
2
  6
CONTINUOUS
370
25
 62
7
100
AcDbLine
 10
43.48742417671951
 20
7.0
 30
0.0
 11
44.74790402945326
 21
5.739520147266255
 31
0.0
  0
LINE
  5
59E
330
1F
100
AcDbEntity
  8
2
  6
CONTINUOUS
370
25
 62
7
100
AcDbLine
 10
43.91168824543145
 20
7.0
 30
0.0
 11
44.81861470757191
 21
6.093073537859539
 31
0.0
  0
LINE
  5
59F
330
1F
100
AcDbEntity
  8
2
  6
CONTINUOUS
370
25
 62
7
100
AcDbLine
 10
44.33595231414338
 20
7.0
 30
0.0
 11
44.88932538569056
 21
6.446626928452822
 31
0.0
  0
LINE
  5
5A0
330
1F
100
AcDbEntity
  8
2
  6
CONTINUOUS
370
25
 62
7
100
AcDbLine
 10
44.76021638285532
 20
6.999999999999993
 30
0.0
 11
44.96003606380922
 21
6.800180319046092
 31
0.0
  0
TEXT
  5
5A1
330
1F
100
AcDbEntity
  8
2
  6
CONTINUOUS
370
25
 62
7
100
AcDbText
 10
42.5
 20
12.34583333333333
 30
0.0
 40
3.5
  1
4
 50
90.00000000000001
 72
     1
 11
42.5
 21
13.5125
 31
0.0
100
AcDbText
  0
CIRCLE
  5
5A2
330
1F
100
AcDbEntity
  8
2
  6
CONTINUOUS
370
25
 62
7
100
AcDbCircle
 10
40.75
 20
10.1875
 30
0.0
 40
1.4
  0
LINE
  5
5A3
330
1F
100
AcDbEntity
  8
2
  6
CONTINUOUS
370
25
 62
7
100
AcDbLine
 10
42.15
 20
8.787499999999998
 30
0.0
 11
39.35
 21
11.5875
 31
0.0
  0
LINE
  5
5A4
330
1F
100
AcDbEntity
  8
2
  6
CONTINUOUS
370
25
 62
7
100
AcDbLine
 10
0.0
 20
2.0
 30
0.0
 11
0.0000000000000014
 21
25.0
 31
0.0
  0
LINE
  5
5A5
330
1F
100
AcDbEntity
  8
2
  6
CONTINUOUS
370
25
 62
7
100
AcDbLine
 10
12.0
 20
25.0
 30
0.0
 11
12.0
 21
0.0
 31
0.0
  0
LINE
  5
5A6
330
1F
100
AcDbEntity
  8
2
  6
CONTINUOUS
370
25
 62
7
100
AcDbLine
 10
-7.0
 20
24.0
 30
0.0
 11
19.0
 21
24.0
 31
0.0
  0
LINE
  5
5A7
330
1F
100
AcDbEntity
  8
2
  6
CONTINUOUS
370
25
 62
7
100
AcDbLine
 10
0.0
 20
24.0
 30
0.0
 11
-5.0
 21
23.0
 31
0.0
  0
LINE
  5
5A8
330
1F
100
AcDbEntity
  8
2
  6
CONTINUOUS
370
25
 62
7
100
AcDbLine
 10
-5.0
 20
23.0
 30
0.0
 11
-5.0
 21
25.0
 31
0.0
  0
LINE
  5
5A9
330
1F
100
AcDbEntity
  8
2
  6
CONTINUOUS
370
25
 62
7
100
AcDbLine
 10
-5.0
 20
25.0
 30
0.0
 11
0.0
 21
24.0
 31
0.0
  0
LINE
  5
5AA
330
1F
100
AcDbEntity
  8
2
  6
CONTINUOUS
370
25
 62
7
100
AcDbLine
 10
-0.2288148957248737
 20
23.95423702085503
 30
0.0
 11
-0.1525432638165825
 21
24.03050865276332
 31
0.0
  0
LINE
  5
5AB
330
1F
100
AcDbEntity
  8
2
  6
CONTINUOUS
370
25
 62
7
100
AcDbLine
 10
-0.7591449816147875
 20
23.84817100367704
 30
0.0
 11
-0.5060966544098584
 21
24.10121933088197
 31
0.0
  0
LINE
  5
5AC
330
1F
100
AcDbEntity
  8
2
  6
CONTINUOUS
370
25
 62
7
100
AcDbLine
 10
-1.289475067504697
 20
23.74210498649906
 30
0.0
 11
-0.8596500450031315
 21
24.17193000900063
 31
0.0
  0
LINE
  5
5AD
330
1F
100
AcDbEntity
  8
2
  6
CONTINUOUS
370
25
 62
7
100
AcDbLine
 10
-1.819805153394606
 20
23.63603896932108
 30
0.0
 11
-1.213203435596405
 21
24.24264068711928
 31
0.0
  0
LINE
  5
5AE
330
1F
100
AcDbEntity
  8
2
  6
CONTINUOUS
370
25
 62
7
100
AcDbLine
 10
-2.350135239284515
 20
23.5299729521431
 30
0.0
 11
-1.566756826189677
 21
24.31335136523793
 31
0.0
  0
LINE
  5
5AF
330
1F
100
AcDbEntity
  8
2
  6
CONTINUOUS
370
25
 62
7
100
AcDbLine
 10
-2.880465325174429
 20
23.42390693496511
 30
0.0
 11
-1.920310216782953
 21
24.38406204335659
 31
0.0
  0
LINE
  5
5B0
330
1F
100
AcDbEntity
  8
2
  6
CONTINUOUS
370
25
 62
7
100
AcDbLine
 10
-3.410795411064338
 20
23.31784091778713
 30
0.0
 11
-2.273863607376226
 21
24.45477272147524
 31
0.0
  0
LINE
  5
5B1
330
1F
100
AcDbEntity
  8
2
  6
CONTINUOUS
370
25
 62
7
100
AcDbLine
 10
-3.941125496954248
 20
23.21177490060915
 30
0.0
 11
-2.627416997969499
 21
24.5254833995939
 31
0.0
  0
LINE
  5
5B2
330
1F
100
AcDbEntity
  8
2
  6
CONTINUOUS
370
25
 62
7
100
AcDbLine
 10
-4.471455582844157
 20
23.10570888343117
 30
0.0
 11
-2.980970388562772
 21
24.59619407771255
 31
0.0
  0
LINE
  5
5B3
330
1F
100
AcDbEntity
  8
2
  6
CONTINUOUS
370
25
 62
7
100
AcDbLine
 10
-5.0
 20
23.00142853498725
 30
0.0
 11
-3.334523779156044
 21
24.66690475583121
 31
0.0
  0
LINE
  5
5B4
330
1F
100
AcDbEntity
  8
2
  6
CONTINUOUS
370
25
 62
7
100
AcDbLine
 10
-5.0
 20
23.42569260369918
 30
0.0
 11
-3.688077169749317
 21
24.73761543394986
 31
0.0
  0
LINE
  5
5B5
330
1F
100
AcDbEntity
  8
2
  6
CONTINUOUS
370
25
 62
7
100
AcDbLine
 10
-5.0
 20
23.84995667241111
 30
0.0
 11
-4.04163056034259
 21
24.80832611206852
 31
0.0
  0
LINE
  5
5B6
330
1F
100
AcDbEntity
  8
2
  6
CONTINUOUS
370
25
 62
7
100
AcDbLine
 10
-5.0
 20
24.27422074112303
 30
0.0
 11
-4.395183950935863
 21
24.87903679018717
 31
0.0
  0
LINE
  5
5B7
330
1F
100
AcDbEntity
  8
2
  6
CONTINUOUS
370
25
 62
7
100
AcDbLine
 10
-5.0
 20
24.69848480983496
 30
0.0
 11
-4.748737341529136
 21
24.94974746830583
 31
0.0
  0
LINE
  5
5B8
330
1F
100
AcDbEntity
  8
2
  6
CONTINUOUS
370
25
 62
7
100
AcDbLine
 10
-5.0
 20
23.24335495461289
 30
0.0
 11
-4.797204204489259
 21
23.04055915910215
 31
0.0
  0
LINE
  5
5B9
330
1F
100
AcDbEntity
  8
2
  6
CONTINUOUS
370
25
 62
7
100
AcDbLine
 10
-5.0
 20
23.66761902332482
 30
0.0
 11
-4.443650813895985
 21
23.1112698372208
 31
0.0
  0
LINE
  5
5BA
330
1F
100
AcDbEntity
  8
2
  6
CONTINUOUS
370
25
 62
7
100
AcDbLine
 10
-5.0
 20
24.09188309203675
 30
0.0
 11
-4.090097423302711
 21
23.18198051533946
 31
0.0
  0
LINE
  5
5BB
330
1F
100
AcDbEntity
  8
2
  6
CONTINUOUS
370
25
 62
7
100
AcDbLine
 10
-5.0
 20
24.51614716074867
 30
0.0
 11
-3.736544032709438
 21
23.25269119345811
 31
0.0
  0
LINE
  5
5BC
330
1F
100
AcDbEntity
  8
2
  6
CONTINUOUS
370
25
 62
7
100
AcDbLine
 10
-5.0
 20
24.9404112294606
 30
0.0
 11
-3.382990642116165
 21
23.32340187157677
 31
0.0
  0
LINE
  5
5BD
330
1F
100
AcDbEntity
  8
2
  6
CONTINUOUS
370
25
 62
7
100
AcDbLine
 10
-4.544155877284344
 20
24.90883117545687
 30
0.0
 11
-3.029437251522894
 21
23.39411254969542
 31
0.0
  0
LINE
  5
5BE
330
1F
100
AcDbEntity
  8
2
  6
CONTINUOUS
370
25
 62
7
100
AcDbLine
 10
-4.013825791394433
 20
24.80276515827889
 30
0.0
 11
-2.67588386092962
 21
23.46482322781408
 31
0.0
  0
LINE
  5
5BF
330
1F
100
AcDbEntity
  8
2
  6
CONTINUOUS
370
25
 62
7
100
AcDbLine
 10
-3.483495705504522
 20
24.6966991411009
 30
0.0
 11
-2.322330470336347
 21
23.53553390593273
 31
0.0
  0
LINE
  5
5C0
330
1F
100
AcDbEntity
  8
2
  6
CONTINUOUS
370
25
 62
7
100
AcDbLine
 10
-2.953165619614608
 20
24.59063312392292
 30
0.0
 11
-1.968777079743071
 21
23.60624458405139
 31
0.0
  0
LINE
  5
5C1
330
1F
100
AcDbEntity
  8
2
  6
CONTINUOUS
370
25
 62
7
100
AcDbLine
 10
-2.422835533724697
 20
24.48456710674494
 30
0.0
 11
-1.615223689149797
 21
23.67695526217004
 31
0.0
  0
LINE
  5
5C2
330
1F
100
AcDbEntity
  8
2
  6
CONTINUOUS
370
25
 62
7
100
AcDbLine
 10
-1.892505447834791
 20
24.37850108956696
 30
0.0
 11
-1.261670298556526
 21
23.74766594028869
 31
0.0
  0
LINE
  5
5C3
330
1F
100
AcDbEntity
  8
2
  6
CONTINUOUS
370
25
 62
7
100
AcDbLine
 10
-1.362175361944876
 20
24.27243507238898
 30
0.0
 11
-0.90811690796325
 21
23.81837661840735
 31
0.0
  0
LINE
  5
5C4
330
1F
100
AcDbEntity
  8
2
  6
CONTINUOUS
370
25
 62
7
100
AcDbLine
 10
-0.8318452760549697
 20
24.16636905521099
 30
0.0
 11
-0.5545635173699793
 21
23.889087296526
 31
0.0
  0
LINE
  5
5C5
330
1F
100
AcDbEntity
  8
2
  6
CONTINUOUS
370
25
 62
7
100
AcDbLine
 10
-0.3015151901650588
 20
24.06030303803301
 30
0.0
 11
-0.2010101267767057
 21
23.95979797464466
 31
0.0
  0
LINE
  5
5C6
330
1F
100
AcDbEntity
  8
2
  6
CONTINUOUS
370
25
 62
7
100
AcDbLine
 10
12.0
 20
24.0
 30
0.0
 11
17.0
 21
25.0
 31
0.0
  0
LINE
  5
5C7
330
1F
100
AcDbEntity
  8
2
  6
CONTINUOUS
370
25
 62
7
100
AcDbLine
 10
17.0
 20
25.0
 30
0.0
 11
17.0
 21
23.0
 31
0.0
  0
LINE
  5
5C8
330
1F
100
AcDbEntity
  8
2
  6
CONTINUOUS
370
25
 62
7
100
AcDbLine
 10
17.0
 20
23.0
 30
0.0
 11
12.0
 21
24.0
 31
0.0
  0
LINE
  5
5C9
330
1F
100
AcDbEntity
  8
2
  6
CONTINUOUS
370
25
 62
7
100
AcDbLine
 10
16.69669914110089
 20
23.06066017177982
 30
0.0
 11
17.0
 21
23.36396103067893
 31
0.0
  0
LINE
  5
5CA
330
1F
100
AcDbEntity
  8
2
  6
CONTINUOUS
370
25
 62
7
100
AcDbLine
 10
16.34314575050762
 20
23.13137084989847
 30
0.0
 11
17.0
 21
23.78822509939085
 31
0.0
  0
LINE
  5
5CB
330
1F
100
AcDbEntity
  8
2
  6
CONTINUOUS
370
25
 62
7
100
AcDbLine
 10
15.98959235991435
 20
23.20208152801713
 30
0.0
 11
17.0
 21
24.21248916810278
 31
0.0
  0
LINE
  5
5CC
330
1F
100
AcDbEntity
  8
2
  6
CONTINUOUS
370
25
 62
7
100
AcDbLine
 10
15.63603896932108
 20
23.27279220613578
 30
0.0
 11
17.0
 21
24.63675323681471
 31
0.0
  0
LINE
  5
5CD
330
1F
100
AcDbEntity
  8
2
  6
CONTINUOUS
370
25
 62
7
100
AcDbLine
 10
15.2824855787278
 20
23.34350288425444
 30
0.0
 11
16.9237283680917
 21
24.98474567361834
 31
0.0
  0
LINE
  5
5CE
330
1F
100
AcDbEntity
  8
2
  6
CONTINUOUS
370
25
 62
7
100
AcDbLine
 10
14.92893218813453
 20
23.41421356237309
 30
0.0
 11
16.39339828220179
 21
24.87867965644036
 31
0.0
  0
LINE
  5
5CF
330
1F
100
AcDbEntity
  8
2
  6
CONTINUOUS
370
25
 62
7
100
AcDbLine
 10
14.57537879754126
 20
23.48492424049175
 30
0.0
 11
15.86306819631188
 21
24.77261363926237
 31
0.0
  0
LINE
  5
5D0
330
1F
100
AcDbEntity
  8
2
  6
CONTINUOUS
370
25
 62
7
100
AcDbLine
 10
14.22182540694798
 20
23.5556349186104
 30
0.0
 11
15.33273811042197
 21
24.66654762208439
 31
0.0
  0
LINE
  5
5D1
330
1F
100
AcDbEntity
  8
2
  6
CONTINUOUS
370
25
 62
7
100
AcDbLine
 10
13.86827201635471
 20
23.62634559672906
 30
0.0
 11
14.80240802453207
 21
24.56048160490641
 31
0.0
  0
LINE
  5
5D2
330
1F
100
AcDbEntity
  8
2
  6
CONTINUOUS
370
25
 62
7
100
AcDbLine
 10
13.51471862576144
 20
23.69705627484771
 30
0.0
 11
14.27207793864216
 21
24.45441558772843
 31
0.0
  0
LINE
  5
5D3
330
1F
100
AcDbEntity
  8
2
  6
CONTINUOUS
370
25
 62
7
100
AcDbLine
 10
13.16116523516816
 20
23.76776695296637
 30
0.0
 11
13.74174785275225
 21
24.34834957055045
 31
0.0
  0
LINE
  5
5D4
330
1F
100
AcDbEntity
  8
2
  6
CONTINUOUS
370
25
 62
7
100
AcDbLine
 10
12.80761184457489
 20
23.83847763108502
 30
0.0
 11
13.21141776686234
 21
24.24228355337247
 31
0.0
  0
LINE
  5
5D5
330
1F
100
AcDbEntity
  8
2
  6
CONTINUOUS
370
25
 62
7
100
AcDbLine
 10
12.45405845398162
 20
23.90918830920368
 30
0.0
 11
12.68108768097243
 21
24.13621753619449
 31
0.0
  0
LINE
  5
5D6
330
1F
100
AcDbEntity
  8
2
  6
CONTINUOUS
370
25
 62
7
100
AcDbLine
 10
12.10050506338835
 20
23.97989898732233
 30
0.0
 11
12.15075759508252
 21
24.0301515190165
 31
0.0
  0
LINE
  5
5D7
330
1F
100
AcDbEntity
  8
2
  6
CONTINUOUS
370
25
 62
7
100
AcDbLine
 10
12.05203820042826
 20
24.01040764008565
 30
0.0
 11
12.07805730064238
 21
23.98438853987152
 31
0.0
  0
LINE
  5
5D8
330
1F
100
AcDbEntity
  8
2
  6
CONTINUOUS
370
25
 62
7
100
AcDbLine
 10
12.40559159102153
 20
24.0811183182043
 30
0.0
 11
12.60838738653229
 21
23.87832252269354
 31
0.0
  0
LINE
  5
5D9
330
1F
100
AcDbEntity
  8
2
  6
CONTINUOUS
370
25
 62
7
100
AcDbLine
 10
12.7591449816148
 20
24.15182899632296
 30
0.0
 11
13.1387174724222
 21
23.77225650551556
 31
0.0
  0
LINE
  5
5DA
330
1F
100
AcDbEntity
  8
2
  6
CONTINUOUS
370
25
 62
7
100
AcDbLine
 10
13.11269837220808
 20
24.22253967444161
 30
0.0
 11
13.66904755831211
 21
23.66619048833758
 31
0.0
  0
LINE
  5
5DB
330
1F
100
AcDbEntity
  8
2
  6
CONTINUOUS
370
25
 62
7
100
AcDbLine
 10
13.46625176280135
 20
24.29325035256027
 30
0.0
 11
14.19937764420202
 21
23.5601244711596
 31
0.0
  0
LINE
  5
5DC
330
1F
100
AcDbEntity
  8
2
  6
CONTINUOUS
370
25
 62
7
100
AcDbLine
 10
13.81980515339462
 20
24.36396103067892
 30
0.0
 11
14.72970773009193
 21
23.45405845398161
 31
0.0
  0
LINE
  5
5DD
330
1F
100
AcDbEntity
  8
2
  6
CONTINUOUS
370
25
 62
7
100
AcDbLine
 10
14.1733585439879
 20
24.43467170879758
 30
0.0
 11
15.26003781598184
 21
23.34799243680363
 31
0.0
  0
LINE
  5
5DE
330
1F
100
AcDbEntity
  8
2
  6
CONTINUOUS
370
25
 62
7
100
AcDbLine
 10
14.52691193458117
 20
24.50538238691623
 30
0.0
 11
15.79036790187175
 21
23.24192641962565
 31
0.0
  0
LINE
  5
5DF
330
1F
100
AcDbEntity
  8
2
  6
CONTINUOUS
370
25
 62
7
100
AcDbLine
 10
14.88046532517444
 20
24.57609306503489
 30
0.0
 11
16.32069798776167
 21
23.13586040244767
 31
0.0
  0
LINE
  5
5E0
330
1F
100
AcDbEntity
  8
2
  6
CONTINUOUS
370
25
 62
7
100
AcDbLine
 10
15.23401871576772
 20
24.64680374315354
 30
0.0
 11
16.85102807365158
 21
23.02979438526969
 31
0.0
  0
LINE
  5
5E1
330
1F
100
AcDbEntity
  8
2
  6
CONTINUOUS
370
25
 62
7
100
AcDbLine
 10
15.58757210636099
 20
24.7175144212722
 30
0.0
 11
17.0
 21
23.30508652763319
 31
0.0
  0
LINE
  5
5E2
330
1F
100
AcDbEntity
  8
2
  6
CONTINUOUS
370
25
 62
7
100
AcDbLine
 10
15.94112549695426
 20
24.78822509939085
 30
0.0
 11
17.0
 21
23.72935059634512
 31
0.0
  0
LINE
  5
5E3
330
1F
100
AcDbEntity
  8
2
  6
CONTINUOUS
370
25
 62
7
100
AcDbLine
 10
16.29467888754754
 20
24.85893577750951
 30
0.0
 11
17.0
 21
24.15361466505705
 31
0.0
  0
LINE
  5
5E4
330
1F
100
AcDbEntity
  8
2
  6
CONTINUOUS
370
25
 62
7
100
AcDbLine
 10
16.64823227814081
 20
24.92964645562816
 30
0.0
 11
17.0
 21
24.57787873376897
 31
0.0
  0
TEXT
  5
5E5
330
1F
100
AcDbEntity
  8
2
  6
CONTINUOUS
370
25
 62
7
100
AcDbText
 10
3.666666666666668
 20
25.5
 30
0.0
 40
3.5
  1
12
 72
     1
 11
6.000000000000002
 21
25.5
 31
0.0
100
AcDbText
  0
LINE
  5
5E6
330
1F
100
AcDbEntity
  8
2
  6
CONTINUOUS
370
25
 62
7
100
AcDbLine
 10
9.0
 20
-2.0
 30
0.0
 11
8.999999999999998
 21
-35.0
 31
0.0
  0
LINE
  5
5E7
330
1F
100
AcDbEntity
  8
2
  6
CONTINUOUS
370
25
 62
7
100
AcDbLine
 10
12.0
 20
-35.0
 30
0.0
 11
12.0
 21
0.0
 31
0.0
  0
LINE
  5
5E8
330
1F
100
AcDbEntity
  8
2
  6
CONTINUOUS
370
25
 62
7
100
AcDbLine
 10
-0.9750000000000014
 20
-34.0
 30
0.0
 11
19.0
 21
-34.0
 31
0.0
  0
LINE
  5
5E9
330
1F
100
AcDbEntity
  8
2
  6
CONTINUOUS
370
25
 62
7
100
AcDbLine
 10
8.999999999999998
 20
-34.0
 30
0.0
 11
3.999999999999998
 21
-35.0
 31
0.0
  0
LINE
  5
5EA
330
1F
100
AcDbEntity
  8
2
  6
CONTINUOUS
370
25
 62
7
100
AcDbLine
 10
3.999999999999998
 20
-35.0
 30
0.0
 11
3.999999999999998
 21
-33.0
 31
0.0
  0
LINE
  5
5EB
330
1F
100
AcDbEntity
  8
2
  6
CONTINUOUS
370
25
 62
7
100
AcDbLine
 10
3.999999999999998
 20
-33.0
 30
0.0
 11
8.999999999999998
 21
-34.0
 31
0.0
  0
LINE
  5
5EC
330
1F
100
AcDbEntity
  8
2
  6
CONTINUOUS
370
25
 62
7
100
AcDbLine
 10
8.63538362797062
 20
-34.07292327440587
 30
0.0
 11
8.756922418647076
 21
-33.95138448372942
 31
0.0
  0
LINE
  5
5ED
330
1F
100
AcDbEntity
  8
2
  6
CONTINUOUS
370
25
 62
7
100
AcDbLine
 10
8.105053542080704
 20
-34.17898929158386
 30
0.0
 11
8.403369028053799
 21
-33.88067380561076
 31
0.0
  0
LINE
  5
5EE
330
1F
100
AcDbEntity
  8
2
  6
CONTINUOUS
370
25
 62
7
100
AcDbLine
 10
7.574723456190797
 20
-34.28505530876184
 30
0.0
 11
8.049815637460528
 21
-33.80996312749211
 31
0.0
  0
LINE
  5
5EF
330
1F
100
AcDbEntity
  8
2
  6
CONTINUOUS
370
25
 62
7
100
AcDbLine
 10
7.04439337030088
 20
-34.39112132593982
 30
0.0
 11
7.69626224686725
 21
-33.73925244937345
 31
0.0
  0
LINE
  5
5F0
330
1F
100
AcDbEntity
  8
2
  6
CONTINUOUS
370
25
 62
7
100
AcDbLine
 10
6.514063284410962
 20
-34.49718734311781
 30
0.0
 11
7.342708856273974
 21
-33.66854177125479
 31
0.0
  0
LINE
  5
5F1
330
1F
100
AcDbEntity
  8
2
  6
CONTINUOUS
370
25
 62
7
100
AcDbLine
 10
5.983733198521054
 20
-34.60325336029579
 30
0.0
 11
6.989155465680701
 21
-33.59783109313614
 31
0.0
  0
LINE
  5
5F2
330
1F
100
AcDbEntity
  8
2
  6
CONTINUOUS
370
25
 62
7
100
AcDbLine
 10
5.453403112631135
 20
-34.70931937747377
 30
0.0
 11
6.635602075087423
 21
-33.52712041501749
 31
0.0
  0
LINE
  5
5F3
330
1F
100
AcDbEntity
  8
2
  6
CONTINUOUS
370
25
 62
7
100
AcDbLine
 10
4.923073026741225
 20
-34.81538539465176
 30
0.0
 11
6.282048684494152
 21
-33.45640973689883
 31
0.0
  0
LINE
  5
5F4
330
1F
100
AcDbEntity
  8
2
  6
CONTINUOUS
370
25
 62
7
100
AcDbLine
 10
4.392742940851305
 20
-34.92145141182974
 30
0.0
 11
5.928495293900872
 21
-33.38569905878018
 31
0.0
  0
LINE
  5
5F5
330
1F
100
AcDbEntity
  8
2
  6
CONTINUOUS
370
25
 62
7
100
AcDbLine
 10
3.999999999999998
 20
-34.88993028396911
 30
0.0
 11
5.574941903307599
 21
-33.31498838066153
 31
0.0
  0
LINE
  5
5F6
330
1F
100
AcDbEntity
  8
2
  6
CONTINUOUS
370
25
 62
7
100
AcDbLine
 10
3.999999999999998
 20
-34.46566621525719
 30
0.0
 11
5.221388512714326
 21
-33.24427770254287
 31
0.0
  0
LINE
  5
5F7
330
1F
100
AcDbEntity
  8
2
  6
CONTINUOUS
370
25
 62
7
100
AcDbLine
 10
3.999999999999998
 20
-34.04140214654525
 30
0.0
 11
4.867835122121047
 21
-33.17356702442422
 31
0.0
  0
LINE
  5
5F8
330
1F
100
AcDbEntity
  8
2
  6
CONTINUOUS
370
25
 62
7
100
AcDbLine
 10
3.999999999999998
 20
-33.61713807783333
 30
0.0
 11
4.514281731527774
 21
-33.10285634630556
 31
0.0
  0
LINE
  5
5F9
330
1F
100
AcDbEntity
  8
2
  6
CONTINUOUS
370
25
 62
7
100
AcDbLine
 10
3.999999999999998
 20
-33.1928740091214
 30
0.0
 11
4.160728340934494
 21
-33.0321456681869
 31
0.0
  0
LINE
  5
5FA
330
1F
100
AcDbEntity
  8
2
  6
CONTINUOUS
370
25
 62
7
100
AcDbLine
 10
3.999999999999998
 20
-34.70902116987016
 30
0.0
 11
4.242482358441527
 21
-34.95150352831169
 31
0.0
  0
LINE
  5
5FB
330
1F
100
AcDbEntity
  8
2
  6
CONTINUOUS
370
25
 62
7
100
AcDbLine
 10
3.999999999999998
 20
-34.28475710115823
 30
0.0
 11
4.596035749034803
 21
-34.88079285019304
 31
0.0
  0
LINE
  5
5FC
330
1F
100
AcDbEntity
  8
2
  6
CONTINUOUS
370
25
 62
7
100
AcDbLine
 10
3.999999999999998
 20
-33.86049303244631
 30
0.0
 11
4.949589139628078
 21
-34.81008217207438
 31
0.0
  0
LINE
  5
5FD
330
1F
100
AcDbEntity
  8
2
  6
CONTINUOUS
370
25
 62
7
100
AcDbLine
 10
3.999999999999998
 20
-33.43622896373438
 30
0.0
 11
5.303142530221353
 21
-34.73937149395573
 31
0.0
  0
LINE
  5
5FE
330
1F
100
AcDbEntity
  8
2
  6
CONTINUOUS
370
25
 62
7
100
AcDbLine
 10
3.999999999999998
 20
-33.01196489502244
 30
0.0
 11
5.656695920814628
 21
-34.66866081583707
 31
0.0
  0
LINE
  5
5FF
330
1F
100
AcDbEntity
  8
2
  6
CONTINUOUS
370
25
 62
7
100
AcDbLine
 10
4.515373967111853
 20
-33.10307479342237
 30
0.0
 11
6.010249311407902
 21
-34.59795013771841
 31
0.0
  0
LINE
  5
600
330
1F
100
AcDbEntity
  8
2
  6
CONTINUOUS
370
25
 62
7
100
AcDbLine
 10
5.045704053001767
 20
-33.20914081060036
 30
0.0
 11
6.363802702001178
 21
-34.52723945959976
 31
0.0
  0
LINE
  5
601
330
1F
100
AcDbEntity
  8
2
  6
CONTINUOUS
370
25
 62
7
100
AcDbLine
 10
5.576034138891682
 20
-33.31520682777834
 30
0.0
 11
6.717356092594455
 21
-34.4565287814811
 31
0.0
  0
LINE
  5
602
330
1F
100
AcDbEntity
  8
2
  6
CONTINUOUS
370
25
 62
7
100
AcDbLine
 10
6.106364224781594
 20
-33.42127284495632
 30
0.0
 11
7.070909483187727
 21
-34.38581810336245
 31
0.0
  0
LINE
  5
603
330
1F
100
AcDbEntity
  8
2
  6
CONTINUOUS
370
25
 62
7
100
AcDbLine
 10
6.63669431067151
 20
-33.52733886213431
 30
0.0
 11
7.424462873781005
 21
-34.3151074252438
 31
0.0
  0
LINE
  5
604
330
1F
100
AcDbEntity
  8
2
  6
CONTINUOUS
370
25
 62
7
100
AcDbLine
 10
7.167024396561424
 20
-33.63340487931229
 30
0.0
 11
7.778016264374282
 21
-34.24439674712514
 31
0.0
  0
LINE
  5
605
330
1F
100
AcDbEntity
  8
2
  6
CONTINUOUS
370
25
 62
7
100
AcDbLine
 10
7.697354482451336
 20
-33.73947089649027
 30
0.0
 11
8.131569654967556
 21
-34.17368606900649
 31
0.0
  0
LINE
  5
606
330
1F
100
AcDbEntity
  8
2
  6
CONTINUOUS
370
25
 62
7
100
AcDbLine
 10
8.227684568341255
 20
-33.84553691366825
 30
0.0
 11
8.485123045560833
 21
-34.10297539088783
 31
0.0
  0
LINE
  5
607
330
1F
100
AcDbEntity
  8
2
  6
CONTINUOUS
370
25
 62
7
100
AcDbLine
 10
8.758014654231166
 20
-33.95160293084624
 30
0.0
 11
8.838676436154106
 21
-34.03226471276918
 31
0.0
  0
LINE
  5
608
330
1F
100
AcDbEntity
  8
2
  6
CONTINUOUS
370
25
 62
7
100
AcDbLine
 10
12.0
 20
-34.0
 30
0.0
 11
17.0
 21
-33.0
 31
0.0
  0
LINE
  5
609
330
1F
100
AcDbEntity
  8
2
  6
CONTINUOUS
370
25
 62
7
100
AcDbLine
 10
17.0
 20
-33.0
 30
0.0
 11
17.0
 21
-35.0
 31
0.0
  0
LINE
  5
60A
330
1F
100
AcDbEntity
  8
2
  6
CONTINUOUS
370
25
 62
7
100
AcDbLine
 10
17.0
 20
-35.0
 30
0.0
 11
12.0
 21
-34.0
 31
0.0
  0
LINE
  5
60B
330
1F
100
AcDbEntity
  8
2
  6
CONTINUOUS
370
25
 62
7
100
AcDbLine
 10
16.933401502488
 20
-34.9866803004976
 30
0.0
 11
17.0
 21
-34.92008180298561
 31
0.0
  0
LINE
  5
60C
330
1F
100
AcDbEntity
  8
2
  6
CONTINUOUS
370
25
 62
7
100
AcDbLine
 10
16.57984811189473
 20
-34.91596962237895
 30
0.0
 11
17.0
 21
-34.49581773427367
 31
0.0
  0
LINE
  5
60D
330
1F
100
AcDbEntity
  8
2
  6
CONTINUOUS
370
25
 62
7
100
AcDbLine
 10
16.22629472130146
 20
-34.84525894426029
 30
0.0
 11
17.0
 21
-34.07155366556175
 31
0.0
  0
LINE
  5
60E
330
1F
100
AcDbEntity
  8
2
  6
CONTINUOUS
370
25
 62
7
100
AcDbLine
 10
15.87274133070818
 20
-34.77454826614164
 30
0.0
 11
17.0
 21
-33.64728959684982
 31
0.0
  0
LINE
  5
60F
330
1F
100
AcDbEntity
  8
2
  6
CONTINUOUS
370
25
 62
7
100
AcDbLine
 10
15.51918794011491
 20
-34.70383758802298
 30
0.0
 11
17.0
 21
-33.2230255281379
 31
0.0
  0
LINE
  5
610
330
1F
100
AcDbEntity
  8
2
  6
CONTINUOUS
370
25
 62
7
100
AcDbLine
 10
15.16563454952163
 20
-34.63312690990433
 30
0.0
 11
16.74845182428245
 21
-33.05030963514351
 31
0.0
  0
LINE
  5
611
330
1F
100
AcDbEntity
  8
2
  6
CONTINUOUS
370
25
 62
7
100
AcDbLine
 10
14.81208115892836
 20
-34.56241623178567
 30
0.0
 11
16.21812173839254
 21
-33.15637565232149
 31
0.0
  0
LINE
  5
612
330
1F
100
AcDbEntity
  8
2
  6
CONTINUOUS
370
25
 62
7
100
AcDbLine
 10
14.45852776833508
 20
-34.49170555366702
 30
0.0
 11
15.68779165250263
 21
-33.26244166949947
 31
0.0
  0
LINE
  5
613
330
1F
100
AcDbEntity
  8
2
  6
CONTINUOUS
370
25
 62
7
100
AcDbLine
 10
14.1049743777418
 20
-34.42099487554836
 30
0.0
 11
15.15746156661271
 21
-33.36850768667746
 31
0.0
  0
LINE
  5
614
330
1F
100
AcDbEntity
  8
2
  6
CONTINUOUS
370
25
 62
7
100
AcDbLine
 10
13.75142098714853
 20
-34.35028419742971
 30
0.0
 11
14.62713148072281
 21
-33.47457370385544
 31
0.0
  0
LINE
  5
615
330
1F
100
AcDbEntity
  8
2
  6
CONTINUOUS
370
25
 62
7
100
AcDbLine
 10
13.39786759655526
 20
-34.27957351931105
 30
0.0
 11
14.09680139483289
 21
-33.58063972103342
 31
0.0
  0
LINE
  5
616
330
1F
100
AcDbEntity
  8
2
  6
CONTINUOUS
370
25
 62
7
100
AcDbLine
 10
13.04431420596198
 20
-34.2088628411924
 30
0.0
 11
13.56647130894298
 21
-33.6867057382114
 31
0.0
  0
LINE
  5
617
330
1F
100
AcDbEntity
  8
2
  6
CONTINUOUS
370
25
 62
7
100
AcDbLine
 10
12.69076081536871
 20
-34.13815216307374
 30
0.0
 11
13.03614122305306
 21
-33.79277175538939
 31
0.0
  0
LINE
  5
618
330
1F
100
AcDbEntity
  8
2
  6
CONTINUOUS
370
25
 62
7
100
AcDbLine
 10
12.33720742477543
 20
-34.06744148495508
 30
0.0
 11
12.50581113716314
 21
-33.89883777256737
 31
0.0
  0
LINE
  5
619
330
1F
100
AcDbEntity
  8
2
  6
CONTINUOUS
370
25
 62
7
100
AcDbLine
 10
12.0654080516892
 20
-33.98691838966216
 30
0.0
 11
12.09811207753381
 21
-34.01962241550676
 31
0.0
  0
LINE
  5
61A
330
1F
100
AcDbEntity
  8
2
  6
CONTINUOUS
370
25
 62
7
100
AcDbLine
 10
12.41896144228248
 20
-33.91620771154351
 30
0.0
 11
12.62844216342372
 21
-34.12568843268474
 31
0.0
  0
LINE
  5
61B
330
1F
100
AcDbEntity
  8
2
  6
CONTINUOUS
370
25
 62
7
100
AcDbLine
 10
12.77251483287575
 20
-33.84549703342485
 30
0.0
 11
13.15877224931363
 21
-34.23175444986273
 31
0.0
  0
LINE
  5
61C
330
1F
100
AcDbEntity
  8
2
  6
CONTINUOUS
370
25
 62
7
100
AcDbLine
 10
13.12606822346903
 20
-33.77478635530619
 30
0.0
 11
13.68910233520355
 21
-34.33782046704071
 31
0.0
  0
LINE
  5
61D
330
1F
100
AcDbEntity
  8
2
  6
CONTINUOUS
370
25
 62
7
100
AcDbLine
 10
13.4796216140623
 20
-33.70407567718754
 30
0.0
 11
14.21943242109346
 21
-34.44388648421869
 31
0.0
  0
LINE
  5
61E
330
1F
100
AcDbEntity
  8
2
  6
CONTINUOUS
370
25
 62
7
100
AcDbLine
 10
13.83317500465558
 20
-33.63336499906889
 30
0.0
 11
14.74976250698337
 21
-34.54995250139667
 31
0.0
  0
LINE
  5
61F
330
1F
100
AcDbEntity
  8
2
  6
CONTINUOUS
370
25
 62
7
100
AcDbLine
 10
14.18672839524885
 20
-33.56265432095023
 30
0.0
 11
15.28009259287329
 21
-34.65601851857465
 31
0.0
  0
LINE
  5
620
330
1F
100
AcDbEntity
  8
2
  6
CONTINUOUS
370
25
 62
7
100
AcDbLine
 10
14.54028178584213
 20
-33.49194364283157
 30
0.0
 11
15.8104226787632
 21
-34.76208453575264
 31
0.0
  0
LINE
  5
621
330
1F
100
AcDbEntity
  8
2
  6
CONTINUOUS
370
25
 62
7
100
AcDbLine
 10
14.8938351764354
 20
-33.42123296471292
 30
0.0
 11
16.34075276465312
 21
-34.86815055293063
 31
0.0
  0
LINE
  5
622
330
1F
100
AcDbEntity
  8
2
  6
CONTINUOUS
370
25
 62
7
100
AcDbLine
 10
15.24738856702868
 20
-33.35052228659426
 30
0.0
 11
16.87108285054303
 21
-34.97421657010861
 31
0.0
  0
LINE
  5
623
330
1F
100
AcDbEntity
  8
2
  6
CONTINUOUS
370
25
 62
7
100
AcDbLine
 10
15.60094195762195
 20
-33.27981160847561
 30
0.0
 11
17.0
 21
-34.67886965085364
 31
0.0
  0
LINE
  5
624
330
1F
100
AcDbEntity
  8
2
  6
CONTINUOUS
370
25
 62
7
100
AcDbLine
 10
15.95449534821523
 20
-33.20910093035695
 30
0.0
 11
17.0
 21
-34.25460558214172
 31
0.0
  0
LINE
  5
625
330
1F
100
AcDbEntity
  8
2
  6
CONTINUOUS
370
25
 62
7
100
AcDbLine
 10
16.30804873880851
 20
-33.1383902522383
 30
0.0
 11
17.0
 21
-33.83034151342979
 31
0.0
  0
LINE
  5
626
330
1F
100
AcDbEntity
  8
2
  6
CONTINUOUS
370
25
 62
7
100
AcDbLine
 10
16.66160212940178
 20
-33.06767957411964
 30
0.0
 11
17.0
 21
-33.40607744471787
 31
0.0
  0
TEXT
  5
627
330
1F
100
AcDbEntity
  8
2
  6
CONTINUOUS
370
25
 62
7
100
AcDbText
 10
0.3458333333333317
 20
-32.5
 30
0.0
 40
3.5
  1
3
 72
     1
 11
1.512499999999998
 21
-32.5
 31
0.0
100
AcDbText
  0
LINE
  5
628
330
1F
100
AcDbEntity
  8
SK2
  6
CONTINUOUS
370
25
 62
7
100
AcDbLine
 10
-28.0
 20
4.0
 30
0.0
 11
-28.0
 21
35.0
 31
0.0
  0
LINE
  5
629
330
1F
100
AcDbEntity
  8
SK2
  6
CONTINUOUS
370
25
 62
7
100
AcDbLine
 10
12.0
 20
35.0
 30
0.0
 11
12.0
 21
0.0
 31
0.0
  0
LINE
  5
62A
330
1F
100
AcDbEntity
  8
SK2
  6
CONTINUOUS
370
25
 62
7
100
AcDbLine
 10
-28.0
 20
34.0
 30
0.0
 11
12.0
 21
34.0
 31
0.0
  0
LINE
  5
62B
330
1F
100
AcDbEntity
  8
SK2
  6
CONTINUOUS
370
25
 62
7
100
AcDbLine
 10
-28.0
 20
34.0
 30
0.0
 11
-23.0
 21
35.0
 31
0.0
  0
LINE
  5
62C
330
1F
100
AcDbEntity
  8
SK2
  6
CONTINUOUS
370
25
 62
7
100
AcDbLine
 10
-23.0
 20
35.0
 30
0.0
 11
-23.0
 21
33.0
 31
0.0
  0
LINE
  5
62D
330
1F
100
AcDbEntity
  8
SK2
  6
CONTINUOUS
370
25
 62
7
100
AcDbLine
 10
-23.0
 20
33.0
 30
0.0
 11
-28.0
 21
34.0
 31
0.0
  0
LINE
  5
62E
330
1F
100
AcDbEntity
  8
SK2
  6
CONTINUOUS
370
25
 62
7
100
AcDbLine
 10
-23.00238089164547
 20
33.00047617832909
 30
0.0
 11
-23.0
 21
33.00285706997457
 31
0.0
  0
LINE
  5
62F
330
1F
100
AcDbEntity
  8
SK2
  6
CONTINUOUS
370
25
 62
7
100
AcDbLine
 10
-23.35593428223874
 20
33.07118685644775
 30
0.0
 11
-23.0
 21
33.42712113868649
 31
0.0
  0
LINE
  5
630
330
1F
100
AcDbEntity
  8
SK2
  6
CONTINUOUS
370
25
 62
7
100
AcDbLine
 10
-23.70948767283202
 20
33.1418975345664
 30
0.0
 11
-23.0
 21
33.85138520739842
 31
0.0
  0
LINE
  5
631
330
1F
100
AcDbEntity
  8
SK2
  6
CONTINUOUS
370
25
 62
7
100
AcDbLine
 10
-24.0630410634253
 20
33.21260821268505
 30
0.0
 11
-23.0
 21
34.27564927611036
 31
0.0
  0
LINE
  5
632
330
1F
100
AcDbEntity
  8
SK2
  6
CONTINUOUS
370
25
 62
7
100
AcDbLine
 10
-24.41659445401857
 20
33.28331889080371
 30
0.0
 11
-23.0
 21
34.69991334482229
 31
0.0
  0
LINE
  5
633
330
1F
100
AcDbEntity
  8
SK2
  6
CONTINUOUS
370
25
 62
7
100
AcDbLine
 10
-24.77014784461184
 20
33.35402956892236
 30
0.0
 11
-23.15522176691776
 21
34.96895564661645
 31
0.0
  0
LINE
  5
634
330
1F
100
AcDbEntity
  8
SK2
  6
CONTINUOUS
370
25
 62
7
100
AcDbLine
 10
-25.12370123520512
 20
33.42474024704102
 30
0.0
 11
-23.68555185280768
 21
34.86288962943847
 31
0.0
  0
LINE
  5
635
330
1F
100
AcDbEntity
  8
SK2
  6
CONTINUOUS
370
25
 62
7
100
AcDbLine
 10
-25.47725462579839
 20
33.49545092515967
 30
0.0
 11
-24.21588193869758
 21
34.75682361226049
 31
0.0
  0
LINE
  5
636
330
1F
100
AcDbEntity
  8
SK2
  6
CONTINUOUS
370
25
 62
7
100
AcDbLine
 10
-25.83080801639166
 20
33.56616160327833
 30
0.0
 11
-24.74621202458749
 21
34.65075759508251
 31
0.0
  0
LINE
  5
637
330
1F
100
AcDbEntity
  8
SK2
  6
CONTINUOUS
370
25
 62
7
100
AcDbLine
 10
-26.18436140698494
 20
33.63687228139699
 30
0.0
 11
-25.27654211047741
 21
34.54469157790452
 31
0.0
  0
LINE
  5
638
330
1F
100
AcDbEntity
  8
SK2
  6
CONTINUOUS
370
25
 62
7
100
AcDbLine
 10
-26.53791479757821
 20
33.70758295951563
 30
0.0
 11
-25.80687219636731
 21
34.43862556072654
 31
0.0
  0
LINE
  5
639
330
1F
100
AcDbEntity
  8
SK2
  6
CONTINUOUS
370
25
 62
7
100
AcDbLine
 10
-26.89146818817149
 20
33.77829363763429
 30
0.0
 11
-26.33720228225723
 21
34.33255954354856
 31
0.0
  0
LINE
  5
63A
330
1F
100
AcDbEntity
  8
SK2
  6
CONTINUOUS
370
25
 62
7
100
AcDbLine
 10
-27.24502157876476
 20
33.84900431575295
 30
0.0
 11
-26.86753236814714
 21
34.22649352637058
 31
0.0
  0
LINE
  5
63B
330
1F
100
AcDbEntity
  8
SK2
  6
CONTINUOUS
370
25
 62
7
100
AcDbLine
 10
-27.59857496935803
 20
33.91971499387161
 30
0.0
 11
-27.39786245403705
 21
34.1204275091926
 31
0.0
  0
LINE
  5
63C
330
1F
100
AcDbEntity
  8
SK2
  6
CONTINUOUS
370
25
 62
7
100
AcDbLine
 10
-27.95212835995131
 20
33.99042567199026
 30
0.0
 11
-27.92819253992695
 21
34.01436149201461
 31
0.0
  0
LINE
  5
63D
330
1F
100
AcDbEntity
  8
SK2
  6
CONTINUOUS
370
25
 62
7
100
AcDbLine
 10
-27.69669914110101
 20
34.0606601717798
 30
0.0
 11
-27.54504871165151
 21
33.9090097423303
 31
0.0
  0
LINE
  5
63E
330
1F
100
AcDbEntity
  8
SK2
  6
CONTINUOUS
370
25
 62
7
100
AcDbLine
 10
-27.34314575050773
 20
34.13137084989845
 30
0.0
 11
-27.0147186257616
 21
33.80294372515232
 31
0.0
  0
LINE
  5
63F
330
1F
100
AcDbEntity
  8
SK2
  6
CONTINUOUS
370
25
 62
7
100
AcDbLine
 10
-26.98959235991446
 20
34.20208152801712
 30
0.0
 11
-26.48438853987169
 21
33.69687770797434
 31
0.0
  0
LINE
  5
640
330
1F
100
AcDbEntity
  8
SK2
  6
CONTINUOUS
370
25
 62
7
100
AcDbLine
 10
-26.63603896932119
 20
34.27279220613576
 30
0.0
 11
-25.95405845398178
 21
33.59081169079635
 31
0.0
  0
LINE
  5
641
330
1F
100
AcDbEntity
  8
SK2
  6
CONTINUOUS
370
25
 62
7
100
AcDbLine
 10
-26.28248557872791
 20
34.34350288425442
 30
0.0
 11
-25.42372836809187
 21
33.48474567361837
 31
0.0
  0
LINE
  5
642
330
1F
100
AcDbEntity
  8
SK2
  6
CONTINUOUS
370
25
 62
7
100
AcDbLine
 10
-25.92893218813464
 20
34.41421356237308
 30
0.0
 11
-24.89339828220196
 21
33.37867965644039
 31
0.0
  0
LINE
  5
643
330
1F
100
AcDbEntity
  8
SK2
  6
CONTINUOUS
370
25
 62
7
100
AcDbLine
 10
-25.57537879754137
 20
34.48492424049173
 30
0.0
 11
-24.36306819631205
 21
33.2726136392624
 31
0.0
  0
LINE
  5
644
330
1F
100
AcDbEntity
  8
SK2
  6
CONTINUOUS
370
25
 62
7
100
AcDbLine
 10
-25.22182540694809
 20
34.55563491861038
 30
0.0
 11
-23.83273811042213
 21
33.16654762208442
 31
0.0
  0
LINE
  5
645
330
1F
100
AcDbEntity
  8
SK2
  6
CONTINUOUS
370
25
 62
7
100
AcDbLine
 10
-24.86827201635482
 20
34.62634559672904
 30
0.0
 11
-23.30240802453223
 21
33.06048160490644
 31
0.0
  0
LINE
  5
646
330
1F
100
AcDbEntity
  8
SK2
  6
CONTINUOUS
370
25
 62
7
100
AcDbLine
 10
-24.51471862576154
 20
34.6970562748477
 30
0.0
 11
-23.0
 21
33.18233764908614
 31
0.0
  0
LINE
  5
647
330
1F
100
AcDbEntity
  8
SK2
  6
CONTINUOUS
370
25
 62
7
100
AcDbLine
 10
-24.16116523516827
 20
34.76776695296635
 30
0.0
 11
-23.0
 21
33.60660171779807
 31
0.0
  0
LINE
  5
648
330
1F
100
AcDbEntity
  8
SK2
  6
CONTINUOUS
370
25
 62
7
100
AcDbLine
 10
-23.807611844575
 20
34.83847763108501
 30
0.0
 11
-23.0
 21
34.03086578651
 31
0.0
  0
LINE
  5
649
330
1F
100
AcDbEntity
  8
SK2
  6
CONTINUOUS
370
25
 62
7
100
AcDbLine
 10
-23.45405845398172
 20
34.90918830920366
 30
0.0
 11
-23.0
 21
34.45512985522193
 31
0.0
  0
LINE
  5
64A
330
1F
100
AcDbEntity
  8
SK2
  6
CONTINUOUS
370
25
 62
7
100
AcDbLine
 10
-23.10050506338845
 20
34.97989898732231
 30
0.0
 11
-23.0
 21
34.87939392393386
 31
0.0
  0
LINE
  5
64B
330
1F
100
AcDbEntity
  8
SK2
  6
CONTINUOUS
370
25
 62
7
100
AcDbLine
 10
12.0
 20
34.0
 30
0.0
 11
7.000000000000004
 21
33.0
 31
0.0
  0
LINE
  5
64C
330
1F
100
AcDbEntity
  8
SK2
  6
CONTINUOUS
370
25
 62
7
100
AcDbLine
 10
7.000000000000004
 20
33.0
 30
0.0
 11
7.000000000000004
 21
35.0
 31
0.0
  0
LINE
  5
64D
330
1F
100
AcDbEntity
  8
SK2
  6
CONTINUOUS
370
25
 62
7
100
AcDbLine
 10
7.000000000000004
 20
35.0
 30
0.0
 11
12.0
 21
34.0
 31
0.0
  0
LINE
  5
64E
330
1F
100
AcDbEntity
  8
SK2
  6
CONTINUOUS
370
25
 62
7
100
AcDbLine
 10
11.9228355337247
 20
33.98456710674493
 30
0.0
 11
11.94855702248313
 21
34.01028859550337
 31
0.0
  0
LINE
  5
64F
330
1F
100
AcDbEntity
  8
SK2
  6
CONTINUOUS
370
25
 62
7
100
AcDbLine
 10
11.39250544783479
 20
33.87850108956695
 30
0.0
 11
11.59500363188986
 21
34.08099927362203
 31
0.0
  0
LINE
  5
650
330
1F
100
AcDbEntity
  8
SK2
  6
CONTINUOUS
370
25
 62
7
100
AcDbLine
 10
10.86217536194488
 20
33.77243507238897
 30
0.0
 11
11.24145024129659
 21
34.15170995174068
 31
0.0
  0
LINE
  5
651
330
1F
100
AcDbEntity
  8
SK2
  6
CONTINUOUS
370
25
 62
7
100
AcDbLine
 10
10.33184527605497
 20
33.66636905521099
 30
0.0
 11
10.88789685070331
 21
34.22242062985934
 31
0.0
  0
LINE
  5
652
330
1F
100
AcDbEntity
  8
SK2
  6
CONTINUOUS
370
25
 62
7
100
AcDbLine
 10
9.801515190165057
 20
33.56030303803301
 30
0.0
 11
10.53434346011004
 21
34.29313130797799
 31
0.0
  0
LINE
  5
653
330
1F
100
AcDbEntity
  8
SK2
  6
CONTINUOUS
370
25
 62
7
100
AcDbLine
 10
9.27118510427515
 20
33.45423702085503
 30
0.0
 11
10.18079006951676
 21
34.36384198609665
 31
0.0
  0
LINE
  5
654
330
1F
100
AcDbEntity
  8
SK2
  6
CONTINUOUS
370
25
 62
7
100
AcDbLine
 10
8.740855018385238
 20
33.34817100367705
 30
0.0
 11
9.827236678923489
 21
34.4345526642153
 31
0.0
  0
LINE
  5
655
330
1F
100
AcDbEntity
  8
SK2
  6
CONTINUOUS
370
25
 62
7
100
AcDbLine
 10
8.210524932495332
 20
33.24210498649906
 30
0.0
 11
9.473683288330218
 21
34.50526334233395
 31
0.0
  0
LINE
  5
656
330
1F
100
AcDbEntity
  8
SK2
  6
CONTINUOUS
370
25
 62
7
100
AcDbLine
 10
7.680194846605419
 20
33.13603896932108
 30
0.0
 11
9.120129897736941
 21
34.57597402045261
 31
0.0
  0
LINE
  5
657
330
1F
100
AcDbEntity
  8
SK2
  6
CONTINUOUS
370
25
 62
7
100
AcDbLine
 10
7.149864760715513
 20
33.0299729521431
 30
0.0
 11
8.766576507143668
 21
34.64668469857126
 31
0.0
  0
LINE
  5
658
330
1F
100
AcDbEntity
  8
SK2
  6
CONTINUOUS
370
25
 62
7
100
AcDbLine
 10
7.000000000000004
 20
33.30437226013952
 30
0.0
 11
8.413023116550393
 21
34.71739537668992
 31
0.0
  0
LINE
  5
659
330
1F
100
AcDbEntity
  8
SK2
  6
CONTINUOUS
370
25
 62
7
100
AcDbLine
 10
7.000000000000004
 20
33.72863632885145
 30
0.0
 11
8.059469725957118
 21
34.78810605480857
 31
0.0
  0
LINE
  5
65A
330
1F
100
AcDbEntity
  8
SK2
  6
CONTINUOUS
370
25
 62
7
100
AcDbLine
 10
7.000000000000004
 20
34.15290039756339
 30
0.0
 11
7.705916335363846
 21
34.85881673292723
 31
0.0
  0
LINE
  5
65B
330
1F
100
AcDbEntity
  8
SK2
  6
CONTINUOUS
370
25
 62
7
100
AcDbLine
 10
7.000000000000004
 20
34.57716446627531
 30
0.0
 11
7.352362944770573
 21
34.92952741104588
 31
0.0
  0
LINE
  5
65C
330
1F
100
AcDbEntity
  8
SK2
  6
CONTINUOUS
370
25
 62
7
100
AcDbLine
 10
7.000000000000004
 20
33.30508652763318
 30
0.0
 11
7.254238773027654
 21
33.05084775460553
 31
0.0
  0
LINE
  5
65D
330
1F
100
AcDbEntity
  8
SK2
  6
CONTINUOUS
370
25
 62
7
100
AcDbLine
 10
7.000000000000004
 20
33.72935059634511
 30
0.0
 11
7.607792163620932
 21
33.12155843272419
 31
0.0
  0
LINE
  5
65E
330
1F
100
AcDbEntity
  8
SK2
  6
CONTINUOUS
370
25
 62
7
100
AcDbLine
 10
7.000000000000004
 20
34.15361466505704
 30
0.0
 11
7.961345554214208
 21
33.19226911084284
 31
0.0
  0
LINE
  5
65F
330
1F
100
AcDbEntity
  8
SK2
  6
CONTINUOUS
370
25
 62
7
100
AcDbLine
 10
7.000000000000004
 20
34.57787873376898
 30
0.0
 11
8.314898944807481
 21
33.26297978896149
 31
0.0
  0
LINE
  5
660
330
1F
100
AcDbEntity
  8
SK2
  6
CONTINUOUS
370
25
 62
7
100
AcDbLine
 10
7.00267850310113
 20
34.99946429937977
 30
0.0
 11
8.668452335400751
 21
33.33369046708015
 31
0.0
  0
LINE
  5
661
330
1F
100
AcDbEntity
  8
SK2
  6
CONTINUOUS
370
25
 62
7
100
AcDbLine
 10
7.533008588991045
 20
34.89339828220179
 30
0.0
 11
9.022005725994028
 21
33.4044011451988
 31
0.0
  0
LINE
  5
662
330
1F
100
AcDbEntity
  8
SK2
  6
CONTINUOUS
370
25
 62
7
100
AcDbLine
 10
8.063338674880956
 20
34.78733226502381
 30
0.0
 11
9.375559116587302
 21
33.47511182331746
 31
0.0
  0
LINE
  5
663
330
1F
100
AcDbEntity
  8
SK2
  6
CONTINUOUS
370
25
 62
7
100
AcDbLine
 10
8.59366876077087
 20
34.68126624784583
 30
0.0
 11
9.729112507180577
 21
33.54582250143611
 31
0.0
  0
LINE
  5
664
330
1F
100
AcDbEntity
  8
SK2
  6
CONTINUOUS
370
25
 62
7
100
AcDbLine
 10
9.123998846660783
 20
34.57520023066785
 30
0.0
 11
10.08266589777385
 21
33.61653317955476
 31
0.0
  0
LINE
  5
665
330
1F
100
AcDbEntity
  8
SK2
  6
CONTINUOUS
370
25
 62
7
100
AcDbLine
 10
9.654328932550694
 20
34.46913421348986
 30
0.0
 11
10.43621928836713
 21
33.68724385767342
 31
0.0
  0
LINE
  5
666
330
1F
100
AcDbEntity
  8
SK2
  6
CONTINUOUS
370
25
 62
7
100
AcDbLine
 10
10.1846590184406
 20
34.36306819631188
 30
0.0
 11
10.7897726789604
 21
33.75795453579208
 31
0.0
  0
LINE
  5
667
330
1F
100
AcDbEntity
  8
SK2
  6
CONTINUOUS
370
25
 62
7
100
AcDbLine
 10
10.71498910433051
 20
34.2570021791339
 30
0.0
 11
11.14332606955367
 21
33.82866521391073
 31
0.0
  0
LINE
  5
668
330
1F
100
AcDbEntity
  8
SK2
  6
CONTINUOUS
370
25
 62
7
100
AcDbLine
 10
11.24531919022042
 20
34.15093616195591
 30
0.0
 11
11.49687946014695
 21
33.89937589202939
 31
0.0
  0
LINE
  5
669
330
1F
100
AcDbEntity
  8
SK2
  6
CONTINUOUS
370
25
 62
7
100
AcDbLine
 10
11.77564927611033
 20
34.04487014477793
 30
0.0
 11
11.85043285074022
 21
33.97008657014804
 31
0.0
  0
TEXT
  5
66A
330
1F
100
AcDbEntity
  8
SK2
  6
CONTINUOUS
370
25
 62
7
100
AcDbText
 10
-10.625
 20
35.5
 30
0.0
 40
3.5
  1
40
 72
     1
 11
-7.999999999999996
 21
35.5
 31
0.0
100
AcDbText
  0
LINE
  5
66B
330
1F
100
AcDbEntity
  8
4
  6
LONGDASH_DASH
370
25
 62
2
100
AcDbLine
 10
0.0
 20
0.0
 30
0.0
 11
12.0
 21
0.0
 31
0.0
  0
LINE
  5
66C
330
1F
100
AcDbEntity
  8
SK4
  6
LONGDASH_DASH
370
25
 62
2
100
AcDbLine
 10
-34.0
 20
0.0
 30
0.0
 11
18.0
 21
0.0
 31
0.0
  0
LINE
  5
66D
330
1F
100
AcDbEntity
  8
2
  6
CONTINUOUS
370
25
 62
7
100
AcDbLine
 10
12.0
 20
0.0
 30
0.0
 11
22.5
 21
18.18653347947321
 31
0.0
  0
LINE
  5
66E
330
1F
100
AcDbEntity
  8
2
  6
CONTINUOUS
370
25
 62
7
100
AcDbLine
 10
12.0
 20
0.0
 30
0.0
 11
22.5
 21
-18.18653347947321
 31
0.0
  0
ARC
  5
66F
330
1F
100
AcDbEntity
  8
2
  6
CONTINUOUS
370
25
 62
7
100
AcDbCircle
 10
11.99999999999999
 20
0.0000000000000022
 30
0.0
 40
20.00000000000001
100
AcDbArc
 50
300.0000000000001
 51
59.99999999999994
  0
LINE
  5
670
330
1F
100
AcDbEntity
  8
2
  6
CONTINUOUS
370
25
 62
7
100
AcDbLine
 10
22.00000000000001
 20
17.32050807568877
 30
0.0
 11
26.58799626031877
 21
15.09558328700466
 31
0.0
  0
LINE
  5
671
330
1F
100
AcDbEntity
  8
2
  6
CONTINUOUS
370
25
 62
7
100
AcDbLine
 10
26.58799626031877
 20
15.09558328700466
 30
0.0
 11
25.37933316772344
 21
13.50211740139622
 31
0.0
  0
LINE
  5
672
330
1F
100
AcDbEntity
  8
2
  6
CONTINUOUS
370
25
 62
7
100
AcDbLine
 10
25.37933316772344
 20
13.50211740139622
 30
0.0
 11
22.00000000000001
 21
17.32050807568877
 31
0.0
  0
LINE
  5
673
330
1F
100
AcDbEntity
  8
2
  6
CONTINUOUS
370
25
 62
7
100
AcDbLine
 10
25.33254713967914
 20
13.55498207152637
 30
0.0
 11
25.69233536838762
 21
13.91477030023486
 31
0.0
  0
LINE
  5
674
330
1F
100
AcDbEntity
  8
2
  6
CONTINUOUS
370
25
 62
7
100
AcDbLine
 10
25.13335505191074
 20
13.78005405246991
 30
0.0
 11
26.49431467920173
 21
15.1410136797609
 31
0.0
  0
LINE
  5
675
330
1F
100
AcDbEntity
  8
2
  6
CONTINUOUS
370
25
 62
7
100
AcDbLine
 10
24.93416296414235
 20
14.00512603341344
 30
0.0
 11
26.2086043434093
 21
15.2795674126804
 31
0.0
  0
LINE
  5
676
330
1F
100
AcDbEntity
  8
2
  6
CONTINUOUS
370
25
 62
7
100
AcDbLine
 10
24.73497087637395
 20
14.23019801435697
 30
0.0
 11
25.92289400761686
 21
15.41812114559989
 31
0.0
  0
LINE
  5
677
330
1F
100
AcDbEntity
  8
2
  6
CONTINUOUS
370
25
 62
7
100
AcDbLine
 10
24.53577878860556
 20
14.45526999530051
 30
0.0
 11
25.63718367182443
 21
15.55667487851938
 31
0.0
  0
LINE
  5
678
330
1F
100
AcDbEntity
  8
2
  6
CONTINUOUS
370
25
 62
7
100
AcDbLine
 10
24.33658670083716
 20
14.68034197624404
 30
0.0
 11
25.351473336032
 21
15.69522861143887
 31
0.0
  0
LINE
  5
679
330
1F
100
AcDbEntity
  8
2
  6
CONTINUOUS
370
25
 62
7
100
AcDbLine
 10
24.13739461306877
 20
14.90541395718758
 30
0.0
 11
25.06576300023957
 21
15.83378234435837
 31
0.0
  0
LINE
  5
67A
330
1F
100
AcDbEntity
  8
2
  6
CONTINUOUS
370
25
 62
7
100
AcDbLine
 10
23.93820252530037
 20
15.13048593813111
 30
0.0
 11
24.78005266444713
 21
15.97233607727786
 31
0.0
  0
LINE
  5
67B
330
1F
100
AcDbEntity
  8
2
  6
CONTINUOUS
370
25
 62
7
100
AcDbLine
 10
23.73901043753198
 20
15.35555791907464
 30
0.0
 11
24.4943423286547
 21
16.11088981019736
 31
0.0
  0
LINE
  5
67C
330
1F
100
AcDbEntity
  8
2
  6
CONTINUOUS
370
25
 62
7
100
AcDbLine
 10
23.53981834976359
 20
15.58062990001818
 30
0.0
 11
24.20863199286226
 21
16.24944354311685
 31
0.0
  0
LINE
  5
67D
330
1F
100
AcDbEntity
  8
2
  6
CONTINUOUS
370
25
 62
7
100
AcDbLine
 10
23.34062626199519
 20
15.80570188096171
 30
0.0
 11
23.92292165706983
 21
16.38799727603635
 31
0.0
  0
LINE
  5
67E
330
1F
100
AcDbEntity
  8
2
  6
CONTINUOUS
370
25
 62
7
100
AcDbLine
 10
23.1414341742268
 20
16.03077386190524
 30
0.0
 11
23.6372113212774
 21
16.52655100895584
 31
0.0
  0
LINE
  5
67F
330
1F
100
AcDbEntity
  8
2
  6
CONTINUOUS
370
25
 62
7
100
AcDbLine
 10
22.9422420864584
 20
16.25584584284877
 30
0.0
 11
23.35150098548496
 21
16.66510474187534
 31
0.0
  0
LINE
  5
680
330
1F
100
AcDbEntity
  8
2
  6
CONTINUOUS
370
25
 62
7
100
AcDbLine
 10
22.74304999869001
 20
16.48091782379231
 30
0.0
 11
23.06579064969253
 21
16.80365847479483
 31
0.0
  0
LINE
  5
681
330
1F
100
AcDbEntity
  8
2
  6
CONTINUOUS
370
25
 62
7
100
AcDbLine
 10
22.54385791092162
 20
16.70598980473584
 30
0.0
 11
22.7800803139001
 21
16.94221220771432
 31
0.0
  0
LINE
  5
682
330
1F
100
AcDbEntity
  8
2
  6
CONTINUOUS
370
25
 62
7
100
AcDbLine
 10
22.34466582315322
 20
16.93106178567938
 30
0.0
 11
22.49436997810766
 21
17.08076594063382
 31
0.0
  0
LINE
  5
683
330
1F
100
AcDbEntity
  8
2
  6
CONTINUOUS
370
25
 62
7
100
AcDbLine
 10
22.14547373538483
 20
17.15613376662291
 30
0.0
 11
22.20865964231523
 21
17.21931967355331
 31
0.0
  0
LINE
  5
684
330
1F
100
AcDbEntity
  8
2
  6
CONTINUOUS
370
25
 62
7
100
AcDbLine
 10
24.21832057158923
 20
14.81397374990819
 30
0.0
 11
25.44439772316174
 21
13.58789659833569
 31
0.0
  0
LINE
  5
685
330
1F
100
AcDbEntity
  8
2
  6
CONTINUOUS
370
25
 62
7
100
AcDbLine
 10
22.26414703987088
 20
17.19241135033847
 30
0.0
 11
25.62739869326524
 21
13.82915969694411
 31
0.0
  0
LINE
  5
686
330
1F
100
AcDbEntity
  8
2
  6
CONTINUOUS
370
25
 62
7
100
AcDbLine
 10
23.08787242609096
 20
16.79295003283031
 30
0.0
 11
25.81039966336875
 21
14.07042279555253
 31
0.0
  0
LINE
  5
687
330
1F
100
AcDbEntity
  8
2
  6
CONTINUOUS
370
25
 62
7
100
AcDbLine
 10
23.91159781231108
 20
16.39348871532213
 30
0.0
 11
25.99340063347226
 21
14.31168589416096
 31
0.0
  0
LINE
  5
688
330
1F
100
AcDbEntity
  8
2
  6
CONTINUOUS
370
25
 62
7
100
AcDbLine
 10
24.73532319853116
 20
15.99402739781398
 30
0.0
 11
26.17640160357576
 21
14.55294899276937
 31
0.0
  0
LINE
  5
689
330
1F
100
AcDbEntity
  8
2
  6
CONTINUOUS
370
25
 62
7
100
AcDbLine
 10
25.55904858475127
 20
15.5945660803058
 30
0.0
 11
26.35940257367927
 21
14.7942120913778
 31
0.0
  0
LINE
  5
68A
330
1F
100
AcDbEntity
  8
2
  6
CONTINUOUS
370
25
 62
7
100
AcDbLine
 10
26.38277397097135
 20
15.19510476279764
 30
0.0
 11
26.54240354378277
 21
15.03547518998622
 31
0.0
  0
LINE
  5
68B
330
1F
100
AcDbEntity
  8
2
  6
CONTINUOUS
370
25
 62
7
100
AcDbLine
 10
22.0
 20
-17.32050807568877
 30
0.0
 11
25.37933316772343
 21
-13.50211740139622
 31
0.0
  0
LINE
  5
68C
330
1F
100
AcDbEntity
  8
2
  6
CONTINUOUS
370
25
 62
7
100
AcDbLine
 10
25.37933316772343
 20
-13.50211740139622
 30
0.0
 11
26.58799626031876
 21
-15.09558328700466
 31
0.0
  0
LINE
  5
68D
330
1F
100
AcDbEntity
  8
2
  6
CONTINUOUS
370
25
 62
7
100
AcDbLine
 10
26.58799626031876
 20
-15.09558328700466
 30
0.0
 11
22.0
 21
-17.32050807568877
 31
0.0
  0
LINE
  5
68E
330
1F
100
AcDbEntity
  8
2
  6
CONTINUOUS
370
25
 62
7
100
AcDbLine
 10
26.43156900045212
 20
-15.17144186847592
 30
0.0
 11
26.55324397419876
 21
-15.04976689472928
 31
0.0
  0
LINE
  5
68F
330
1F
100
AcDbEntity
  8
2
  6
CONTINUOUS
370
25
 62
7
100
AcDbLine
 10
25.60784361423204
 20
-15.57090318598409
 30
0.0
 11
26.37024300409526
 21
-14.80850379612086
 31
0.0
  0
LINE
  5
690
330
1F
100
AcDbEntity
  8
2
  6
CONTINUOUS
370
25
 62
7
100
AcDbLine
 10
24.78411822801193
 20
-15.97036450349226
 30
0.0
 11
26.18724203399175
 21
-14.56724069751244
 31
0.0
  0
LINE
  5
691
330
1F
100
AcDbEntity
  8
2
  6
CONTINUOUS
370
25
 62
7
100
AcDbLine
 10
23.96039284179185
 20
-16.36982582100042
 30
0.0
 11
26.00424106388825
 21
-14.32597759890402
 31
0.0
  0
LINE
  5
692
330
1F
100
AcDbEntity
  8
2
  6
CONTINUOUS
370
25
 62
7
100
AcDbLine
 10
23.13666745557174
 20
-16.7692871385086
 30
0.0
 11
25.82124009378474
 21
-14.0847145002956
 31
0.0
  0
LINE
  5
693
330
1F
100
AcDbEntity
  8
2
  6
CONTINUOUS
370
25
 62
7
100
AcDbLine
 10
22.31294206935165
 20
-17.16874845601676
 30
0.0
 11
25.63823912368123
 21
-13.84345140168718
 31
0.0
  0
LINE
  5
694
330
1F
100
AcDbEntity
  8
2
  6
CONTINUOUS
370
25
 62
7
100
AcDbLine
 10
24.02488381980158
 20
-15.0325426368549
 30
0.0
 11
25.45523815357773
 21
-13.60218830307875
 31
0.0
  0
LINE
  5
695
330
1F
100
AcDbEntity
  8
2
  6
CONTINUOUS
370
25
 62
7
100
AcDbLine
 10
22.1932824089775
 20
-17.10211358443426
 30
0.0
 11
22.27723381280054
 21
-17.1860649882573
 31
0.0
  0
LINE
  5
696
330
1F
100
AcDbEntity
  8
2
  6
CONTINUOUS
370
25
 62
7
100
AcDbLine
 10
22.39247449674589
 20
-16.87704160349072
 30
0.0
 11
22.56294414859297
 21
-17.0475112553378
 31
0.0
  0
LINE
  5
697
330
1F
100
AcDbEntity
  8
2
  6
CONTINUOUS
370
25
 62
7
100
AcDbLine
 10
22.59166658451429
 20
-16.65196962254719
 30
0.0
 11
22.8486544843854
 21
-16.90895752241831
 31
0.0
  0
LINE
  5
698
330
1F
100
AcDbEntity
  8
2
  6
CONTINUOUS
370
25
 62
7
100
AcDbLine
 10
22.79085867228268
 20
-16.42689764160366
 30
0.0
 11
23.13436482017784
 21
-16.77040378949881
 31
0.0
  0
LINE
  5
699
330
1F
100
AcDbEntity
  8
2
  6
CONTINUOUS
370
25
 62
7
100
AcDbLine
 10
22.99005076005107
 20
-16.20182566066012
 30
0.0
 11
23.42007515597027
 21
-16.63185005657932
 31
0.0
  0
LINE
  5
69A
330
1F
100
AcDbEntity
  8
2
  6
CONTINUOUS
370
25
 62
7
100
AcDbLine
 10
23.18924284781947
 20
-15.97675367971659
 30
0.0
 11
23.7057854917627
 21
-16.49329632365982
 31
0.0
  0
LINE
  5
69B
330
1F
100
AcDbEntity
  8
2
  6
CONTINUOUS
370
25
 62
7
100
AcDbLine
 10
23.38843493558786
 20
-15.75168169877306
 30
0.0
 11
23.99149582755513
 21
-16.35474259074033
 31
0.0
  0
LINE
  5
69C
330
1F
100
AcDbEntity
  8
2
  6
CONTINUOUS
370
25
 62
7
100
AcDbLine
 10
23.58762702335626
 20
-15.52660971782953
 30
0.0
 11
24.27720616334757
 21
-16.21618885782084
 31
0.0
  0
LINE
  5
69D
330
1F
100
AcDbEntity
  8
2
  6
CONTINUOUS
370
25
 62
7
100
AcDbLine
 10
23.78681911112465
 20
-15.30153773688599
 30
0.0
 11
24.56291649914
 21
-16.07763512490134
 31
0.0
  0
LINE
  5
69E
330
1F
100
AcDbEntity
  8
2
  6
CONTINUOUS
370
25
 62
7
100
AcDbLine
 10
23.98601119889305
 20
-15.07646575594246
 30
0.0
 11
24.84862683493244
 21
-15.93908139198185
 31
0.0
  0
LINE
  5
69F
330
1F
100
AcDbEntity
  8
2
  6
CONTINUOUS
370
25
 62
7
100
AcDbLine
 10
24.18520328666144
 20
-14.85139377499892
 30
0.0
 11
25.13433717072486
 21
-15.80052765906235
 31
0.0
  0
LINE
  5
6A0
330
1F
100
AcDbEntity
  8
2
  6
CONTINUOUS
370
25
 62
7
100
AcDbLine
 10
24.38439537442984
 20
-14.62632179405539
 30
0.0
 11
25.4200475065173
 21
-15.66197392614286
 31
0.0
  0
LINE
  5
6A1
330
1F
100
AcDbEntity
  8
2
  6
CONTINUOUS
370
25
 62
7
100
AcDbLine
 10
24.58358746219822
 20
-14.40124981311185
 30
0.0
 11
25.70575784230973
 21
-15.52342019322336
 31
0.0
  0
LINE
  5
6A2
330
1F
100
AcDbEntity
  8
2
  6
CONTINUOUS
370
25
 62
7
100
AcDbLine
 10
24.78277954996662
 20
-14.17617783216832
 30
0.0
 11
25.99146817810217
 21
-15.38486646030387
 31
0.0
  0
LINE
  5
6A3
330
1F
100
AcDbEntity
  8
2
  6
CONTINUOUS
370
25
 62
7
100
AcDbLine
 10
24.98197163773501
 20
-13.95110585122479
 30
0.0
 11
26.2771785138946
 21
-15.24631272738437
 31
0.0
  0
LINE
  5
6A4
330
1F
100
AcDbEntity
  8
2
  6
CONTINUOUS
370
25
 62
7
100
AcDbLine
 10
25.18116372550341
 20
-13.72603387028126
 30
0.0
 11
26.56288884968703
 21
-15.10775899446488
 31
0.0
  0
TEXT
  5
6A5
330
1F
100
AcDbEntity
  8
2
  6
CONTINUOUS
370
25
 62
7
100
AcDbText
 10
29.5
 20
-4.958333333333333
 30
0.0
 40
3.5
  1
120°
 50
90.0
 72
     1
 11
29.5
 21
0.0
 31
0.0
100
AcDbText
  0
LINE
  5
6A6
330
1F
100
AcDbEntity
  8
SK1
  6
CONTINUOUS
370
50
 62
4
100
AcDbLine
 10
0.0
 20
0.0
 30
0.0
 11
2.5
 21
0.0
 31
0.0
  0
LINE
  5
6A7
330
1F
100
AcDbEntity
  8
SK1
  6
CONTINUOUS
370
50
 62
4
100
AcDbLine
 10
0.0
 20
0.0
 30
0.0
 11
0.0
 21
2.5
 31
0.0
  0
ARC
  5
6A8
330
1F
100
AcDbEntity
  8
SK1
  6
CONTINUOUS
370
50
 62
4
100
AcDbCircle
 10
0.0
 20
0.0
 30
0.0
 40
2.5
100
AcDbArc
 50
0.0
 51
90.0
  0
LINE
  5
6A9
330
1F
100
AcDbEntity
  8
SK1
  6
CONTINUOUS
370
50
 62
4
100
AcDbLine
 10
0.0
 20
0.0
 30
0.0
 11
-2.5
 21
0.0
 31
0.0
  0
ARC
  5
6AA
330
1F
100
AcDbEntity
  8
SK1
  6
CONTINUOUS
370
50
 62
4
100
AcDbCircle
 10
0.0
 20
0.0
 30
0.0
 40
2.5
100
AcDbArc
 50
180.0
 51
270.0
  0
LINE
  5
6AB
330
1F
100
AcDbEntity
  8
SK1
  6
CONTINUOUS
370
50
 62
4
100
AcDbLine
 10
0.0
 20
-2.5
 30
0.0
 11
0.0
 21
0.0
 31
0.0
  0
ARC
  5
6AC
330
1F
100
AcDbEntity
  8
SK1
  6
CONTINUOUS
370
50
 62
4
100
AcDbCircle
 10
0.0
 20
0.0
 30
0.0
 40
2.5
100
AcDbArc
 50
270.0
 51
0.0
  0
ARC
  5
6AD
330
1F
100
AcDbEntity
  8
SK1
  6
CONTINUOUS
370
50
 62
4
100
AcDbCircle
 10
0.0
 20
0.0
 30
0.0
 40
2.5
100
AcDbArc
 50
90.0
 51
180.0
  0
LINE
  5
6AE
330
1F
100
AcDbEntity
  8
SK1
  6
CONTINUOUS
370
50
 62
4
100
AcDbLine
 10
-0.31832627443191
 20
-2.479495909600069
 30
0.0
 11
0.0
 21
-2.161169635168159
 31
0.0
  0
LINE
  5
6AF
330
1F
100
AcDbEntity
  8
SK1
  6
CONTINUOUS
370
50
 62
4
100
AcDbLine
 10
2.16116963516816
 20
0.0
 30
0.0
 11
2.479495909600069
 21
0.3183262744319091
 31
0.0
  0
LINE
  5
6B0
330
1F
100
AcDbEntity
  8
SK1
  6
CONTINUOUS
370
50
 62
4
100
AcDbLine
 10
-0.615281817185723
 20
-2.422898061760609
 30
0.0
 11
0.0
 21
-1.807616244574886
 31
0.0
  0
LINE
  5
6B1
330
1F
100
AcDbEntity
  8
SK1
  6
CONTINUOUS
370
50
 62
4
100
AcDbLine
 10
1.807616244574887
 20
0.0
 30
0.0
 11
2.422898061760609
 21
0.6152818171857222
 31
0.0
  0
LINE
  5
6B2
330
1F
100
AcDbEntity
  8
SK1
  6
CONTINUOUS
370
50
 62
4
100
AcDbLine
 10
-0.8835965231639721
 20
-2.337659377145585
 30
0.0
 11
0.0
 21
-1.454062853981614
 31
0.0
  0
LINE
  5
6B3
330
1F
100
AcDbEntity
  8
SK1
  6
CONTINUOUS
370
50
 62
4
100
AcDbLine
 10
1.454062853981615
 20
0.0
 30
0.0
 11
2.337659377145586
 21
0.8835965231639715
 31
0.0
  0
LINE
  5
6B4
330
1F
100
AcDbEntity
  8
SK1
  6
CONTINUOUS
370
50
 62
4
100
AcDbLine
 10
-1.128779664263143
 20
-2.229289127651483
 30
0.0
 11
0.0
 21
-1.100509463388341
 31
0.0
  0
LINE
  5
6B5
330
1F
100
AcDbEntity
  8
SK1
  6
CONTINUOUS
370
50
 62
4
100
AcDbLine
 10
1.100509463388341
 20
0.0
 30
0.0
 11
2.229289127651484
 21
1.128779664263142
 31
0.0
  0
LINE
  5
6B6
330
1F
100
AcDbEntity
  8
SK1
  6
CONTINUOUS
370
50
 62
4
100
AcDbLine
 10
-1.354032791010379
 20
-2.100988863805446
 30
0.0
 11
0.0
 21
-0.7469560727950677
 31
0.0
  0
LINE
  5
6B7
330
1F
100
AcDbEntity
  8
SK1
  6
CONTINUOUS
370
50
 62
4
100
AcDbLine
 10
0.746956072795068
 20
0.0
 30
0.0
 11
2.100988863805446
 21
1.354032791010378
 31
0.0
  0
LINE
  5
6B8
330
1F
100
AcDbEntity
  8
SK1
  6
CONTINUOUS
370
50
 62
4
100
AcDbLine
 10
-1.559387394659872
 20
-1.952790076861666
 30
0.0
 11
0.0
 21
-0.3934026822017946
 31
0.0
  0
LINE
  5
6B9
330
1F
100
AcDbEntity
  8
SK1
  6
CONTINUOUS
370
50
 62
4
100
AcDbLine
 10
0.3934026822017948
 20
0.0
 30
0.0
 11
1.952790076861667
 21
1.559387394659871
 31
0.0
  0
LINE
  5
6BA
330
1F
100
AcDbEntity
  8
SK1
  6
CONTINUOUS
370
50
 62
4
100
AcDbLine
 10
-1.746970020883365
 20
-1.786819312491886
 30
0.0
 11
0.0
 21
-0.0398492916085216
 31
0.0
  0
LINE
  5
6BB
330
1F
100
AcDbEntity
  8
SK1
  6
CONTINUOUS
370
50
 62
4
100
AcDbLine
 10
0.0398492916085216
 20
0.0
 30
0.0
 11
1.786819312491887
 21
1.746970020883364
 31
0.0
  0
LINE
  5
6BC
330
1F
100
AcDbEntity
  8
SK1
  6
CONTINUOUS
370
50
 62
4
100
AcDbLine
 10
-1.917371878232655
 20
-1.603667779247902
 30
0.0
 11
-0.3137040989847517
 21
0.0
 31
0.0
  0
LINE
  5
6BD
330
1F
100
AcDbEntity
  8
SK1
  6
CONTINUOUS
370
50
 62
4
100
AcDbLine
 10
0.0
 20
0.3137040989847515
 30
0.0
 11
1.603667779247903
 21
1.917371878232654
 31
0.0
  0
LINE
  5
6BE
330
1F
100
AcDbEntity
  8
SK1
  6
CONTINUOUS
370
50
 62
4
100
AcDbLine
 10
-2.068741231122433
 20
-1.401483741544407
 30
0.0
 11
-0.6672574895780249
 21
0.0
 31
0.0
  0
LINE
  5
6BF
330
1F
100
AcDbEntity
  8
SK1
  6
CONTINUOUS
370
50
 62
4
100
AcDbLine
 10
0.0
 20
0.6672574895780246
 30
0.0
 11
1.401483741544409
 21
2.068741231122432
 31
0.0
  0
LINE
  5
6C0
330
1F
100
AcDbEntity
  8
SK1
  6
CONTINUOUS
370
50
 62
4
100
AcDbLine
 10
-2.2023876557675
 20
-1.181576775596201
 30
0.0
 11
-1.020810880171298
 21
0.0
 31
0.0
  0
LINE
  5
6C1
330
1F
100
AcDbEntity
  8
SK1
  6
CONTINUOUS
370
50
 62
4
100
AcDbLine
 10
0.0
 20
1.020810880171298
 30
0.0
 11
1.181576775596202
 21
2.202387655767499
 31
0.0
  0
LINE
  5
6C2
330
1F
100
AcDbEntity
  8
SK1
  6
CONTINUOUS
370
50
 62
4
100
AcDbLine
 10
-2.315450943493525
 20
-0.9410866727289533
 30
0.0
 11
-1.374364270764571
 21
0.0
 31
0.0
  0
LINE
  5
6C3
330
1F
100
AcDbEntity
  8
SK1
  6
CONTINUOUS
370
50
 62
4
100
AcDbLine
 10
0.0
 20
1.374364270764571
 30
0.0
 11
0.9410866727289543
 21
2.315450943493524
 31
0.0
  0
LINE
  5
6C4
330
1F
100
AcDbEntity
  8
SK1
  6
CONTINUOUS
370
50
 62
4
100
AcDbLine
 10
-2.405290600131854
 20
-0.6773729387740097
 30
0.0
 11
-1.727917661357844
 21
0.0
 31
0.0
  0
LINE
  5
6C5
330
1F
100
AcDbEntity
  8
SK1
  6
CONTINUOUS
370
50
 62
4
100
AcDbLine
 10
0.0
 20
1.727917661357844
 30
0.0
 11
0.6773729387740106
 21
2.405290600131854
 31
0.0
  0
LINE
  5
6C6
330
1F
100
AcDbEntity
  8
SK1
  6
CONTINUOUS
370
50
 62
4
100
AcDbLine
 10
-2.468598823056026
 20
-0.3871277711049084
 30
0.0
 11
-2.081471051951118
 21
0.0
 31
0.0
  0
LINE
  5
6C7
330
1F
100
AcDbEntity
  8
SK1
  6
CONTINUOUS
370
50
 62
4
100
AcDbLine
 10
0.0
 20
2.081471051951117
 30
0.0
 11
0.3871277711049085
 21
2.468598823056025
 31
0.0
  0
LINE
  5
6C8
330
1F
100
AcDbEntity
  8
SK1
  6
CONTINUOUS
370
50
 62
4
100
AcDbLine
 10
-2.498020276172772
 20
-0.0629958336283822
 30
0.0
 11
-2.43502444254439
 21
0.0
 31
0.0
  0
LINE
  5
6C9
330
1F
100
AcDbEntity
  8
SK1
  6
CONTINUOUS
370
50
 62
4
100
AcDbLine
 10
0.0
 20
2.435024442544389
 30
0.0
 11
0.0629958336283828
 21
2.498020276172772
 31
0.0
  0
LINE
  5
6CA
330
1F
100
AcDbEntity
  8
SK1
  6
CONTINUOUS
370
50
 62
4
100
AcDbLine
 10
-2.337336523620827
 20
-0.8844932833271533
 30
0.0
 11
-0.8844932833271509
 21
-2.337336523620827
 31
0.0
  0
LINE
  5
6CB
330
1F
100
AcDbEntity
  8
SK1
  6
CONTINUOUS
370
50
 62
4
100
AcDbLine
 10
-2.466237059966593
 20
-0.4020393563881135
 30
0.0
 11
-0.4020393563881111
 21
-2.466237059966594
 31
0.0
  0
LINE
  5
6CC
330
1F
100
AcDbEntity
  8
SK1
  6
CONTINUOUS
370
50
 62
4
100
AcDbLine
 10
-2.499522297881596
 20
-0.0152007278798383
 30
0.0
 11
-0.0152007278798351
 21
-2.499522297881596
 31
0.0
  0
LINE
  5
6CD
330
1F
100
AcDbEntity
  8
SK1
  6
CONTINUOUS
370
50
 62
4
100
AcDbLine
 10
-2.16116963516816
 20
0.0
 30
0.0
 11
0.0
 21
-2.161169635168158
 31
0.0
  0
LINE
  5
6CE
330
1F
100
AcDbEntity
  8
SK1
  6
CONTINUOUS
370
50
 62
4
100
AcDbLine
 10
-1.807616244574888
 20
0.0
 30
0.0
 11
0.0
 21
-1.807616244574886
 31
0.0
  0
LINE
  5
6CF
330
1F
100
AcDbEntity
  8
SK1
  6
CONTINUOUS
370
50
 62
4
100
AcDbLine
 10
-1.454062853981615
 20
0.0
 30
0.0
 11
0.0
 21
-1.454062853981613
 31
0.0
  0
LINE
  5
6D0
330
1F
100
AcDbEntity
  8
SK1
  6
CONTINUOUS
370
50
 62
4
100
AcDbLine
 10
-1.100509463388341
 20
0.0
 30
0.0
 11
0.0
 21
-1.10050946338834
 31
0.0
  0
LINE
  5
6D1
330
1F
100
AcDbEntity
  8
SK1
  6
CONTINUOUS
370
50
 62
4
100
AcDbLine
 10
-0.7469560727950676
 20
0.0
 30
0.0
 11
0.0
 21
-0.7469560727950668
 31
0.0
  0
LINE
  5
6D2
330
1F
100
AcDbEntity
  8
SK1
  6
CONTINUOUS
370
50
 62
4
100
AcDbLine
 10
-0.3934026822017942
 20
0.0
 30
0.0
 11
0.0
 21
-0.3934026822017938
 31
0.0
  0
LINE
  5
6D3
330
1F
100
AcDbEntity
  8
SK1
  6
CONTINUOUS
370
50
 62
4
100
AcDbLine
 10
-0.0398492916085216
 20
0.0
 30
0.0
 11
0.0
 21
-0.0398492916085216
 31
0.0
  0
LINE
  5
6D4
330
1F
100
AcDbEntity
  8
SK1
  6
CONTINUOUS
370
50
 62
4
100
AcDbLine
 10
0.0
 20
0.3137040989847515
 30
0.0
 11
0.3137040989847518
 21
0.0
 31
0.0
  0
LINE
  5
6D5
330
1F
100
AcDbEntity
  8
SK1
  6
CONTINUOUS
370
50
 62
4
100
AcDbLine
 10
0.0
 20
0.6672574895780246
 30
0.0
 11
0.6672574895780253
 21
0.0
 31
0.0
  0
LINE
  5
6D6
330
1F
100
AcDbEntity
  8
SK1
  6
CONTINUOUS
370
50
 62
4
100
AcDbLine
 10
0.0
 20
1.020810880171298
 30
0.0
 11
1.020810880171299
 21
0.0
 31
0.0
  0
LINE
  5
6D7
330
1F
100
AcDbEntity
  8
SK1
  6
CONTINUOUS
370
50
 62
4
100
AcDbLine
 10
0.0
 20
1.37436427076457
 30
0.0
 11
1.374364270764571
 21
0.0
 31
0.0
  0
LINE
  5
6D8
330
1F
100
AcDbEntity
  8
SK1
  6
CONTINUOUS
370
50
 62
4
100
AcDbLine
 10
0.0
 20
1.727917661357843
 30
0.0
 11
1.727917661357845
 21
0.0
 31
0.0
  0
LINE
  5
6D9
330
1F
100
AcDbEntity
  8
SK1
  6
CONTINUOUS
370
50
 62
4
100
AcDbLine
 10
0.0
 20
2.081471051951116
 30
0.0
 11
2.081471051951118
 21
0.0
 31
0.0
  0
LINE
  5
6DA
330
1F
100
AcDbEntity
  8
SK1
  6
CONTINUOUS
370
50
 62
4
100
AcDbLine
 10
0.0
 20
2.435024442544389
 30
0.0
 11
2.435024442544392
 21
0.0
 31
0.0
  0
LINE
  5
6DB
330
1F
100
AcDbEntity
  8
SK1
  6
CONTINUOUS
370
50
 62
4
100
AcDbLine
 10
0.3077647139123103
 20
2.480813119225352
 30
0.0
 11
2.480813119225352
 21
0.307764713912313
 31
0.0
  0
LINE
  5
6DC
330
1F
100
AcDbEntity
  8
SK1
  6
CONTINUOUS
370
50
 62
4
100
AcDbLine
 10
0.7611924397506667
 20
2.380938783980268
 30
0.0
 11
2.380938783980268
 21
0.7611924397506691
 31
0.0
  0
LINE
  5
6DD
330
1F
100
AcDbEntity
  8
SK1
  6
CONTINUOUS
370
50
 62
4
100
AcDbLine
 10
1.48586376213526
 20
2.009820852188948
 30
0.0
 11
2.009820852188946
 21
1.485863762135263
 31
0.0
  0
ARC
  5
6DE
330
1F
100
AcDbEntity
  8
SK6
  6
CONTINUOUS
370
25
 62
5
100
AcDbCircle
 10
44.76137100837651
 20
-34.34523475338786
 30
0.0
 40
2.760489128492204
100
AcDbArc
 50
338.9379403434233
 51
90.44457437511392
  0
LINE
  5
6DF
330
1F
100
AcDbEntity
  8
SK6
  6
CONTINUOUS
370
25
 62
5
100
AcDbLine
 10
44.73995179695983
 20
-31.58482872421281
 30
0.0
 11
44.73995179695983
 21
-32.68788735613464
 31
0.0
  0
ARC
  5
6E0
330
1F
100
AcDbEntity
  8
SK6
  6
CONTINUOUS
370
25
 62
5
100
AcDbCircle
 10
44.75049802936916
 20
-34.36522824566821
 30
0.0
 40
1.677374043771785
100
AcDbArc
 50
243.4214706017864
 51
90.36024081226107
  0
ARC
  5
6E1
330
1F
100
AcDbEntity
  8
SK6
  6
CONTINUOUS
370
25
 62
5
100
AcDbCircle
 10
47.27274889684958
 20
-33.9338209921556
 30
0.0
 40
3.800217030022756
100
AcDbArc
 50
210.548373128854
 51
236.97801693668
  0
LINE
  5
6E2
330
1F
100
AcDbEntity
  8
SK6
  6
CONTINUOUS
370
25
 62
5
100
AcDbLine
 10
45.20177968512486
 20
-37.12015681867535
 30
0.0
 11
49.34371996742671
 21
-37.12015681867535
 31
0.0
  0
ARC
  5
6E3
330
1F
100
AcDbEntity
  8
SK6
  6
CONTINUOUS
370
25
 62
5
100
AcDbCircle
 10
47.27275083877257
 20
-33.93382109373459
 30
0.0
 40
3.800216899582478
100
AcDbArc
 50
303.0219828477958
 51
326.3732153033476
  0
LINE
  5
6E4
330
1F
100
AcDbEntity
  8
SK6
  6
CONTINUOUS
370
25
 62
5
100
AcDbLine
 10
50.43704875135722
 20
-36.0383084907709
 30
0.0
 11
47.07975070575461
 21
-36.0383084907709
 31
0.0
  0
LINE
  5
6E5
330
1F
100
AcDbEntity
  8
SK6
  6
CONTINUOUS
370
25
 62
5
100
AcDbLine
 10
47.07975070575461
 20
-36.0383084907709
 30
0.0
 11
50.99961009771987
 21
-34.67690729641694
 31
0.0
  0
ARC
  5
6E6
330
1F
100
AcDbEntity
  8
SK6
  6
CONTINUOUS
370
25
 62
5
100
AcDbCircle
 10
47.2727515615721
 20
-33.9338216048594
 30
0.0
 40
3.80021721661473
100
AcDbArc
 50
348.7238644184695
 51
53.4691051260883
  0
LINE
  5
6E7
330
1F
100
AcDbEntity
  8
SK6
  6
CONTINUOUS
370
25
 62
5
100
AcDbLine
 10
49.53485424538545
 20
-30.88021024429967
 30
0.0
 11
47.33743947882736
 21
-35.33729873507058
 31
0.0
  0
LINE
  5
6E8
330
1F
100
AcDbEntity
  8
INFTOTAL
  6
CONTINUOUS
370
18
 62
9
100
AcDbLine
 10
-71.50001100000001
 20
-48.40001100000001
 30
0.0
 11
59.40001100000001
 21
-48.40001100000001
 31
0.0
  0
LINE
  5
6E9
330
1F
100
AcDbEntity
  8
INFTOTAL
  6
CONTINUOUS
370
18
 62
9
100
AcDbLine
 10
59.40001100000001
 20
-48.40001100000001
 30
0.0
 11
59.40001100000001
 21
48.40001100000001
 31
0.0
  0
LINE
  5
6EA
330
1F
100
AcDbEntity
  8
INFTOTAL
  6
CONTINUOUS
370
18
 62
9
100
AcDbLine
 10
59.40001100000001
 20
48.40001100000001
 30
0.0
 11
-71.50001100000003
 21
48.40001100000001
 31
0.0
  0
LINE
  5
6EB
330
1F
100
AcDbEntity
  8
INFTOTAL
  6
CONTINUOUS
370
18
 62
9
100
AcDbLine
 10
-71.50001100000003
 20
48.40001100000001
 30
0.0
 11
-71.50001100000003
 21
-48.40001100000001
 31
0.0
  0
ENDSEC
  0
SECTION
  2
OBJECTS
  0
DICTIONARY
  5
C
330
0
100
AcDbDictionary
281
     1
  3
ACAD_GROUP
350
D
  3
ACAD_LAYOUT
350
1A
  3
ACAD_MATERIAL
350
3B
  3
ACAD_MLEADERSTYLE
350
6EE
  3
ACAD_MLINESTYLE
350
17
  3
ACAD_PLOTSETTINGS
350
19
  3
ACAD_PLOTSTYLENAME
350
E
  3
ACAD_SCALELIST
350
1B4
  3
ACAD_VISUALSTYLE
350
2A
  3
AcDbVariableDictionary
350
6EC
  0
DICTIONARY
  5
D
102
{ACAD_REACTORS
330
C
102
}
330
C
100
AcDbDictionary
281
     1
  0
DICTIONARY
  5
1A
102
{ACAD_REACTORS
330
C
102
}
330
C
100
AcDbDictionary
281
     1
  3
Layout1
350
1E
  3
Layout2
350
26
  3
Model
350
22
  0
DICTIONARY
  5
3B
102
{ACAD_REACTORS
330
C
102
}
330
C
100
AcDbDictionary
281
     1
  3
ByBlock
350
3D
  3
ByLayer
350
3C
  3
Global
350
3E
  0
DICTIONARY
  5
6EE
102
{ACAD_REACTORS
330
C
102
}
330
C
100
AcDbDictionary
281
     1
  0
DICTIONARY
  5
17
102
{ACAD_REACTORS
330
C
102
}
330
C
100
AcDbDictionary
281
     1
  3
Standard
350
18
  0
DICTIONARY
  5
19
102
{ACAD_REACTORS
330
C
102
}
330
C
100
AcDbDictionary
281
     1
  0
ACDBDICTIONARYWDFLT
  5
E
102
{ACAD_REACTORS
330
C
102
}
330
C
100
AcDbDictionary
281
     1
  3
Normal
350
F
100
AcDbDictionaryWithDefault
340
F
  0
DICTIONARY
  5
1B4
102
{ACAD_REACTORS
330
C
102
}
330
C
100
AcDbDictionary
281
     1
  3
A0
350
1B5
  3
A1
350
1B6
  3
A2
350
1B7
  3
A3
350
1B8
  3
A4
350
1B9
  3
A5
350
1BA
  3
A6
350
1BB
  3
A7
350
1BC
  3
A8
350
1BD
  3
A9
350
1BE
  3
B0
350
1BF
  3
B1
350
1C0
  3
B2
350
1C1
  3
B3
350
1C2
  3
B4
350
1C3
  3
B5
350
1C4
  3
B6
350
1C5
  3
B7
350
1C6
  3
B8
350
1C7
  3
B9
350
1C8
  3
C0
350
1C9
  3
C1
350
1CA
  3
C2
350
1CB
  3
C3
350
1CC
  3
C4
350
1CD
  3
C5
350
1CE
  3
C6
350
1CF
  3
C7
350
1D0
  3
C8
350
1D1
  3
C9
350
1D2
  3
D0
350
1D3
  3
D1
350
1D4
  3
D2
350
1D5
  0
DICTIONARY
  5
2A
102
{ACAD_REACTORS
330
C
102
}
330
C
100
AcDbDictionary
281
     1
  3
2dWireframe
350
2F
  3
3D Hidden
350
31
  3
3dWireframe
350
30
  3
Basic
350
32
  3
Brighten
350
36
  3
ColorChange
350
3A
  3
Conceptual
350
34
  3
Dim
350
35
  3
Facepattern
350
39
  3
Flat
350
2B
  3
FlatWithEdges
350
2C
  3
Gouraud
350
2D
  3
GouraudWithEdges
350
2E
  3
Linepattern
350
38
  3
Realistic
350
33
  3
Thicken
350
37
  0
DICTIONARY
  5
6EC
102
{ACAD_REACTORS
330
C
102
}
330
C
100
AcDbDictionary
281
     1
  3
CANNOSCALE
350
6F1
  3
DIMASSOC
350
6F2
  3
HIDETEXT
350
6F3
  3
PSOLHEIGHT
350
6F0
  3
PSOLWIDTH
350
6EF
  0
LAYOUT
  5
1E
102
{ACAD_REACTORS
330
1A
102
}
330
1A
100
AcDbPlotSettings
  1

  2
none_device
  4

  6

 40
0.0
 41
0.0
 42
0.0
 43
0.0
 44
0.0
 45
0.0
 46
0.0
 47
0.0
 48
0.0
 49
0.0
140
0.0
141
0.0
142
1.0
143
1.0
 70
   688
 72
     0
 73
     0
 74
     5
  7

 75
    16
147
1.0
148
0.0
149
0.0
100
AcDbLayout
  1
Layout1
 70
     1
 71
     1
 10
0.0
 20
0.0
 11
420.0
 21
297.0
 12
0.0
 22
0.0
 32
0.0
 14
1.000000000000000E+20
 24
1.000000000000000E+20
 34
1.000000000000000E+20
 15
-1.000000000000000E+20
 25
-1.000000000000000E+20
 35
-1.000000000000000E+20
146
0.0
 13
0.0
 23
0.0
 33
0.0
 16
1.0
 26
0.0
 36
0.0
 17
0.0
 27
1.0
 37
0.0
 76
     0
330
1B
  0
LAYOUT
  5
26
102
{ACAD_REACTORS
330
1A
102
}
330
1A
100
AcDbPlotSettings
  1

  2
none_device
  4

  6

 40
0.0
 41
0.0
 42
0.0
 43
0.0
 44
0.0
 45
0.0
 46
0.0
 47
0.0
 48
0.0
 49
0.0
140
0.0
141
0.0
142
1.0
143
1.0
 70
   688
 72
     0
 73
     0
 74
     5
  7

 75
    16
147
1.0
148
0.0
149
0.0
100
AcDbLayout
  1
Layout2
 70
     1
 71
     2
 10
0.0
 20
0.0
 11
0.0
 21
0.0
 12
0.0
 22
0.0
 32
0.0
 14
0.0
 24
0.0
 34
0.0
 15
0.0
 25
0.0
 35
0.0
146
0.0
 13
0.0
 23
0.0
 33
0.0
 16
1.0
 26
0.0
 36
0.0
 17
0.0
 27
1.0
 37
0.0
 76
     0
330
23
  0
LAYOUT
  5
22
102
{ACAD_REACTORS
330
1A
102
}
330
1A
100
AcDbPlotSettings
  1

  2
none_device
  4

  6

 40
0.0
 41
0.0
 42
0.0
 43
0.0
 44
0.0
 45
0.0
 46
0.0
 47
0.0
 48
0.0
 49
0.0
140
0.0
141
0.0
142
1.0
143
1.0
 70
  1712
 72
     0
 73
     0
 74
     0
  7

 75
     0
147
1.0
148
0.0
149
0.0
100
AcDbLayout
  1
Model
 70
     1
 71
     0
 10
0.0
 20
0.0
 11
420.0
 21
297.0
 12
0.0
 22
0.0
 32
0.0
 14
0.0
 24
0.0
 34
0.0
 15
25.0
 25
35.0
 35
0.0
146
0.0
 13
0.0
 23
0.0
 33
0.0
 16
1.0
 26
0.0
 36
0.0
 17
0.0
 27
1.0
 37
0.0
 76
     0
330
1F
331
29
  0
MATERIAL
  5
3D
102
{ACAD_REACTORS
330
3B
102
}
102
{ACAD_XDICTIONARY
360
716
102
}
330
3B
100
AcDbMaterial
  1
ByBlock
  0
MATERIAL
  5
3C
102
{ACAD_REACTORS
330
3B
102
}
102
{ACAD_XDICTIONARY
360
714
102
}
330
3B
100
AcDbMaterial
  1
ByLayer
  0
MATERIAL
  5
3E
102
{ACAD_REACTORS
330
3B
102
}
102
{ACAD_XDICTIONARY
360
718
102
}
330
3B
100
AcDbMaterial
  1
Global
  0
MLINESTYLE
  5
18
102
{ACAD_REACTORS
330
17
102
}
330
17
100
AcDbMlineStyle
  2
Standard
 70
     0
  3

 62
   256
 51
90.0
 52
90.0
 71
     2
 49
0.5
 62
   256
  6
BYLAYER
 49
-0.5
 62
   256
  6
BYLAYER
  0
ACDBPLACEHOLDER
  5
F
102
{ACAD_REACTORS
330
E
102
}
330
E
  0
SCALE
  5
1B5
102
{ACAD_REACTORS
330
1B4
102
}
330
1B4
100
AcDbScale
 70
     0
300
1:1
140
1.0
141
1.0
290
     1
  0
SCALE
  5
1B6
102
{ACAD_REACTORS
330
1B4
102
}
330
1B4
100
AcDbScale
 70
     0
300
1:2
140
1.0
141
2.0
290
     0
  0
SCALE
  5
1B7
102
{ACAD_REACTORS
330
1B4
102
}
330
1B4
100
AcDbScale
 70
     0
300
1:4
140
1.0
141
4.0
290
     0
  0
SCALE
  5
1B8
102
{ACAD_REACTORS
330
1B4
102
}
330
1B4
100
AcDbScale
 70
     0
300
1:5
140
1.0
141
5.0
290
     0
  0
SCALE
  5
1B9
102
{ACAD_REACTORS
330
1B4
102
}
330
1B4
100
AcDbScale
 70
     0
300
1:8
140
1.0
141
8.0
290
     0
  0
SCALE
  5
1BA
102
{ACAD_REACTORS
330
1B4
102
}
330
1B4
100
AcDbScale
 70
     0
300
1:10
140
1.0
141
10.0
290
     0
  0
SCALE
  5
1BB
102
{ACAD_REACTORS
330
1B4
102
}
330
1B4
100
AcDbScale
 70
     0
300
1:16
140
1.0
141
16.0
290
     0
  0
SCALE
  5
1BC
102
{ACAD_REACTORS
330
1B4
102
}
330
1B4
100
AcDbScale
 70
     0
300
1:20
140
1.0
141
20.0
290
     0
  0
SCALE
  5
1BD
102
{ACAD_REACTORS
330
1B4
102
}
330
1B4
100
AcDbScale
 70
     0
300
1:30
140
1.0
141
30.0
290
     0
  0
SCALE
  5
1BE
102
{ACAD_REACTORS
330
1B4
102
}
330
1B4
100
AcDbScale
 70
     0
300
1:40
140
1.0
141
40.0
290
     0
  0
SCALE
  5
1BF
102
{ACAD_REACTORS
330
1B4
102
}
330
1B4
100
AcDbScale
 70
     0
300
1:50
140
1.0
141
50.0
290
     0
  0
SCALE
  5
1C0
102
{ACAD_REACTORS
330
1B4
102
}
330
1B4
100
AcDbScale
 70
     0
300
1:100
140
1.0
141
100.0
290
     0
  0
SCALE
  5
1C1
102
{ACAD_REACTORS
330
1B4
102
}
330
1B4
100
AcDbScale
 70
     0
300
2:1
140
2.0
141
1.0
290
     0
  0
SCALE
  5
1C2
102
{ACAD_REACTORS
330
1B4
102
}
330
1B4
100
AcDbScale
 70
     0
300
4:1
140
4.0
141
1.0
290
     0
  0
SCALE
  5
1C3
102
{ACAD_REACTORS
330
1B4
102
}
330
1B4
100
AcDbScale
 70
     0
300
8:1
140
8.0
141
1.0
290
     0
  0
SCALE
  5
1C4
102
{ACAD_REACTORS
330
1B4
102
}
330
1B4
100
AcDbScale
 70
     0
300
10:1
140
10.0
141
1.0
290
     0
  0
SCALE
  5
1C5
102
{ACAD_REACTORS
330
1B4
102
}
330
1B4
100
AcDbScale
 70
     0
300
100:1
140
100.0
141
1.0
290
     0
  0
SCALE
  5
1C6
102
{ACAD_REACTORS
330
1B4
102
}
330
1B4
100
AcDbScale
 70
     0
300
1/128" = 1'-0"
140
0.0078125
141
12.0
290
     0
  0
SCALE
  5
1C7
102
{ACAD_REACTORS
330
1B4
102
}
330
1B4
100
AcDbScale
 70
     0
300
1/64" = 1'-0"
140
0.015625
141
12.0
290
     0
  0
SCALE
  5
1C8
102
{ACAD_REACTORS
330
1B4
102
}
330
1B4
100
AcDbScale
 70
     0
300
1/32" = 1'-0"
140
0.03125
141
12.0
290
     0
  0
SCALE
  5
1C9
102
{ACAD_REACTORS
330
1B4
102
}
330
1B4
100
AcDbScale
 70
     0
300
1/16" = 1'-0"
140
0.0625
141
12.0
290
     0
  0
SCALE
  5
1CA
102
{ACAD_REACTORS
330
1B4
102
}
330
1B4
100
AcDbScale
 70
     0
300
3/32" = 1'-0"
140
0.09375
141
12.0
290
     0
  0
SCALE
  5
1CB
102
{ACAD_REACTORS
330
1B4
102
}
330
1B4
100
AcDbScale
 70
     0
300
1/8" = 1'-0"
140
0.125
141
12.0
290
     0
  0
SCALE
  5
1CC
102
{ACAD_REACTORS
330
1B4
102
}
330
1B4
100
AcDbScale
 70
     0
300
3/16" = 1'-0"
140
0.1875
141
12.0
290
     0
  0
SCALE
  5
1CD
102
{ACAD_REACTORS
330
1B4
102
}
330
1B4
100
AcDbScale
 70
     0
300
1/4" = 1'-0"
140
0.25
141
12.0
290
     0
  0
SCALE
  5
1CE
102
{ACAD_REACTORS
330
1B4
102
}
330
1B4
100
AcDbScale
 70
     0
300
3/8" = 1'-0"
140
0.375
141
12.0
290
     0
  0
SCALE
  5
1CF
102
{ACAD_REACTORS
330
1B4
102
}
330
1B4
100
AcDbScale
 70
     0
300
1/2" = 1'-0"
140
0.5
141
12.0
290
     0
  0
SCALE
  5
1D0
102
{ACAD_REACTORS
330
1B4
102
}
330
1B4
100
AcDbScale
 70
     0
300
3/4" = 1'-0"
140
0.75
141
12.0
290
     0
  0
SCALE
  5
1D1
102
{ACAD_REACTORS
330
1B4
102
}
330
1B4
100
AcDbScale
 70
     0
300
1" = 1'-0"
140
1.0
141
12.0
290
     0
  0
SCALE
  5
1D2
102
{ACAD_REACTORS
330
1B4
102
}
330
1B4
100
AcDbScale
 70
     0
300
1-1/2" = 1'-0"
140
1.5
141
12.0
290
     0
  0
SCALE
  5
1D3
102
{ACAD_REACTORS
330
1B4
102
}
330
1B4
100
AcDbScale
 70
     0
300
3" = 1'-0"
140
3.0
141
12.0
290
     0
  0
SCALE
  5
1D4
102
{ACAD_REACTORS
330
1B4
102
}
330
1B4
100
AcDbScale
 70
     0
300
6" = 1'-0"
140
6.0
141
12.0
290
     0
  0
SCALE
  5
1D5
102
{ACAD_REACTORS
330
1B4
102
}
330
1B4
100
AcDbScale
 70
     0
300
1'-0" = 1'-0"
140
12.0
141
12.0
290
     0
  0
VISUALSTYLE
  5
2F
102
{ACAD_REACTORS
330
2A
102
}
102
{ACAD_XDICTIONARY
360
6FC
102
}
330
2A
100
AcDbVisualStyle
  2
2dWireframe
 70
     4
 71
     0
 72
     2
 73
     0
 90
        0
 40
-0.6
 41
-30.0
 62
     5
 63
     7
 74
     1
 91
        4
 64
     7
 65
   257
 75
     1
175
     1
 42
1.0
 92
        0
 66
   257
 43
1.0
 76
     1
 77
     6
 78
     2
 67
     7
 79
     5
170
     0
171
     0
290
     0
174
     0
 93
        1
 44
0.0
173
     0
291
     0
 45
0.0
1001
ACAD
1000
AcDbSavedByObjectVersion
1070
     0
  0
VISUALSTYLE
  5
31
102
{ACAD_REACTORS
330
2A
102
}
102
{ACAD_XDICTIONARY
360
700
102
}
330
2A
100
AcDbVisualStyle
  2
3D Hidden
 70
     6
 71
     1
 72
     2
 73
     2
 90
        0
 40
-0.6
 41
-30.0
 62
     5
 63
     7
 74
     2
 91
        2
 64
     7
 65
   257
 75
     2
175
     1
 42
40.0
 92
        0
 66
   257
 43
1.0
 76
     1
 77
     6
 78
     2
 67
     7
 79
     3
170
     0
171
     0
290
     0
174
     0
 93
        1
 44
0.0
173
     0
291
     0
 45
0.0
1001
ACAD
1000
AcDbSavedByObjectVersion
1070
     0
  0
VISUALSTYLE
  5
30
102
{ACAD_REACTORS
330
2A
102
}
102
{ACAD_XDICTIONARY
360
6FE
102
}
330
2A
100
AcDbVisualStyle
  2
3dWireframe
 70
     5
 71
     0
 72
     2
 73
     0
 90
        0
 40
-0.6
 41
-30.0
 62
     5
 63
     7
 74
     1
 91
        4
 64
     7
 65
   257
 75
     1
175
     1
 42
1.0
 92
        0
 66
   257
 43
1.0
 76
     1
 77
     6
 78
     2
 67
     7
 79
     5
170
     0
171
     0
290
     0
174
     0
 93
        1
 44
0.0
173
     0
291
     0
 45
0.0
1001
ACAD
1000
AcDbSavedByObjectVersion
1070
     0
  0
VISUALSTYLE
  5
32
102
{ACAD_REACTORS
330
2A
102
}
102
{ACAD_XDICTIONARY
360
702
102
}
330
2A
100
AcDbVisualStyle
  2
Basic
 70
     7
 71
     1
 72
     0
 73
     1
 90
        0
 40
-0.6
 41
-30.0
 62
     5
 63
     7
 74
     0
 91
        4
 64
     7
 65
   257
 75
     1
175
     1
 42
1.0
 92
        8
 66
     7
 43
1.0
 76
     1
 77
     6
 78
     2
 67
     7
 79
     5
170
     0
171
     0
290
     0
174
     0
 93
        1
 44
0.0
173
     0
291
     1
 45
0.0
1001
ACAD
1000
AcDbSavedByObjectVersion
1070
     0
  0
VISUALSTYLE
  5
36
102
{ACAD_REACTORS
330
2A
102
}
102
{ACAD_XDICTIONARY
360
70A
102
}
330
2A
100
AcDbVisualStyle
  2
Brighten
 70
    12
 71
     2
 72
     2
 73
     0
 90
        0
 40
-0.6
 41
-30.0
 62
     5
 63
     7
 74
     1
 91
        4
 64
     7
 65
   257
 75
     1
175
     1
 42
1.0
 92
        8
 66
     7
 43
1.0
 76
     1
 77
     6
 78
     2
 67
     7
 79
     5
170
     0
171
     0
290
     0
174
     0
 93
        1
 44
50.0
173
     0
291
     1
 45
0.0
1001
ACAD
1000
AcDbSavedByObjectVersion
1070
     0
  0
VISUALSTYLE
  5
3A
102
{ACAD_REACTORS
330
2A
102
}
102
{ACAD_XDICTIONARY
360
712
102
}
330
2A
100
AcDbVisualStyle
  2
ColorChange
 70
    16
 71
     2
 72
     2
 73
     3
 90
        0
 40
-0.6
 41
-30.0
 62
     5
 63
     8
 74
     1
 91
        4
 64
     7
 65
   257
 75
     1
175
     1
 42
1.0
 92
        8
 66
     8
 43
1.0
 76
     1
 77
     6
 78
     2
 67
     7
 79
     5
170
     0
171
     0
290
     0
174
     0
 93
        1
 44
0.0
173
     0
291
     1
 45
0.0
1001
ACAD
1000
AcDbSavedByObjectVersion
1070
     0
  0
VISUALSTYLE
  5
34
102
{ACAD_REACTORS
330
2A
102
}
102
{ACAD_XDICTIONARY
360
706
102
}
330
2A
100
AcDbVisualStyle
  2
Conceptual
 70
     9
 71
     3
 72
     2
 73
     0
 90
        0
 40
-0.6
 41
-30.0
 62
     5
 63
     7
 74
     2
 91
        2
 64
     7
 65
   257
 75
     1
175
     1
 42
40.0
 92
        8
 66
     7
 43
1.0
 76
     1
 77
     6
 78
     2
 67
     7
 79
     3
170
     0
171
     0
290
     0
174
     0
 93
        1
 44
0.0
173
     0
291
     0
 45
0.0
1001
ACAD
1000
AcDbSavedByObjectVersion
1070
     0
  0
VISUALSTYLE
  5
35
102
{ACAD_REACTORS
330
2A
102
}
102
{ACAD_XDICTIONARY
360
708
102
}
330
2A
100
AcDbVisualStyle
  2
Dim
 70
    11
 71
     2
 72
     2
 73
     0
 90
        0
 40
-0.6
 41
-30.0
 62
     5
 63
     7
 74
     1
 91
        4
 64
     7
 65
   257
 75
     1
175
     1
 42
1.0
 92
        8
 66
     7
 43
1.0
 76
     1
 77
     6
 78
     2
 67
     7
 79
     5
170
     0
171
     0
290
     0
174
     0
 93
        1
 44
-50.0
173
     0
291
     1
 45
0.0
1001
ACAD
1000
AcDbSavedByObjectVersion
1070
     0
  0
VISUALSTYLE
  5
39
102
{ACAD_REACTORS
330
2A
102
}
102
{ACAD_XDICTIONARY
360
710
102
}
330
2A
100
AcDbVisualStyle
  2
Facepattern
 70
    15
 71
     2
 72
     2
 73
     0
 90
        0
 40
-0.6
 41
-30.0
 62
     5
 63
     7
 74
     1
 91
        4
 64
     7
 65
   257
 75
     1
175
     1
 42
1.0
 92
        8
 66
     7
 43
1.0
 76
     1
 77
     6
 78
     2
 67
     7
 79
     5
170
     0
171
     0
290
     0
174
     0
 93
        1
 44
0.0
173
     0
291
     1
 45
0.0
1001
ACAD
1000
AcDbSavedByObjectVersion
1070
     0
  0
VISUALSTYLE
  5
2B
102
{ACAD_REACTORS
330
2A
102
}
102
{ACAD_XDICTIONARY
360
6F4
102
}
330
2A
100
AcDbVisualStyle
  2
Flat
 70
     0
 71
     2
 72
     1
 73
     1
 90
        2
 40
-0.6
 41
30.0
 62
     5
 63
     7
 74
     0
 91
        4
 64
     7
 65
   257
 75
     1
175
     1
 42
1.0
 92
        8
 66
     7
 43
1.0
 76
     1
 77
     6
 78
     2
 67
     7
 79
     5
170
     0
171
     0
290
     0
174
     0
 93
       13
 44
0.0
173
     0
291
     1
 45
0.0
1001
ACAD
1000
AcDbSavedByObjectVersion
1070
     0
  0
VISUALSTYLE
  5
2C
102
{ACAD_REACTORS
330
2A
102
}
102
{ACAD_XDICTIONARY
360
6F6
102
}
330
2A
100
AcDbVisualStyle
  2
FlatWithEdges
 70
     1
 71
     2
 72
     1
 73
     1
 90
        2
 40
-0.6
 41
30.0
 62
     5
 63
     7
 74
     1
 91
        4
 64
     7
 65
   257
 75
     1
175
     1
 42
1.0
 92
        0
 66
   257
 43
1.0
 76
     1
 77
     6
 78
     2
 67
     7
 79
     5
170
     0
171
     0
290
     0
174
     0
 93
       13
 44
0.0
173
     0
291
     1
 45
0.0
1001
ACAD
1000
AcDbSavedByObjectVersion
1070
     0
  0
VISUALSTYLE
  5
2D
102
{ACAD_REACTORS
330
2A
102
}
102
{ACAD_XDICTIONARY
360
6F8
102
}
330
2A
100
AcDbVisualStyle
  2
Gouraud
 70
     2
 71
     2
 72
     2
 73
     1
 90
        2
 40
-0.6
 41
30.0
 62
     5
 63
     7
 74
     0
 91
        4
 64
     7
 65
   257
 75
     1
175
     1
 42
1.0
 92
        0
 66
     7
 43
1.0
 76
     1
 77
     6
 78
     2
 67
     7
 79
     5
170
     0
171
     0
290
     0
174
     0
 93
       13
 44
0.0
173
     0
291
     1
 45
0.0
1001
ACAD
1000
AcDbSavedByObjectVersion
1070
     0
  0
VISUALSTYLE
  5
2E
102
{ACAD_REACTORS
330
2A
102
}
102
{ACAD_XDICTIONARY
360
6FA
102
}
330
2A
100
AcDbVisualStyle
  2
GouraudWithEdges
 70
     3
 71
     2
 72
     2
 73
     1
 90
        2
 40
-0.6
 41
30.0
 62
     5
 63
     7
 74
     1
 91
        4
 64
     7
 65
   257
 75
     1
175
     1
 42
1.0
 92
        0
 66
   257
 43
1.0
 76
     1
 77
     6
 78
     2
 67
     7
 79
     5
170
     0
171
     0
290
     0
174
     0
 93
       13
 44
0.0
173
     0
291
     1
 45
0.0
1001
ACAD
1000
AcDbSavedByObjectVersion
1070
     0
  0
VISUALSTYLE
  5
38
102
{ACAD_REACTORS
330
2A
102
}
102
{ACAD_XDICTIONARY
360
70E
102
}
330
2A
100
AcDbVisualStyle
  2
Linepattern
 70
    14
 71
     2
 72
     2
 73
     0
 90
        0
 40
-0.6
 41
-30.0
 62
     5
 63
     7
 74
     1
 91
        4
 64
     7
 65
   257
 75
     7
175
     7
 42
1.0
 92
        8
 66
     7
 43
1.0
 76
     1
 77
     6
 78
     2
 67
     7
 79
     5
170
     0
171
     0
290
     0
174
     0
 93
        1
 44
0.0
173
     0
291
     1
 45
0.0
1001
ACAD
1000
AcDbSavedByObjectVersion
1070
     0
  0
VISUALSTYLE
  5
33
102
{ACAD_REACTORS
330
2A
102
}
102
{ACAD_XDICTIONARY
360
704
102
}
330
2A
100
AcDbVisualStyle
  2
Realistic
 70
     8
 71
     2
 72
     2
 73
     0
 90
        0
 40
-0.6
 41
-30.0
 62
     5
 63
     7
 74
     1
 91
        0
 64
     7
 65
   257
 75
     1
175
     1
 42
1.0
 92
        8
 66
     8
 43
1.0
 76
     1
 77
     6
 78
     2
 67
     7
 79
     5
170
     0
171
     0
290
     0
174
     0
 93
       13
 44
0.0
173
     0
291
     0
 45
0.0
1001
ACAD
1000
AcDbSavedByObjectVersion
1070
     0
  0
VISUALSTYLE
  5
37
102
{ACAD_REACTORS
330
2A
102
}
102
{ACAD_XDICTIONARY
360
70C
102
}
330
2A
100
AcDbVisualStyle
  2
Thicken
 70
    13
 71
     2
 72
     2
 73
     0
 90
        0
 40
-0.6
 41
-30.0
 62
     5
 63
     7
 74
     1
 91
        4
 64
     7
 65
   257
 75
     1
175
     1
 42
1.0
 92
       12
 66
     7
 43
1.0
 76
     1
 77
     6
 78
     2
 67
     7
 79
     5
170
     0
171
     0
290
     0
174
     0
 93
        1
 44
0.0
173
     0
291
     1
 45
0.0
1001
ACAD
1000
AcDbSavedByObjectVersion
1070
     0
  0
DICTIONARYVAR
  5
6F1
102
{ACAD_REACTORS
330
6EC
102
}
330
6EC
100
DictionaryVariables
280
     0
  1
1:1
  0
DICTIONARYVAR
  5
6F2
102
{ACAD_REACTORS
330
6EC
102
}
330
6EC
100
DictionaryVariables
280
     0
  1
2
  0
DICTIONARYVAR
  5
6F3
102
{ACAD_REACTORS
330
6EC
102
}
330
6EC
100
DictionaryVariables
280
     0
  1
1
  0
DICTIONARYVAR
  5
6F0
102
{ACAD_REACTORS
330
6EC
102
}
330
6EC
100
DictionaryVariables
280
     0
  1
80.000000
  0
DICTIONARYVAR
  5
6EF
102
{ACAD_REACTORS
330
6EC
102
}
330
6EC
100
DictionaryVariables
280
     0
  1
5.000000
  0
DICTIONARY
  5
716
330
3D
100
AcDbDictionary
280
     1
281
     1
  3
ACAD_XREC_ROUNDTRIP
360
717
  0
DICTIONARY
  5
714
330
3C
100
AcDbDictionary
280
     1
281
     1
  3
ACAD_XREC_ROUNDTRIP
360
715
  0
DICTIONARY
  5
718
330
3E
100
AcDbDictionary
280
     1
281
     1
  3
ACAD_XREC_ROUNDTRIP
360
719
  0
DICTIONARY
  5
6FC
330
2F
100
AcDbDictionary
280
     1
281
     1
  3
ACAD_XREC_ROUNDTRIP
360
6FD
  0
DICTIONARY
  5
700
330
31
100
AcDbDictionary
280
     1
281
     1
  3
ACAD_XREC_ROUNDTRIP
360
701
  0
DICTIONARY
  5
6FE
330
30
100
AcDbDictionary
280
     1
281
     1
  3
ACAD_XREC_ROUNDTRIP
360
6FF
  0
DICTIONARY
  5
702
330
32
100
AcDbDictionary
280
     1
281
     1
  3
ACAD_XREC_ROUNDTRIP
360
703
  0
DICTIONARY
  5
70A
330
36
100
AcDbDictionary
280
     1
281
     1
  3
ACAD_XREC_ROUNDTRIP
360
70B
  0
DICTIONARY
  5
712
330
3A
100
AcDbDictionary
280
     1
281
     1
  3
ACAD_XREC_ROUNDTRIP
360
713
  0
DICTIONARY
  5
706
330
34
100
AcDbDictionary
280
     1
281
     1
  3
ACAD_XREC_ROUNDTRIP
360
707
  0
DICTIONARY
  5
708
330
35
100
AcDbDictionary
280
     1
281
     1
  3
ACAD_XREC_ROUNDTRIP
360
709
  0
DICTIONARY
  5
710
330
39
100
AcDbDictionary
280
     1
281
     1
  3
ACAD_XREC_ROUNDTRIP
360
711
  0
DICTIONARY
  5
6F4
330
2B
100
AcDbDictionary
280
     1
281
     1
  3
ACAD_XREC_ROUNDTRIP
360
6F5
  0
DICTIONARY
  5
6F6
330
2C
100
AcDbDictionary
280
     1
281
     1
  3
ACAD_XREC_ROUNDTRIP
360
6F7
  0
DICTIONARY
  5
6F8
330
2D
100
AcDbDictionary
280
     1
281
     1
  3
ACAD_XREC_ROUNDTRIP
360
6F9
  0
DICTIONARY
  5
6FA
330
2E
100
AcDbDictionary
280
     1
281
     1
  3
ACAD_XREC_ROUNDTRIP
360
6FB
  0
DICTIONARY
  5
70E
330
38
100
AcDbDictionary
280
     1
281
     1
  3
ACAD_XREC_ROUNDTRIP
360
70F
  0
DICTIONARY
  5
704
330
33
100
AcDbDictionary
280
     1
281
     1
  3
ACAD_XREC_ROUNDTRIP
360
705
  0
DICTIONARY
  5
70C
330
37
100
AcDbDictionary
280
     1
281
     1
  3
ACAD_XREC_ROUNDTRIP
360
70D
  0
XRECORD
  5
717
102
{ACAD_REACTORS
330
716
102
}
330
716
100
AcDbXrecord
280
     1
102
MATERIAL
148
0.0
149
0.0
149
0.0
 93
        0
 94
      127
282
     0
 72
     1
 77
     1
171
     1
175
     1
179
     1
273
     0
  0
XRECORD
  5
715
102
{ACAD_REACTORS
330
714
102
}
330
714
100
AcDbXrecord
280
     1
102
MATERIAL
148
0.0
149
0.0
149
0.0
 93
        0
 94
      127
282
     0
 72
     1
 77
     1
171
     1
175
     1
179
     1
273
     0
  0
XRECORD
  5
719
102
{ACAD_REACTORS
330
718
102
}
330
718
100
AcDbXrecord
280
     1
102
MATERIAL
148
0.0
149
0.0
149
0.0
 93
        0
 94
      127
282
     0
 72
     1
 77
     1
171
     1
175
     1
179
     1
273
     0
  0
XRECORD
  5
6FD
102
{ACAD_REACTORS
330
6FC
102
}
330
6FC
100
AcDbXrecord
280
     1
102
RTVSPropertyOp0
 70
     1
102
RTVSPropertyOp1
 70
     1
102
RTVSPropertyOp2
 70
     1
102
RTVSPropertyOp3
 70
     1
102
RTVSPropertyOp4
 70
     1
102
RTVSPropertyOp5
 70
     1
102
RTVSPropertyOp6
 70
     1
102
RTVSPropertyOp7
 70
     1
102
RTVSPropertyOp8
 70
     1
102
RTVSPropertyOp9
 70
     1
102
RTVSPropertyOp10
 70
     1
102
RTVSPropertyOp11
 70
     1
102
RTVSPropertyOp12
 70
     1
102
RTVSPropertyOp13
 70
     1
102
RTVSPropertyOp14
 70
     1
102
RTVSPropertyOp15
 70
     1
102
RTVSPropertyOp16
 70
     1
102
RTVSPropertyOp17
 70
     1
102
RTVSPropertyOp18
 70
     1
102
RTVSPropertyOp19
 70
     1
102
RTVSPropertyOp20
 70
     1
102
RTVSPropertyOp21
 70
     1
102
RTVSPropertyOp22
 70
     1
102
RTVSPropertyOp23
 70
     1
102
RTVSPropertyOp24
 70
     1
102
RTVSPropertyOp25
 70
     1
102
RTVSPropertyOp26
 70
     1
102
RTVSPropertyOp27
 70
     1
  0
XRECORD
  5
701
102
{ACAD_REACTORS
330
700
102
}
330
700
100
AcDbXrecord
280
     1
102
RTVSPropertyOp0
 70
     1
102
RTVSPropertyOp1
 70
     1
102
RTVSPropertyOp2
 70
     1
102
RTVSPropertyOp3
 70
     1
102
RTVSPropertyOp4
 70
     1
102
RTVSPropertyOp5
 70
     1
102
RTVSPropertyOp6
 70
     1
102
RTVSPropertyOp7
 70
     1
102
RTVSPropertyOp8
 70
     1
102
RTVSPropertyOp9
 70
     1
102
RTVSPropertyOp10
 70
     1
102
RTVSPropertyOp11
 70
     1
102
RTVSPropertyOp12
 70
     1
102
RTVSPropertyOp13
 70
     1
102
RTVSPropertyOp14
 70
     1
102
RTVSPropertyOp15
 70
     1
102
RTVSPropertyOp16
 70
     1
102
RTVSPropertyOp17
 70
     1
102
RTVSPropertyOp18
 70
     1
102
RTVSPropertyOp19
 70
     1
102
RTVSPropertyOp20
 70
     1
102
RTVSPropertyOp21
 70
     1
102
RTVSPropertyOp22
 70
     1
102
RTVSPropertyOp23
 70
     1
102
RTVSPropertyOp24
 70
     1
102
RTVSPropertyOp25
 70
     1
102
RTVSPropertyOp26
 70
     1
102
RTVSPropertyOp27
 70
     1
  0
XRECORD
  5
6FF
102
{ACAD_REACTORS
330
6FE
102
}
330
6FE
100
AcDbXrecord
280
     1
102
RTVSPropertyOp0
 70
     1
102
RTVSPropertyOp1
 70
     1
102
RTVSPropertyOp2
 70
     1
102
RTVSPropertyOp3
 70
     1
102
RTVSPropertyOp4
 70
     1
102
RTVSPropertyOp5
 70
     1
102
RTVSPropertyOp6
 70
     1
102
RTVSPropertyOp7
 70
     1
102
RTVSPropertyOp8
 70
     1
102
RTVSPropertyOp9
 70
     1
102
RTVSPropertyOp10
 70
     1
102
RTVSPropertyOp11
 70
     1
102
RTVSPropertyOp12
 70
     1
102
RTVSPropertyOp13
 70
     1
102
RTVSPropertyOp14
 70
     1
102
RTVSPropertyOp15
 70
     1
102
RTVSPropertyOp16
 70
     1
102
RTVSPropertyOp17
 70
     1
102
RTVSPropertyOp18
 70
     1
102
RTVSPropertyOp19
 70
     1
102
RTVSPropertyOp20
 70
     1
102
RTVSPropertyOp21
 70
     1
102
RTVSPropertyOp22
 70
     1
102
RTVSPropertyOp23
 70
     1
102
RTVSPropertyOp24
 70
     1
102
RTVSPropertyOp25
 70
     1
102
RTVSPropertyOp26
 70
     1
102
RTVSPropertyOp27
 70
     1
  0
XRECORD
  5
703
102
{ACAD_REACTORS
330
702
102
}
330
702
100
AcDbXrecord
280
     1
102
RTVSPropertyOp0
 70
     1
102
RTVSPropertyOp1
 70
     1
102
RTVSPropertyOp2
 70
     1
102
RTVSPropertyOp3
 70
     1
102
RTVSPropertyOp4
 70
     1
102
RTVSPropertyOp5
 70
     1
102
RTVSPropertyOp6
 70
     1
102
RTVSPropertyOp7
 70
     1
102
RTVSPropertyOp8
 70
     1
102
RTVSPropertyOp9
 70
     1
102
RTVSPropertyOp10
 70
     1
102
RTVSPropertyOp11
 70
     1
102
RTVSPropertyOp12
 70
     1
102
RTVSPropertyOp13
 70
     1
102
RTVSPropertyOp14
 70
     1
102
RTVSPropertyOp15
 70
     1
102
RTVSPropertyOp16
 70
     1
102
RTVSPropertyOp17
 70
     1
102
RTVSPropertyOp18
 70
     1
102
RTVSPropertyOp19
 70
     1
102
RTVSPropertyOp20
 70
     1
102
RTVSPropertyOp21
 70
     1
102
RTVSPropertyOp22
 70
     1
102
RTVSPropertyOp23
 70
     1
102
RTVSPropertyOp24
 70
     1
102
RTVSPropertyOp25
 70
     1
102
RTVSPropertyOp26
 70
     1
102
RTVSPropertyOp27
 70
     1
  0
XRECORD
  5
70B
102
{ACAD_REACTORS
330
70A
102
}
330
70A
100
AcDbXrecord
280
     1
102
RTVSPropertyOp0
 70
     1
102
RTVSPropertyOp1
 70
     1
102
RTVSPropertyOp2
 70
     1
102
RTVSPropertyOp3
 70
     1
102
RTVSPropertyOp4
 70
     1
102
RTVSPropertyOp5
 70
     1
102
RTVSPropertyOp6
 70
     1
102
RTVSPropertyOp7
 70
     1
102
RTVSPropertyOp8
 70
     1
102
RTVSPropertyOp9
 70
     1
102
RTVSPropertyOp10
 70
     1
102
RTVSPropertyOp11
 70
     1
102
RTVSPropertyOp12
 70
     1
102
RTVSPropertyOp13
 70
     1
102
RTVSPropertyOp14
 70
     1
102
RTVSPropertyOp15
 70
     1
102
RTVSPropertyOp16
 70
     1
102
RTVSPropertyOp17
 70
     1
102
RTVSPropertyOp18
 70
     1
102
RTVSPropertyOp19
 70
     1
102
RTVSPropertyOp20
 70
     1
102
RTVSPropertyOp21
 70
     1
102
RTVSPropertyOp22
 70
     1
102
RTVSPropertyOp23
 70
     1
102
RTVSPropertyOp24
 70
     1
102
RTVSPropertyOp25
 70
     1
102
RTVSPropertyOp26
 70
     1
102
RTVSPropertyOp27
 70
     1
  0
XRECORD
  5
713
102
{ACAD_REACTORS
330
712
102
}
330
712
100
AcDbXrecord
280
     1
102
RTVSPropertyOp0
 70
     1
102
RTVSPropertyOp1
 70
     1
102
RTVSPropertyOp2
 70
     1
102
RTVSPropertyOp3
 70
     1
102
RTVSPropertyOp4
 70
     1
102
RTVSPropertyOp5
 70
     1
102
RTVSPropertyOp6
 70
     1
102
RTVSPropertyOp7
 70
     1
102
RTVSPropertyOp8
 70
     1
102
RTVSPropertyOp9
 70
     1
102
RTVSPropertyOp10
 70
     1
102
RTVSPropertyOp11
 70
     1
102
RTVSPropertyOp12
 70
     1
102
RTVSPropertyOp13
 70
     1
102
RTVSPropertyOp14
 70
     1
102
RTVSPropertyOp15
 70
     1
102
RTVSPropertyOp16
 70
     1
102
RTVSPropertyOp17
 70
     1
102
RTVSPropertyOp18
 70
     1
102
RTVSPropertyOp19
 70
     1
102
RTVSPropertyOp20
 70
     1
102
RTVSPropertyOp21
 70
     1
102
RTVSPropertyOp22
 70
     1
102
RTVSPropertyOp23
 70
     1
102
RTVSPropertyOp24
 70
     1
102
RTVSPropertyOp25
 70
     1
102
RTVSPropertyOp26
 70
     1
102
RTVSPropertyOp27
 70
     1
  0
XRECORD
  5
707
102
{ACAD_REACTORS
330
706
102
}
330
706
100
AcDbXrecord
280
     1
102
RTVSPropertyOp0
 70
     1
102
RTVSPropertyOp1
 70
     1
102
RTVSPropertyOp2
 70
     1
102
RTVSPropertyOp3
 70
     1
102
RTVSPropertyOp4
 70
     1
102
RTVSPropertyOp5
 70
     1
102
RTVSPropertyOp6
 70
     1
102
RTVSPropertyOp7
 70
     1
102
RTVSPropertyOp8
 70
     1
102
RTVSPropertyOp9
 70
     1
102
RTVSPropertyOp10
 70
     1
102
RTVSPropertyOp11
 70
     1
102
RTVSPropertyOp12
 70
     1
102
RTVSPropertyOp13
 70
     1
102
RTVSPropertyOp14
 70
     1
102
RTVSPropertyOp15
 70
     1
102
RTVSPropertyOp16
 70
     1
102
RTVSPropertyOp17
 70
     1
102
RTVSPropertyOp18
 70
     1
102
RTVSPropertyOp19
 70
     1
102
RTVSPropertyOp20
 70
     1
102
RTVSPropertyOp21
 70
     1
102
RTVSPropertyOp22
 70
     1
102
RTVSPropertyOp23
 70
     1
102
RTVSPropertyOp24
 70
     1
102
RTVSPropertyOp25
 70
     1
102
RTVSPropertyOp26
 70
     1
102
RTVSPropertyOp27
 70
     1
  0
XRECORD
  5
709
102
{ACAD_REACTORS
330
708
102
}
330
708
100
AcDbXrecord
280
     1
102
RTVSPropertyOp0
 70
     1
102
RTVSPropertyOp1
 70
     1
102
RTVSPropertyOp2
 70
     1
102
RTVSPropertyOp3
 70
     1
102
RTVSPropertyOp4
 70
     1
102
RTVSPropertyOp5
 70
     1
102
RTVSPropertyOp6
 70
     1
102
RTVSPropertyOp7
 70
     1
102
RTVSPropertyOp8
 70
     1
102
RTVSPropertyOp9
 70
     1
102
RTVSPropertyOp10
 70
     1
102
RTVSPropertyOp11
 70
     1
102
RTVSPropertyOp12
 70
     1
102
RTVSPropertyOp13
 70
     1
102
RTVSPropertyOp14
 70
     1
102
RTVSPropertyOp15
 70
     1
102
RTVSPropertyOp16
 70
     1
102
RTVSPropertyOp17
 70
     1
102
RTVSPropertyOp18
 70
     1
102
RTVSPropertyOp19
 70
     1
102
RTVSPropertyOp20
 70
     1
102
RTVSPropertyOp21
 70
     1
102
RTVSPropertyOp22
 70
     1
102
RTVSPropertyOp23
 70
     1
102
RTVSPropertyOp24
 70
     1
102
RTVSPropertyOp25
 70
     1
102
RTVSPropertyOp26
 70
     1
102
RTVSPropertyOp27
 70
     1
  0
XRECORD
  5
711
102
{ACAD_REACTORS
330
710
102
}
330
710
100
AcDbXrecord
280
     1
102
RTVSPropertyOp0
 70
     1
102
RTVSPropertyOp1
 70
     1
102
RTVSPropertyOp2
 70
     1
102
RTVSPropertyOp3
 70
     1
102
RTVSPropertyOp4
 70
     1
102
RTVSPropertyOp5
 70
     1
102
RTVSPropertyOp6
 70
     1
102
RTVSPropertyOp7
 70
     1
102
RTVSPropertyOp8
 70
     1
102
RTVSPropertyOp9
 70
     1
102
RTVSPropertyOp10
 70
     1
102
RTVSPropertyOp11
 70
     1
102
RTVSPropertyOp12
 70
     1
102
RTVSPropertyOp13
 70
     1
102
RTVSPropertyOp14
 70
     1
102
RTVSPropertyOp15
 70
     1
102
RTVSPropertyOp16
 70
     1
102
RTVSPropertyOp17
 70
     1
102
RTVSPropertyOp18
 70
     1
102
RTVSPropertyOp19
 70
     1
102
RTVSPropertyOp20
 70
     1
102
RTVSPropertyOp21
 70
     1
102
RTVSPropertyOp22
 70
     1
102
RTVSPropertyOp23
 70
     1
102
RTVSPropertyOp24
 70
     1
102
RTVSPropertyOp25
 70
     1
102
RTVSPropertyOp26
 70
     1
102
RTVSPropertyOp27
 70
     1
  0
XRECORD
  5
6F5
102
{ACAD_REACTORS
330
6F4
102
}
330
6F4
100
AcDbXrecord
280
     1
102
RTVSPropertyOp0
 70
     1
102
RTVSPropertyOp1
 70
     1
102
RTVSPropertyOp2
 70
     1
102
RTVSPropertyOp3
 70
     1
102
RTVSPropertyOp4
 70
     1
102
RTVSPropertyOp5
 70
     1
102
RTVSPropertyOp6
 70
     1
102
RTVSPropertyOp7
 70
     1
102
RTVSPropertyOp8
 70
     1
102
RTVSPropertyOp9
 70
     1
102
RTVSPropertyOp10
 70
     1
102
RTVSPropertyOp11
 70
     1
102
RTVSPropertyOp12
 70
     1
102
RTVSPropertyOp13
 70
     1
102
RTVSPropertyOp14
 70
     1
102
RTVSPropertyOp15
 70
     1
102
RTVSPropertyOp16
 70
     1
102
RTVSPropertyOp17
 70
     1
102
RTVSPropertyOp18
 70
     1
102
RTVSPropertyOp19
 70
     1
102
RTVSPropertyOp20
 70
     1
102
RTVSPropertyOp21
 70
     1
102
RTVSPropertyOp22
 70
     1
102
RTVSPropertyOp23
 70
     1
102
RTVSPropertyOp24
 70
     1
102
RTVSPropertyOp25
 70
     1
102
RTVSPropertyOp26
 70
     1
102
RTVSPropertyOp27
 70
     1
  0
XRECORD
  5
6F7
102
{ACAD_REACTORS
330
6F6
102
}
330
6F6
100
AcDbXrecord
280
     1
102
RTVSPropertyOp0
 70
     1
102
RTVSPropertyOp1
 70
     1
102
RTVSPropertyOp2
 70
     1
102
RTVSPropertyOp3
 70
     1
102
RTVSPropertyOp4
 70
     1
102
RTVSPropertyOp5
 70
     1
102
RTVSPropertyOp6
 70
     1
102
RTVSPropertyOp7
 70
     1
102
RTVSPropertyOp8
 70
     1
102
RTVSPropertyOp9
 70
     1
102
RTVSPropertyOp10
 70
     1
102
RTVSPropertyOp11
 70
     1
102
RTVSPropertyOp12
 70
     1
102
RTVSPropertyOp13
 70
     1
102
RTVSPropertyOp14
 70
     1
102
RTVSPropertyOp15
 70
     1
102
RTVSPropertyOp16
 70
     1
102
RTVSPropertyOp17
 70
     1
102
RTVSPropertyOp18
 70
     1
102
RTVSPropertyOp19
 70
     1
102
RTVSPropertyOp20
 70
     1
102
RTVSPropertyOp21
 70
     1
102
RTVSPropertyOp22
 70
     1
102
RTVSPropertyOp23
 70
     1
102
RTVSPropertyOp24
 70
     1
102
RTVSPropertyOp25
 70
     1
102
RTVSPropertyOp26
 70
     1
102
RTVSPropertyOp27
 70
     1
  0
XRECORD
  5
6F9
102
{ACAD_REACTORS
330
6F8
102
}
330
6F8
100
AcDbXrecord
280
     1
102
RTVSPropertyOp0
 70
     1
102
RTVSPropertyOp1
 70
     1
102
RTVSPropertyOp2
 70
     1
102
RTVSPropertyOp3
 70
     1
102
RTVSPropertyOp4
 70
     1
102
RTVSPropertyOp5
 70
     1
102
RTVSPropertyOp6
 70
     1
102
RTVSPropertyOp7
 70
     1
102
RTVSPropertyOp8
 70
     1
102
RTVSPropertyOp9
 70
     1
102
RTVSPropertyOp10
 70
     1
102
RTVSPropertyOp11
 70
     1
102
RTVSPropertyOp12
 70
     1
102
RTVSPropertyOp13
 70
     1
102
RTVSPropertyOp14
 70
     1
102
RTVSPropertyOp15
 70
     1
102
RTVSPropertyOp16
 70
     1
102
RTVSPropertyOp17
 70
     1
102
RTVSPropertyOp18
 70
     1
102
RTVSPropertyOp19
 70
     1
102
RTVSPropertyOp20
 70
     1
102
RTVSPropertyOp21
 70
     1
102
RTVSPropertyOp22
 70
     1
102
RTVSPropertyOp23
 70
     1
102
RTVSPropertyOp24
 70
     1
102
RTVSPropertyOp25
 70
     1
102
RTVSPropertyOp26
 70
     1
102
RTVSPropertyOp27
 70
     1
  0
XRECORD
  5
6FB
102
{ACAD_REACTORS
330
6FA
102
}
330
6FA
100
AcDbXrecord
280
     1
102
RTVSPropertyOp0
 70
     1
102
RTVSPropertyOp1
 70
     1
102
RTVSPropertyOp2
 70
     1
102
RTVSPropertyOp3
 70
     1
102
RTVSPropertyOp4
 70
     1
102
RTVSPropertyOp5
 70
     1
102
RTVSPropertyOp6
 70
     1
102
RTVSPropertyOp7
 70
     1
102
RTVSPropertyOp8
 70
     1
102
RTVSPropertyOp9
 70
     1
102
RTVSPropertyOp10
 70
     1
102
RTVSPropertyOp11
 70
     1
102
RTVSPropertyOp12
 70
     1
102
RTVSPropertyOp13
 70
     1
102
RTVSPropertyOp14
 70
     1
102
RTVSPropertyOp15
 70
     1
102
RTVSPropertyOp16
 70
     1
102
RTVSPropertyOp17
 70
     1
102
RTVSPropertyOp18
 70
     1
102
RTVSPropertyOp19
 70
     1
102
RTVSPropertyOp20
 70
     1
102
RTVSPropertyOp21
 70
     1
102
RTVSPropertyOp22
 70
     1
102
RTVSPropertyOp23
 70
     1
102
RTVSPropertyOp24
 70
     1
102
RTVSPropertyOp25
 70
     1
102
RTVSPropertyOp26
 70
     1
102
RTVSPropertyOp27
 70
     1
  0
XRECORD
  5
70F
102
{ACAD_REACTORS
330
70E
102
}
330
70E
100
AcDbXrecord
280
     1
102
RTVSPropertyOp0
 70
     1
102
RTVSPropertyOp1
 70
     1
102
RTVSPropertyOp2
 70
     1
102
RTVSPropertyOp3
 70
     1
102
RTVSPropertyOp4
 70
     1
102
RTVSPropertyOp5
 70
     1
102
RTVSPropertyOp6
 70
     1
102
RTVSPropertyOp7
 70
     1
102
RTVSPropertyOp8
 70
     1
102
RTVSPropertyOp9
 70
     1
102
RTVSPropertyOp10
 70
     1
102
RTVSPropertyOp11
 70
     1
102
RTVSPropertyOp12
 70
     1
102
RTVSPropertyOp13
 70
     1
102
RTVSPropertyOp14
 70
     1
102
RTVSPropertyOp15
 70
     1
102
RTVSPropertyOp16
 70
     1
102
RTVSPropertyOp17
 70
     1
102
RTVSPropertyOp18
 70
     1
102
RTVSPropertyOp19
 70
     1
102
RTVSPropertyOp20
 70
     1
102
RTVSPropertyOp21
 70
     1
102
RTVSPropertyOp22
 70
     1
102
RTVSPropertyOp23
 70
     1
102
RTVSPropertyOp24
 70
     1
102
RTVSPropertyOp25
 70
     1
102
RTVSPropertyOp26
 70
     1
102
RTVSPropertyOp27
 70
     1
  0
XRECORD
  5
705
102
{ACAD_REACTORS
330
704
102
}
330
704
100
AcDbXrecord
280
     1
102
RTVSPropertyOp0
 70
     1
102
RTVSPropertyOp1
 70
     1
102
RTVSPropertyOp2
 70
     1
102
RTVSPropertyOp3
 70
     1
102
RTVSPropertyOp4
 70
     1
102
RTVSPropertyOp5
 70
     1
102
RTVSPropertyOp6
 70
     1
102
RTVSPropertyOp7
 70
     1
102
RTVSPropertyOp8
 70
     1
102
RTVSPropertyOp9
 70
     1
102
RTVSPropertyOp10
 70
     1
102
RTVSPropertyOp11
 70
     1
102
RTVSPropertyOp12
 70
     1
102
RTVSPropertyOp13
 70
     1
102
RTVSPropertyOp14
 70
     1
102
RTVSPropertyOp15
 70
     1
102
RTVSPropertyOp16
 70
     1
102
RTVSPropertyOp17
 70
     1
102
RTVSPropertyOp18
 70
     1
102
RTVSPropertyOp19
 70
     1
102
RTVSPropertyOp20
 70
     1
102
RTVSPropertyOp21
 70
     1
102
RTVSPropertyOp22
 70
     1
102
RTVSPropertyOp23
 70
     1
102
RTVSPropertyOp24
 70
     1
102
RTVSPropertyOp25
 70
     1
102
RTVSPropertyOp26
 70
     1
102
RTVSPropertyOp27
 70
     1
  0
XRECORD
  5
70D
102
{ACAD_REACTORS
330
70C
102
}
330
70C
100
AcDbXrecord
280
     1
102
RTVSPropertyOp0
 70
     1
102
RTVSPropertyOp1
 70
     1
102
RTVSPropertyOp2
 70
     1
102
RTVSPropertyOp3
 70
     1
102
RTVSPropertyOp4
 70
     1
102
RTVSPropertyOp5
 70
     1
102
RTVSPropertyOp6
 70
     1
102
RTVSPropertyOp7
 70
     1
102
RTVSPropertyOp8
 70
     1
102
RTVSPropertyOp9
 70
     1
102
RTVSPropertyOp10
 70
     1
102
RTVSPropertyOp11
 70
     1
102
RTVSPropertyOp12
 70
     1
102
RTVSPropertyOp13
 70
     1
102
RTVSPropertyOp14
 70
     1
102
RTVSPropertyOp15
 70
     1
102
RTVSPropertyOp16
 70
     1
102
RTVSPropertyOp17
 70
     1
102
RTVSPropertyOp18
 70
     1
102
RTVSPropertyOp19
 70
     1
102
RTVSPropertyOp20
 70
     1
102
RTVSPropertyOp21
 70
     1
102
RTVSPropertyOp22
 70
     1
102
RTVSPropertyOp23
 70
     1
102
RTVSPropertyOp24
 70
     1
102
RTVSPropertyOp25
 70
     1
102
RTVSPropertyOp26
 70
     1
102
RTVSPropertyOp27
 70
     1
  0
ENDSEC
  0
EOF
