ISO-10303-21;
HEADER;
FILE_DESCRIPTION (( 'STEP AP214' ),
    '1' );
FILE_NAME ('99619-W060-04_W06004S103.STEP',
    '2017-03-06T07:23:22',
    ( 'User' ),
    ( 'GENUINE' ),
    'SwSTEP 2.0',
    'SolidWorks 2012',
    '' );
FILE_SCHEMA (( 'AUTOMOTIVE_DESIGN' ));
ENDSEC;

DATA;
#1 = ORIENTED_EDGE ( 'NONE', *, *, #134, .T. ) ;
#2 = ORIENTED_EDGE ( 'NONE', *, *, #31, .T. ) ;
#3 = EDGE_CURVE ( 'NONE', #37, #49, #163, .T. ) ;
#4 = ORIENTED_EDGE ( 'NONE', *, *, #3, .T. ) ;
#5 = EDGE_CURVE ( 'NONE', #16, #25, #119, .T. ) ;
#6 = ADVANCED_FACE ( 'NONE', ( #148 ), #140, .T. ) ;
#7 = EDGE_LOOP ( 'NONE', ( #56, #40, #55, #44 ) ) ;
#8 = ORIENTED_EDGE ( 'NONE', *, *, #15, .T. ) ;
#9 = EDGE_CURVE ( 'NONE', #33, #117, #69, .T. ) ;
#10 = ORIENTED_EDGE ( 'NONE', *, *, #111, .F. ) ;
#11 = EDGE_LOOP ( 'NONE', ( #128, #12, #50, #35 ) ) ;
#12 = ORIENTED_EDGE ( 'NONE', *, *, #48, .T. ) ;
#13 = ADVANCED_FACE ( 'NONE', ( #105 ), #71, .T. ) ;
#14 = ORIENTED_EDGE ( 'NONE', *, *, #112, .T. ) ;
#15 = EDGE_CURVE ( 'NONE', #25, #117, #161, .T. ) ;
#16 = VERTEX_POINT ( 'NONE', #85 ) ;
#17 = EDGE_CURVE ( 'NONE', #25, #16, #72, .T. ) ;
#18 = ORIENTED_EDGE ( 'NONE', *, *, #109, .F. ) ;
#19 = EDGE_CURVE ( 'NONE', #16, #33, #102, .T. ) ;
#20 = ORIENTED_EDGE ( 'NONE', *, *, #22, .F. ) ;
#21 = ORIENTED_EDGE ( 'NONE', *, *, #109, .T. ) ;
#22 = EDGE_CURVE ( 'NONE', #135, #26, #153, .T. ) ;
#23 = ORIENTED_EDGE ( 'NONE', *, *, #19, .F. ) ;
#24 = ADVANCED_FACE ( 'NONE', ( #157 ), #95, .T. ) ;
#25 = VERTEX_POINT ( 'NONE', #82 ) ;
#26 = VERTEX_POINT ( 'NONE', #124 ) ;
#27 = ORIENTED_EDGE ( 'NONE', *, *, #17, .F. ) ;
#28 = EDGE_LOOP ( 'NONE', ( #27, #8, #14, #23 ) ) ;
#29 = EDGE_CURVE ( 'NONE', #114, #113, #42, .T. ) ;
#30 = EDGE_CURVE ( 'NONE', #135, #114, #281, .T. ) ;
#31 = EDGE_CURVE ( 'NONE', #113, #26, #273, .T. ) ;
#32 = EDGE_LOOP ( 'NONE', ( #21, #149, #139, #136 ) ) ;
#33 = VERTEX_POINT ( 'NONE', #277 ) ;
#34 = ADVANCED_FACE ( 'NONE', ( #275 ), #276, .T. ) ;
#35 = ORIENTED_EDGE ( 'NONE', *, *, #58, .F. ) ;
#36 = EDGE_CURVE ( 'NONE', #49, #37, #214, .T. ) ;
#37 = VERTEX_POINT ( 'NONE', #210 ) ;
#38 = ORIENTED_EDGE ( 'NONE', *, *, #3, .F. ) ;
#39 = ORIENTED_EDGE ( 'NONE', *, *, #36, .T. ) ;
#40 = ORIENTED_EDGE ( 'NONE', *, *, #5, .F. ) ;
#41 = ADVANCED_FACE ( 'NONE', ( #269 ), #239, .T. ) ;
#42 = LINE ( 'NONE', #47, #125 ) ;
#43 = EDGE_LOOP ( 'NONE', ( #10, #2, #1, #93 ) ) ;
#44 = ORIENTED_EDGE ( 'NONE', *, *, #9, .T. ) ;
#45 = EDGE_LOOP ( 'NONE', ( #39, #4 ) ) ;
#46 = ADVANCED_FACE ( 'NONE', ( #230 ), #274, .T. ) ;
#47 = CARTESIAN_POINT ( 'NONE',  ( -1.999999999999999100, 2.449293598294705900E-016, 0.3333333333333188300 ) ) ;
#48 = EDGE_CURVE ( 'NONE', #16, #37, #181, .T. ) ;
#49 = VERTEX_POINT ( 'NONE', #242 ) ;
#50 = ORIENTED_EDGE ( 'NONE', *, *, #36, .F. ) ;
#51 = ADVANCED_FACE ( 'NONE', ( #187 ), #258, .T. ) ;
#52 = EDGE_LOOP ( 'NONE', ( #57, #53, #54, #38 ) ) ;
#53 = ORIENTED_EDGE ( 'NONE', *, *, #5, .T. ) ;
#54 = ORIENTED_EDGE ( 'NONE', *, *, #58, .T. ) ;
#55 = ORIENTED_EDGE ( 'NONE', *, *, #19, .T. ) ;
#56 = ORIENTED_EDGE ( 'NONE', *, *, #15, .F. ) ;
#57 = ORIENTED_EDGE ( 'NONE', *, *, #48, .F. ) ;
#58 = EDGE_CURVE ( 'NONE', #25, #49, #260, .T. ) ;
#59 = CLOSED_SHELL ( 'NONE', ( #34, #24, #13, #127, #46, #41, #51, #6, #141, #104 ) ) ;
#60 = STYLED_ITEM ( 'NONE', ( #61 ), #13 ) ;
#61 = PRESENTATION_STYLE_ASSIGNMENT (( #62 ) ) ;
#62 = SURFACE_STYLE_USAGE ( .BOTH. , #63 ) ;
#63 = SURFACE_SIDE_STYLE ('',( #64 ) ) ;
#64 = SURFACE_STYLE_FILL_AREA ( #65 ) ;
#65 = FILL_AREA_STYLE ('',( #70 ) ) ;
#66 = DIRECTION ( 'NONE',  ( 1.000000000000000000, 0.0000000000000000000, 0.0000000000000000000 ) ) ;
#67 = DIRECTION ( 'NONE',  ( 7.096771279051218400E-016, -0.0000000000000000000, 1.000000000000000000 ) ) ;
#68 = CARTESIAN_POINT ( 'NONE',  ( 2.605541830010764800E-014, 0.0000000000000000000, 36.71446813710903000 ) ) ;
#69 = CIRCLE ( 'NONE', #162, 2.000000000000101700 ) ;
#70 = FILL_AREA_STYLE_COLOUR ( '', #126 ) ;
#71 = CONICAL_SURFACE ( 'NONE', #106, 0.1688903429185375200, 0.5061454830783571600 ) ;
#72 = CIRCLE ( 'NONE', #142, 0.1688903429185375200 ) ;
#73 = ORIENTED_EDGE ( 'NONE', *, *, #22, .T. ) ;
#74 = ORIENTED_EDGE ( 'NONE', *, *, #29, .F. ) ;
#75 = ORIENTED_EDGE ( 'NONE', *, *, #30, .T. ) ;
#76 = DIRECTION ( 'NONE',  ( 1.000000000000000000, 0.0000000000000000000, 0.0000000000000000000 ) ) ;
#77 = DIRECTION ( 'NONE',  ( 7.096771279051218400E-016, -0.0000000000000000000, 1.000000000000000000 ) ) ;
#78 = CARTESIAN_POINT ( 'NONE',  ( 2.842170943040400700E-014, 0.0000000000000000000, 40.04878882640806400 ) ) ;
#79 = AXIS2_PLACEMENT_3D ( 'NONE', #78, #77, #76 ) ;
#80 = EDGE_LOOP ( 'NONE', ( #75, #115, #18, #20 ) ) ;
#81 = DIRECTION ( 'NONE',  ( -1.000000000000000000, 0.0000000000000000000, 0.0000000000000000000 ) ) ;
#82 = CARTESIAN_POINT ( 'NONE',  ( 0.1688903429185657200, 0.0000000000000000000, 40.01787740362284000 ) ) ;
#83 = AXIS2_PLACEMENT_3D ( 'NONE', #103, #122, #121 ) ;
#84 = CARTESIAN_POINT ( 'NONE',  ( 2.839977230066233200E-014, 0.0000000000000000000, 40.01787740362284000 ) ) ;
#85 = CARTESIAN_POINT ( 'NONE',  ( -0.1688903429185089300, 2.068310178620855900E-017, 40.01787740362284000 ) ) ;
#86 = DIRECTION ( 'NONE',  ( -7.096771279051218400E-016, 0.0000000000000000000, -1.000000000000000000 ) ) ;
#87 =( GEOMETRIC_REPRESENTATION_CONTEXT ( 3 ) GLOBAL_UNCERTAINTY_ASSIGNED_CONTEXT ( ( #88 ) ) GLOBAL_UNIT_ASSIGNED_CONTEXT ( ( #131, #130, #89 ) ) REPRESENTATION_CONTEXT ( 'NONE', 'WORKASPACE' ) );
#88 = UNCERTAINTY_MEASURE_WITH_UNIT (LENGTH_MEASURE( 1.000000000000000100E-005 ), #131, 'distance_accuracy_value', 'NONE');
#89 =( NAMED_UNIT ( * ) SI_UNIT ( $, .STERADIAN. ) SOLID_ANGLE_UNIT ( ) );
#90 = ORIENTED_EDGE ( 'NONE', *, *, #94, .T. ) ;
#91 = EDGE_LOOP ( 'NONE', ( #74, #90, #73, #138 ) ) ;
#92 = DIRECTION ( 'NONE',  ( 1.000000000000000000, 0.0000000000000000000, 0.0000000000000000000 ) ) ;
#93 = ORIENTED_EDGE ( 'NONE', *, *, #9, .F. ) ;
#94 = EDGE_CURVE ( 'NONE', #114, #135, #255, .T. ) ;
#95 = CYLINDRICAL_SURFACE ( 'NONE', #83, 2.000000000000050600 ) ;
#96 = TOROIDAL_SURFACE ( 'NONE', #120, 0.1164131604901684100, 0.06000000000000399500 ) ;
#97 = DIRECTION ( 'NONE',  ( 0.7071067811866047500, 0.0000000000000000000, 0.7071067811864904000 ) ) ;
#98 = VECTOR ( 'NONE', #97, 999.9999999999998900 ) ;
#99 = DIRECTION ( 'NONE',  ( -0.4848096202463389500, 0.0000000000000000000, -0.8746197071393947400 ) ) ;
#100 = VECTOR ( 'NONE', #99, 1000.000000000000100 ) ;
#101 = CARTESIAN_POINT ( 'NONE',  ( -0.1688903429185091300, 0.0000000000000000000, 40.01787740362284000 ) ) ;
#102 = LINE ( 'NONE', #101, #100 ) ;
#103 = CARTESIAN_POINT ( 'NONE',  ( 2.842170943040400700E-014, 0.0000000000000000000, 40.04878882640806400 ) ) ;
#104 = ADVANCED_FACE ( 'NONE', ( #247 ), #245, .T. ) ;
#105 = FACE_OUTER_BOUND ( 'NONE', #28, .T. ) ;
#106 = AXIS2_PLACEMENT_3D ( 'NONE', #84, #86, #81 ) ;
#107 = CARTESIAN_POINT ( 'NONE',  ( 2.000000000000000000, 0.0000000000000000000, 0.3333333333333160500 ) ) ;
#108 = CARTESIAN_POINT ( 'NONE',  ( 2.842170943040400700E-014, 0.0000000000000000000, 40.04878882640806400 ) ) ;
#109 = EDGE_CURVE ( 'NONE', #26, #113, #300, .T. ) ;
#110 = EDGE_LOOP ( 'NONE', ( #137, #116 ) ) ;
#111 = EDGE_CURVE ( 'NONE', #113, #33, #301, .T. ) ;
#112 = EDGE_CURVE ( 'NONE', #117, #33, #296, .T. ) ;
#113 = VERTEX_POINT ( 'NONE', #291 ) ;
#114 = VERTEX_POINT ( 'NONE', #290 ) ;
#115 = ORIENTED_EDGE ( 'NONE', *, *, #29, .T. ) ;
#116 = ORIENTED_EDGE ( 'NONE', *, *, #94, .F. ) ;
#117 = VERTEX_POINT ( 'NONE', #302 ) ;
#118 = AXIS2_PLACEMENT_3D ( 'NONE', #108, #147, #92 ) ;
#119 = CIRCLE ( 'NONE', #146, 0.1688903429185375200 ) ;
#120 = AXIS2_PLACEMENT_3D ( 'NONE', #156, #155, #154 ) ;
#121 = DIRECTION ( 'NONE',  ( 1.000000000000000000, 0.0000000000000000000, 0.0000000000000000000 ) ) ;
#122 = DIRECTION ( 'NONE',  ( 7.096771279051218400E-016, -0.0000000000000000000, 1.000000000000000000 ) ) ;
#123 = DIRECTION ( 'NONE',  ( -0.7071067811866035300, 8.659560562355625600E-017, 0.7071067811864915100 ) ) ;
#124 = CARTESIAN_POINT ( 'NONE',  ( 2.000000000000000000, 0.0000000000000000000, 0.3333333333333160500 ) ) ;
#125 = VECTOR ( 'NONE', #123, 1000.000000000000000 ) ;
#126 = COLOUR_RGB ( '',1.000000000000000000, 0.0000000000000000000, 0.0000000000000000000 ) ;
#127 = ADVANCED_FACE ( 'NONE', ( #232 ), #96, .T. ) ;
#128 = ORIENTED_EDGE ( 'NONE', *, *, #17, .T. ) ;
#129 = MANIFOLD_SOLID_BREP ( '±ÛÂà1', #59 ) ;
#130 =( NAMED_UNIT ( * ) PLANE_ANGLE_UNIT ( ) SI_UNIT ( $, .RADIAN. ) );
#131 =( LENGTH_UNIT ( ) NAMED_UNIT ( * ) SI_UNIT ( .MILLI., .METRE. ) );
#132 = MECHANICAL_DESIGN_GEOMETRIC_PRESENTATION_REPRESENTATION (  '', ( #60 ), #87 ) ;
#133 = PRESENTATION_LAYER_ASSIGNMENT (  '', '', ( #60 ) ) ;
#134 = EDGE_CURVE ( 'NONE', #26, #117, #366, .T. ) ;
#135 = VERTEX_POINT ( 'NONE', #306 ) ;
#136 = ORIENTED_EDGE ( 'NONE', *, *, #134, .F. ) ;
#137 = ORIENTED_EDGE ( 'NONE', *, *, #30, .F. ) ;
#138 = ORIENTED_EDGE ( 'NONE', *, *, #31, .F. ) ;
#139 = ORIENTED_EDGE ( 'NONE', *, *, #112, .F. ) ;
#140 = CYLINDRICAL_SURFACE ( 'NONE', #118, 2.000000000000050600 ) ;
#141 = ADVANCED_FACE ( 'NONE', ( #308 ), #307, .T. ) ;
#142 = AXIS2_PLACEMENT_3D ( 'NONE', #152, #151, #150 ) ;
#143 = DIRECTION ( 'NONE',  ( 1.000000000000000000, 0.0000000000000000000, 0.0000000000000000000 ) ) ;
#144 = DIRECTION ( 'NONE',  ( 7.096771279051218400E-016, -0.0000000000000000000, 1.000000000000000000 ) ) ;
#145 = CARTESIAN_POINT ( 'NONE',  ( 2.839977230066233200E-014, 0.0000000000000000000, 40.01787740362284000 ) ) ;
#146 = AXIS2_PLACEMENT_3D ( 'NONE', #145, #144, #143 ) ;
#147 = DIRECTION ( 'NONE',  ( 7.096771279051218400E-016, -0.0000000000000000000, 1.000000000000000000 ) ) ;
#148 = FACE_OUTER_BOUND ( 'NONE', #43, .T. ) ;
#149 = ORIENTED_EDGE ( 'NONE', *, *, #111, .T. ) ;
#150 = DIRECTION ( 'NONE',  ( 1.000000000000000000, 0.0000000000000000000, 0.0000000000000000000 ) ) ;
#151 = DIRECTION ( 'NONE',  ( 7.096771279051218400E-016, -0.0000000000000000000, 1.000000000000000000 ) ) ;
#152 = CARTESIAN_POINT ( 'NONE',  ( 2.839977230066233200E-014, 0.0000000000000000000, 40.01787740362284000 ) ) ;
#153 = LINE ( 'NONE', #107, #98 ) ;
#154 = DIRECTION ( 'NONE',  ( 1.000000000000000000, 0.0000000000000000000, -7.096771279051217400E-016 ) ) ;
#155 = DIRECTION ( 'NONE',  ( 7.096771279051218400E-016, -0.0000000000000000000, 1.000000000000000000 ) ) ;
#156 = CARTESIAN_POINT ( 'NONE',  ( 2.837899186480807900E-014, 0.0000000000000000000, 39.98878882640806200 ) ) ;
#157 = FACE_OUTER_BOUND ( 'NONE', #32, .T. ) ;
#158 = DIRECTION ( 'NONE',  ( 0.4848096202463377800, 5.937205496305221200E-017, -0.8746197071393954100 ) ) ;
#159 = VECTOR ( 'NONE', #158, 1000.000000000000000 ) ;
#160 = CARTESIAN_POINT ( 'NONE',  ( 0.1688903429185659200, 2.068310178620858400E-017, 40.01787740362284000 ) ) ;
#161 = LINE ( 'NONE', #160, #159 ) ;
#162 = AXIS2_PLACEMENT_3D ( 'NONE', #68, #67, #66 ) ;
#163 = CIRCLE ( 'NONE', #79, 0.1164131604901683700 ) ;
#164 = DIRECTION ( 'NONE',  ( 1.000000000000000000, 0.0000000000000000000, -7.047314121155780800E-016 ) ) ;
#165 = DIRECTION ( 'NONE',  ( 7.096771279051218400E-016, -0.0000000000000000000, 1.000000000000000000 ) ) ;
#166 = CARTESIAN_POINT ( 'NONE',  ( 2.365590426350298800E-016, 0.0000000000000000000, 0.3333333333333174400 ) ) ;
#167 =( NAMED_UNIT ( * ) PLANE_ANGLE_UNIT ( ) SI_UNIT ( $, .RADIAN. ) );
#168 =( LENGTH_UNIT ( ) NAMED_UNIT ( * ) SI_UNIT ( .MILLI., .METRE. ) );
#169 = MECHANICAL_DESIGN_GEOMETRIC_PRESENTATION_REPRESENTATION (  '', ( #171 ), #262 ) ;
#170 = PRESENTATION_LAYER_ASSIGNMENT (  '', '', ( #171 ) ) ;
#171 = STYLED_ITEM ( 'NONE', ( #172 ), #51 ) ;
#172 = PRESENTATION_STYLE_ASSIGNMENT (( #173 ) ) ;
#173 = SURFACE_STYLE_USAGE ( .BOTH. , #174 ) ;
#174 = SURFACE_SIDE_STYLE ('',( #175 ) ) ;
#175 = SURFACE_STYLE_FILL_AREA ( #177 ) ;
#176 = AXIS2_PLACEMENT_3D ( 'NONE', #206, #249, #248 ) ;
#177 = FILL_AREA_STYLE ('',( #203 ) ) ;
#178 = DIRECTION ( 'NONE',  ( -1.000000000000000000, 1.224646799147353200E-016, 0.0000000000000000000 ) ) ;
#179 = DIRECTION ( 'NONE',  ( 1.224646799147353200E-016, 1.000000000000000000, -8.691038231170942200E-032 ) ) ;
#180 = CARTESIAN_POINT ( 'NONE',  ( -0.1164131604901400300, 1.425650043729118600E-017, 39.98878882640806200 ) ) ;
#181 = CIRCLE ( 'NONE', #189, 0.06000000000000398100 ) ;
#182 = AXIS2_PLACEMENT_3D ( 'NONE', #246, #236, #235 ) ;
#183 = AXIS2_PLACEMENT_3D ( 'NONE', #238, #257, #256 ) ;
#184 = DIRECTION ( 'NONE',  ( 1.000000000000000000, 0.0000000000000000000, -7.096771279051218400E-016 ) ) ;
#185 = DIRECTION ( 'NONE',  ( 7.096771279051218400E-016, -0.0000000000000000000, 1.000000000000000000 ) ) ;
#186 = CARTESIAN_POINT ( 'NONE',  ( 0.1164131604901967900, 0.0000000000000000000, 40.04878882640806400 ) ) ;
#187 = FACE_OUTER_BOUND ( 'NONE', #7, .T. ) ;
#188 = COLOUR_RGB ( '',1.000000000000000000, 0.0000000000000000000, 0.0000000000000000000 ) ;
#189 = AXIS2_PLACEMENT_3D ( 'NONE', #180, #179, #178 ) ;
#190 =( GEOMETRIC_REPRESENTATION_CONTEXT ( 3 ) GLOBAL_UNCERTAINTY_ASSIGNED_CONTEXT ( ( #191 ) ) GLOBAL_UNIT_ASSIGNED_CONTEXT ( ( #194, #193, #192 ) ) REPRESENTATION_CONTEXT ( 'NONE', 'WORKASPACE' ) );
#191 = UNCERTAINTY_MEASURE_WITH_UNIT (LENGTH_MEASURE( 1.000000000000000100E-005 ), #194, 'distance_accuracy_value', 'NONE');
#192 =( NAMED_UNIT ( * ) SI_UNIT ( $, .STERADIAN. ) SOLID_ANGLE_UNIT ( ) );
#193 =( NAMED_UNIT ( * ) PLANE_ANGLE_UNIT ( ) SI_UNIT ( $, .RADIAN. ) );
#194 =( LENGTH_UNIT ( ) NAMED_UNIT ( * ) SI_UNIT ( .MILLI., .METRE. ) );
#195 = MECHANICAL_DESIGN_GEOMETRIC_PRESENTATION_REPRESENTATION (  '', ( #197 ), #190 ) ;
#196 = PRESENTATION_LAYER_ASSIGNMENT (  '', '', ( #197 ) ) ;
#197 = STYLED_ITEM ( 'NONE', ( #198 ), #46 ) ;
#198 = PRESENTATION_STYLE_ASSIGNMENT (( #199 ) ) ;
#199 = SURFACE_STYLE_USAGE ( .BOTH. , #200 ) ;
#200 = SURFACE_SIDE_STYLE ('',( #201 ) ) ;
#201 = SURFACE_STYLE_FILL_AREA ( #202 ) ;
#202 = FILL_AREA_STYLE ('',( #215 ) ) ;
#203 = FILL_AREA_STYLE_COLOUR ( '', #188 ) ;
#204 = DIRECTION ( 'NONE',  ( 1.000000000000000000, 0.0000000000000000000, -7.096771279051217400E-016 ) ) ;
#205 = DIRECTION ( 'NONE',  ( 7.096771279051218400E-016, -0.0000000000000000000, 1.000000000000000000 ) ) ;
#206 = CARTESIAN_POINT ( 'NONE',  ( 0.0000000000000000000, 0.0000000000000000000, 0.0000000000000000000 ) ) ;
#207 = CARTESIAN_POINT ( 'NONE',  ( 2.365590426350298800E-016, 0.0000000000000000000, 0.3333333333333174400 ) ) ;
#208 = FILL_AREA_STYLE ('',( #227 ) ) ;
#209 = CARTESIAN_POINT ( 'NONE',  ( 2.837899186480807900E-014, 0.0000000000000000000, 39.98878882640806200 ) ) ;
#210 = CARTESIAN_POINT ( 'NONE',  ( -0.1164131604901399400, 1.746980111174986400E-017, 40.04878882640806400 ) ) ;
#211 = SURFACE_STYLE_FILL_AREA ( #208 ) ;
#212 = DIRECTION ( 'NONE',  ( 1.000000000000000000, 0.0000000000000000000, 0.0000000000000000000 ) ) ;
#213 = DIRECTION ( 'NONE',  ( 7.096771279051218400E-016, -0.0000000000000000000, 1.000000000000000000 ) ) ;
#214 = CIRCLE ( 'NONE', #284, 0.1164131604901683700 ) ;
#215 = FILL_AREA_STYLE_COLOUR ( '', #228 ) ;
#216 =( NAMED_UNIT ( * ) PLANE_ANGLE_UNIT ( ) SI_UNIT ( $, .RADIAN. ) );
#217 =( LENGTH_UNIT ( ) NAMED_UNIT ( * ) SI_UNIT ( .MILLI., .METRE. ) );
#218 = MECHANICAL_DESIGN_GEOMETRIC_PRESENTATION_REPRESENTATION (  '', ( #220 ), #224 ) ;
#219 = PRESENTATION_LAYER_ASSIGNMENT (  '', '', ( #220 ) ) ;
#220 = STYLED_ITEM ( 'NONE', ( #221 ), #127 ) ;
#221 = PRESENTATION_STYLE_ASSIGNMENT (( #222 ) ) ;
#222 = SURFACE_STYLE_USAGE ( .BOTH. , #223 ) ;
#223 = SURFACE_SIDE_STYLE ('',( #233 ) ) ;
#224 =( GEOMETRIC_REPRESENTATION_CONTEXT ( 3 ) GLOBAL_UNCERTAINTY_ASSIGNED_CONTEXT ( ( #225 ) ) GLOBAL_UNIT_ASSIGNED_CONTEXT ( ( #217, #216, #226 ) ) REPRESENTATION_CONTEXT ( 'NONE', 'WORKASPACE' ) );
#225 = UNCERTAINTY_MEASURE_WITH_UNIT (LENGTH_MEASURE( 1.000000000000000100E-005 ), #217, 'distance_accuracy_value', 'NONE');
#226 =( NAMED_UNIT ( * ) SI_UNIT ( $, .STERADIAN. ) SOLID_ANGLE_UNIT ( ) );
#227 = FILL_AREA_STYLE_COLOUR ( '', #231 ) ;
#228 = COLOUR_RGB ( '',1.000000000000000000, 0.0000000000000000000, 0.0000000000000000000 ) ;
#229 = AXIS2_PLACEMENT_3D ( 'NONE', #186, #185, #184 ) ;
#230 = FACE_OUTER_BOUND ( 'NONE', #45, .T. ) ;
#231 = COLOUR_RGB ( '',1.000000000000000000, 0.0000000000000000000, 0.0000000000000000000 ) ;
#232 = FACE_OUTER_BOUND ( 'NONE', #11, .T. ) ;
#233 = SURFACE_STYLE_FILL_AREA ( #289 ) ;
#234 = FILL_AREA_STYLE_COLOUR ( '', #295 ) ;
#235 = DIRECTION ( 'NONE',  ( 1.000000000000000000, 0.0000000000000000000, 0.0000000000000000000 ) ) ;
#236 = DIRECTION ( 'NONE',  ( 7.096771279051218400E-016, -0.0000000000000000000, 1.000000000000000000 ) ) ;
#237 = AXIS2_PLACEMENT_3D ( 'NONE', #209, #205, #204 ) ;
#238 = CARTESIAN_POINT ( 'NONE',  ( 2.839977230066233200E-014, 0.0000000000000000000, 40.01787740362284000 ) ) ;
#239 = TOROIDAL_SURFACE ( 'NONE', #237, 0.1164131604901684100, 0.06000000000000399500 ) ;
#240 =( GEOMETRIC_REPRESENTATION_CONTEXT ( 3 ) GLOBAL_UNCERTAINTY_ASSIGNED_CONTEXT ( ( #241 ) ) GLOBAL_UNIT_ASSIGNED_CONTEXT ( ( #265, #283, #282 ) ) REPRESENTATION_CONTEXT ( 'NONE', 'WORKASPACE' ) );
#241 = UNCERTAINTY_MEASURE_WITH_UNIT (LENGTH_MEASURE( 1.000000000000000100E-005 ), #265, 'distance_accuracy_value', 'NONE');
#242 = CARTESIAN_POINT ( 'NONE',  ( 0.1164131604901967900, 0.0000000000000000000, 40.04878882640806400 ) ) ;
#243 = DIRECTION ( 'NONE',  ( 1.000000000000000000, 0.0000000000000000000, -7.047314121155780800E-016 ) ) ;
#244 = DIRECTION ( 'NONE',  ( 7.096771279051218400E-016, -0.0000000000000000000, 1.000000000000000000 ) ) ;
#245 = PLANE ( 'NONE',  #254 ) ;
#246 = CARTESIAN_POINT ( 'NONE',  ( 2.605541830010764800E-014, 0.0000000000000000000, 36.71446813710903000 ) ) ;
#247 = FACE_OUTER_BOUND ( 'NONE', #110, .T. ) ;
#248 = DIRECTION ( 'NONE',  ( 1.000000000000000000, 0.0000000000000000000, -7.096771279051217400E-016 ) ) ;
#249 = DIRECTION ( 'NONE',  ( 7.096771279051218400E-016, -0.0000000000000000000, 1.000000000000000000 ) ) ;
#250 = AXIS2_PLACEMENT_3D ( 'NONE', #299, #298, #297 ) ;
#251 = DIRECTION ( 'NONE',  ( 0.0000000000000000000, 0.0000000000000000000, -1.000000000000000000 ) ) ;
#252 = DIRECTION ( 'NONE',  ( 0.0000000000000000000, -1.000000000000000000, -0.0000000000000000000 ) ) ;
#253 = CARTESIAN_POINT ( 'NONE',  ( 0.1164131604901967900, 0.0000000000000000000, 39.98878882640806200 ) ) ;
#254 = AXIS2_PLACEMENT_3D ( 'NONE', #259, #304, #303 ) ;
#255 = CIRCLE ( 'NONE', #176, 1.666666666666628800 ) ;
#256 = DIRECTION ( 'NONE',  ( -1.000000000000000000, 0.0000000000000000000, 0.0000000000000000000 ) ) ;
#257 = DIRECTION ( 'NONE',  ( -7.096771279051218400E-016, 0.0000000000000000000, -1.000000000000000000 ) ) ;
#258 = CONICAL_SURFACE ( 'NONE', #183, 0.1688903429185375200, 0.5061454830783571600 ) ;
#259 = CARTESIAN_POINT ( 'NONE',  ( 1.666666666666628800, 0.0000000000000000000, -5.913976065875880400E-016 ) ) ;
#260 = CIRCLE ( 'NONE', #261, 0.06000000000000449400 ) ;
#261 = AXIS2_PLACEMENT_3D ( 'NONE', #253, #252, #251 ) ;
#262 =( GEOMETRIC_REPRESENTATION_CONTEXT ( 3 ) GLOBAL_UNCERTAINTY_ASSIGNED_CONTEXT ( ( #263 ) ) GLOBAL_UNIT_ASSIGNED_CONTEXT ( ( #168, #167, #264 ) ) REPRESENTATION_CONTEXT ( 'NONE', 'WORKASPACE' ) );
#263 = UNCERTAINTY_MEASURE_WITH_UNIT (LENGTH_MEASURE( 1.000000000000000100E-005 ), #168, 'distance_accuracy_value', 'NONE');
#264 =( NAMED_UNIT ( * ) SI_UNIT ( $, .STERADIAN. ) SOLID_ANGLE_UNIT ( ) );
#265 =( LENGTH_UNIT ( ) NAMED_UNIT ( * ) SI_UNIT ( .MILLI., .METRE. ) );
#266 = MECHANICAL_DESIGN_GEOMETRIC_PRESENTATION_REPRESENTATION (  '', ( #268 ), #240 ) ;
#267 = PRESENTATION_LAYER_ASSIGNMENT (  '', '', ( #268 ) ) ;
#268 = STYLED_ITEM ( 'NONE', ( #285 ), #41 ) ;
#269 = FACE_OUTER_BOUND ( 'NONE', #52, .T. ) ;
#270 = DIRECTION ( 'NONE',  ( 1.000000000000000000, 0.0000000000000000000, -7.096771279051217400E-016 ) ) ;
#271 = CARTESIAN_POINT ( 'NONE',  ( 2.842170943040400700E-014, 0.0000000000000000000, 40.04878882640806400 ) ) ;
#272 = AXIS2_PLACEMENT_3D ( 'NONE', #166, #244, #243 ) ;
#273 = CIRCLE ( 'NONE', #272, 1.999999999999999600 ) ;
#274 = PLANE ( 'NONE',  #229 ) ;
#275 = FACE_OUTER_BOUND ( 'NONE', #80, .T. ) ;
#276 = CONICAL_SURFACE ( 'NONE', #288, 1.999999999999999600, 0.7853981633975283300 ) ;
#277 = CARTESIAN_POINT ( 'NONE',  ( -2.000000000000075900, 0.0000000000000000000, 36.71446813710903000 ) ) ;
#278 = DIRECTION ( 'NONE',  ( 7.096771279051218400E-016, -0.0000000000000000000, 1.000000000000000000 ) ) ;
#279 = CARTESIAN_POINT ( 'NONE',  ( 0.0000000000000000000, 0.0000000000000000000, 0.0000000000000000000 ) ) ;
#280 = AXIS2_PLACEMENT_3D ( 'NONE', #279, #278, #270 ) ;
#281 = CIRCLE ( 'NONE', #280, 1.666666666666628800 ) ;
#282 =( NAMED_UNIT ( * ) SI_UNIT ( $, .STERADIAN. ) SOLID_ANGLE_UNIT ( ) );
#283 =( NAMED_UNIT ( * ) PLANE_ANGLE_UNIT ( ) SI_UNIT ( $, .RADIAN. ) );
#284 = AXIS2_PLACEMENT_3D ( 'NONE', #271, #213, #212 ) ;
#285 = PRESENTATION_STYLE_ASSIGNMENT (( #286 ) ) ;
#286 = SURFACE_STYLE_USAGE ( .BOTH. , #287 ) ;
#287 = SURFACE_SIDE_STYLE ('',( #211 ) ) ;
#288 = AXIS2_PLACEMENT_3D ( 'NONE', #207, #165, #164 ) ;
#289 = FILL_AREA_STYLE ('',( #234 ) ) ;
#290 = CARTESIAN_POINT ( 'NONE',  ( -1.666666666666628800, 2.245185798436790800E-016, 1.182795213175176100E-015 ) ) ;
#291 = CARTESIAN_POINT ( 'NONE',  ( -1.999999999999999100, 2.449293598294752300E-016, 0.3333333333333188300 ) ) ;
#292 = DIRECTION ( 'NONE',  ( 7.096771279051218400E-016, -0.0000000000000000000, 1.000000000000000000 ) ) ;
#293 = VECTOR ( 'NONE', #292, 1000.000000000000000 ) ;
#294 = CARTESIAN_POINT ( 'NONE',  ( -2.000000000000022200, 2.449293598294768500E-016, 40.04878882640806400 ) ) ;
#295 = COLOUR_RGB ( '',1.000000000000000000, 0.0000000000000000000, 0.0000000000000000000 ) ;
#296 = CIRCLE ( 'NONE', #182, 2.000000000000101700 ) ;
#297 = DIRECTION ( 'NONE',  ( 1.000000000000000000, 0.0000000000000000000, -7.047314121155780800E-016 ) ) ;
#298 = DIRECTION ( 'NONE',  ( 7.096771279051218400E-016, -0.0000000000000000000, 1.000000000000000000 ) ) ;
#299 = CARTESIAN_POINT ( 'NONE',  ( 2.365590426350298800E-016, 0.0000000000000000000, 0.3333333333333174400 ) ) ;
#300 = CIRCLE ( 'NONE', #250, 1.999999999999999600 ) ;
#301 = LINE ( 'NONE', #294, #293 ) ;
#302 = CARTESIAN_POINT ( 'NONE',  ( 2.000000000000128300, 2.449293598294831600E-016, 36.71446813710903000 ) ) ;
#303 = DIRECTION ( 'NONE',  ( -1.000000000000000000, 0.0000000000000000000, 7.096771279051218400E-016 ) ) ;
#304 = DIRECTION ( 'NONE',  ( -7.096771279051218400E-016, 0.0000000000000000000, -1.000000000000000000 ) ) ;
#305 = UNCERTAINTY_MEASURE_WITH_UNIT (LENGTH_MEASURE( 1.000000000000000100E-005 ), #309, 'distance_accuracy_value', 'NONE');
#306 = CARTESIAN_POINT ( 'NONE',  ( 1.666666666666628800, 0.0000000000000000000, -1.182795213175176100E-015 ) ) ;
#307 = CONICAL_SURFACE ( 'NONE', #332, 1.999999999999999600, 0.7853981633975283300 ) ;
#308 = FACE_OUTER_BOUND ( 'NONE', #91, .T. ) ;
#309 =( LENGTH_UNIT ( ) NAMED_UNIT ( * ) SI_UNIT ( .MILLI., .METRE. ) );
#310 = FILL_AREA_STYLE ('',( #350 ) ) ;
#311 = SURFACE_STYLE_USAGE ( .BOTH. , #312 ) ;
#312 = SURFACE_SIDE_STYLE ('',( #313 ) ) ;
#313 = SURFACE_STYLE_FILL_AREA ( #310 ) ;
#314 =( GEOMETRIC_REPRESENTATION_CONTEXT ( 3 ) GLOBAL_UNCERTAINTY_ASSIGNED_CONTEXT ( ( #305 ) ) GLOBAL_UNIT_ASSIGNED_CONTEXT ( ( #309, #338, #340 ) ) REPRESENTATION_CONTEXT ( 'NONE', 'WORKASPACE' ) );
#315 =( NAMED_UNIT ( * ) SI_UNIT ( $, .STERADIAN. ) SOLID_ANGLE_UNIT ( ) );
#316 =( NAMED_UNIT ( * ) PLANE_ANGLE_UNIT ( ) SI_UNIT ( $, .RADIAN. ) );
#317 =( LENGTH_UNIT ( ) NAMED_UNIT ( * ) SI_UNIT ( .MILLI., .METRE. ) );
#318 = MECHANICAL_DESIGN_GEOMETRIC_PRESENTATION_REPRESENTATION (  '', ( #320 ), #348 ) ;
#319 = PRESENTATION_LAYER_ASSIGNMENT (  '', '', ( #320 ) ) ;
#320 = STYLED_ITEM ( 'NONE', ( #321 ), #327 ) ;
#321 = PRESENTATION_STYLE_ASSIGNMENT (( #322 ) ) ;
#322 = SURFACE_STYLE_USAGE ( .BOTH. , #323 ) ;
#323 = SURFACE_SIDE_STYLE ('',( #324 ) ) ;
#324 = SURFACE_STYLE_FILL_AREA ( #367 ) ;
#325 = COLOUR_RGB ( '',0.7921568627450980000, 0.8196078431372548800, 0.9333333333333333500 ) ;
#326 = APPLICATION_PROTOCOL_DEFINITION ( 'draft international standard', 'automotive_design', 1998, #339 ) ;
#327 = ADVANCED_BREP_SHAPE_REPRESENTATION ( '99619-W060-04_W06004S103', ( #129, #347 ), #341 ) ;
#328 = DIRECTION ( 'NONE',  ( 1.000000000000000000, 0.0000000000000000000, -7.047314121155780800E-016 ) ) ;
#329 = DIRECTION ( 'NONE',  ( 7.096771279051218400E-016, -0.0000000000000000000, 1.000000000000000000 ) ) ;
#330 = DIRECTION ( 'NONE',  ( 0.0000000000000000000, 0.0000000000000000000, 1.000000000000000000 ) ) ;
#331 = CARTESIAN_POINT ( 'NONE',  ( 0.0000000000000000000, 0.0000000000000000000, 0.0000000000000000000 ) ) ;
#332 = AXIS2_PLACEMENT_3D ( 'NONE', #362, #329, #328 ) ;
#333 = MECHANICAL_DESIGN_GEOMETRIC_PRESENTATION_REPRESENTATION (  '', ( #335 ), #314 ) ;
#334 = PRESENTATION_LAYER_ASSIGNMENT (  '', '', ( #335 ) ) ;
#335 = STYLED_ITEM ( 'NONE', ( #336 ), #129 ) ;
#336 = PRESENTATION_STYLE_ASSIGNMENT (( #311 ) ) ;
#337 = COLOUR_RGB ( '',0.7921568627450980000, 0.8196078431372548800, 0.9333333333333333500 ) ;
#338 =( NAMED_UNIT ( * ) PLANE_ANGLE_UNIT ( ) SI_UNIT ( $, .RADIAN. ) );
#339 = APPLICATION_CONTEXT ( 'automotive_design' ) ;
#340 =( NAMED_UNIT ( * ) SI_UNIT ( $, .STERADIAN. ) SOLID_ANGLE_UNIT ( ) );
#341 =( GEOMETRIC_REPRESENTATION_CONTEXT ( 3 ) GLOBAL_UNCERTAINTY_ASSIGNED_CONTEXT ( ( #342 ) ) GLOBAL_UNIT_ASSIGNED_CONTEXT ( ( #345, #344, #343 ) ) REPRESENTATION_CONTEXT ( 'NONE', 'WORKASPACE' ) );
#342 = UNCERTAINTY_MEASURE_WITH_UNIT (LENGTH_MEASURE( 1.000000000000000100E-005 ), #345, 'distance_accuracy_value', 'NONE');
#343 =( NAMED_UNIT ( * ) SI_UNIT ( $, .STERADIAN. ) SOLID_ANGLE_UNIT ( ) );
#344 =( NAMED_UNIT ( * ) PLANE_ANGLE_UNIT ( ) SI_UNIT ( $, .RADIAN. ) );
#345 =( LENGTH_UNIT ( ) NAMED_UNIT ( * ) SI_UNIT ( .MILLI., .METRE. ) );
#346 = DIRECTION ( 'NONE',  ( 1.000000000000000000, 0.0000000000000000000, 0.0000000000000000000 ) ) ;
#347 = AXIS2_PLACEMENT_3D ( 'NONE', #331, #330, #346 ) ;
#348 =( GEOMETRIC_REPRESENTATION_CONTEXT ( 3 ) GLOBAL_UNCERTAINTY_ASSIGNED_CONTEXT ( ( #349 ) ) GLOBAL_UNIT_ASSIGNED_CONTEXT ( ( #317, #316, #315 ) ) REPRESENTATION_CONTEXT ( 'NONE', 'WORKASPACE' ) );
#349 = UNCERTAINTY_MEASURE_WITH_UNIT (LENGTH_MEASURE( 1.000000000000000100E-005 ), #317, 'distance_accuracy_value', 'NONE');
#350 = FILL_AREA_STYLE_COLOUR ( '', #337 ) ;
#351 = FILL_AREA_STYLE_COLOUR ( '', #325 ) ;
#352 = SHAPE_DEFINITION_REPRESENTATION ( #353, #327 ) ;
#353 = PRODUCT_DEFINITION_SHAPE ( 'NONE', 'NONE',  #356 ) ;
#354 = PRODUCT_RELATED_PRODUCT_CATEGORY ( 'part', '', ( #360 ) ) ;
#355 = PRODUCT_DEFINITION_FORMATION_WITH_SPECIFIED_SOURCE ( 'ANY', '', #360, .NOT_KNOWN. ) ;
#356 = PRODUCT_DEFINITION ( 'UNKNOWN', '', #355, #357 ) ;
#357 = PRODUCT_DEFINITION_CONTEXT ( 'detailed design', #359, 'design' ) ;
#358 = APPLICATION_PROTOCOL_DEFINITION ( 'draft international standard', 'automotive_design', 1998, #359 ) ;
#359 = APPLICATION_CONTEXT ( 'automotive_design' ) ;
#360 = PRODUCT ( '99619-W060-04_W06004S103', '99619-W060-04_W06004S103', '', ( #361 ) ) ;
#361 = PRODUCT_CONTEXT ( 'NONE', #339, 'mechanical' ) ;
#362 = CARTESIAN_POINT ( 'NONE',  ( 2.365590426350298800E-016, 0.0000000000000000000, 0.3333333333333174400 ) ) ;
#363 = DIRECTION ( 'NONE',  ( 7.096771279051218400E-016, -0.0000000000000000000, 1.000000000000000000 ) ) ;
#364 = VECTOR ( 'NONE', #363, 1000.000000000000000 ) ;
#365 = CARTESIAN_POINT ( 'NONE',  ( 2.000000000000079500, 0.0000000000000000000, 40.04878882640806400 ) ) ;
#366 = LINE ( 'NONE', #365, #364 ) ;
#367 = FILL_AREA_STYLE ('',( #351 ) ) ;
ENDSEC;
END-ISO-10303-21;
