ISO-10303-21;
HEADER;
FILE_DESCRIPTION (( 'STEP AP214' ),
    '1' );
FILE_NAME ('99619-W060-04_W06004S102.STEP',
    '2017-03-06T07:22:27',
    ( 'User' ),
    ( 'GENUINE' ),
    'SwSTEP 2.0',
    'SolidWorks 2012',
    '' );
FILE_SCHEMA (( 'AUTOMOTIVE_DESIGN' ));
ENDSEC;

DATA;
#1 = VERTEX_POINT ( 'NONE', #136 ) ;
#2 = AXIS2_PLACEMENT_3D ( 'NONE', #31, #44, #43 ) ;
#3 = MANIFOLD_SOLID_BREP ( '±ÛÂà1', #75 ) ;
#4 = SHAPE_DEFINITION_REPRESENTATION ( #9, #290 ) ;
#5 = VERTEX_POINT ( 'NONE', #114 ) ;
#6 = ADVANCED_FACE ( 'NONE', ( #113 ), #96, .T. ) ;
#7 = EDGE_CURVE ( 'NONE', #5, #14, #209, .T. ) ;
#8 = ORIENTED_EDGE ( 'NONE', *, *, #18, .T. ) ;
#9 = PRODUCT_DEFINITION_SHAPE ( 'NONE', 'NONE',  #249 ) ;
#10 = CIRCLE ( 'NONE', #2, 2.000000000000115000 ) ;
#11 = ORIENTED_EDGE ( 'NONE', *, *, #7, .T. ) ;
#12 = VERTEX_POINT ( 'NONE', #115 ) ;
#13 = VERTEX_POINT ( 'NONE', #119 ) ;
#14 = VERTEX_POINT ( 'NONE', #161 ) ;
#15 = EDGE_CURVE ( 'NONE', #1, #12, #158, .T. ) ;
#16 = EDGE_LOOP ( 'NONE', ( #8, #11, #38, #41 ) ) ;
#17 = ORIENTED_EDGE ( 'NONE', *, *, #15, .T. ) ;
#18 = EDGE_CURVE ( 'NONE', #13, #5, #159, .T. ) ;
#19 = ORIENTED_EDGE ( 'NONE', *, *, #24, .F. ) ;
#20 = ORIENTED_EDGE ( 'NONE', *, *, #116, .F. ) ;
#21 = EDGE_LOOP ( 'NONE', ( #85, #86, #69, #74 ) ) ;
#22 = EDGE_LOOP ( 'NONE', ( #83, #47, #52, #28 ) ) ;
#23 = ORIENTED_EDGE ( 'NONE', *, *, #50, .F. ) ;
#24 = EDGE_CURVE ( 'NONE', #1, #36, #152, .T. ) ;
#25 = ORIENTED_EDGE ( 'NONE', *, *, #34, .F. ) ;
#26 = ADVANCED_FACE ( 'NONE', ( #210 ), #148, .T. ) ;
#27 = EDGE_CURVE ( 'NONE', #13, #42, #138, .T. ) ;
#28 = ORIENTED_EDGE ( 'NONE', *, *, #53, .F. ) ;
#29 = VERTEX_POINT ( 'NONE', #139 ) ;
#30 = ORIENTED_EDGE ( 'NONE', *, *, #116, .T. ) ;
#31 = CARTESIAN_POINT ( 'NONE',  ( 1.299715517276155700E-014, 0.0000000000000000000, 36.68352815701462800 ) ) ;
#32 = ORIENTED_EDGE ( 'NONE', *, *, #60, .T. ) ;
#33 = EDGE_LOOP ( 'NONE', ( #40, #17, #35, #80 ) ) ;
#34 = EDGE_CURVE ( 'NONE', #36, #1, #141, .T. ) ;
#35 = ORIENTED_EDGE ( 'NONE', *, *, #62, .F. ) ;
#36 = VERTEX_POINT ( 'NONE', #173 ) ;
#37 = ADVANCED_FACE ( 'NONE', ( #179 ), #140, .T. ) ;
#38 = ORIENTED_EDGE ( 'NONE', *, *, #39, .F. ) ;
#39 = EDGE_CURVE ( 'NONE', #42, #14, #202, .T. ) ;
#40 = ORIENTED_EDGE ( 'NONE', *, *, #34, .T. ) ;
#41 = ORIENTED_EDGE ( 'NONE', *, *, #27, .F. ) ;
#42 = VERTEX_POINT ( 'NONE', #147 ) ;
#43 = DIRECTION ( 'NONE',  ( 1.000000000000000000, 0.0000000000000000000, 0.0000000000000000000 ) ) ;
#44 = DIRECTION ( 'NONE',  ( 3.543049380945720100E-016, -0.0000000000000000000, 1.000000000000000000 ) ) ;
#45 = EDGE_CURVE ( 'NONE', #13, #29, #178, .T. ) ;
#46 = ORIENTED_EDGE ( 'NONE', *, *, #58, .T. ) ;
#47 = ORIENTED_EDGE ( 'NONE', *, *, #24, .T. ) ;
#48 = ADVANCED_FACE ( 'NONE', ( #177 ), #192, .T. ) ;
#49 = ADVANCED_FACE ( 'NONE', ( #127 ), #126, .T. ) ;
#50 = EDGE_CURVE ( 'NONE', #55, #29, #10, .T. ) ;
#51 = ORIENTED_EDGE ( 'NONE', *, *, #18, .F. ) ;
#52 = ORIENTED_EDGE ( 'NONE', *, *, #57, .T. ) ;
#53 = EDGE_CURVE ( 'NONE', #12, #72, #277, .T. ) ;
#54 = ADVANCED_FACE ( 'NONE', ( #273 ), #276, .T. ) ;
#55 = VERTEX_POINT ( 'NONE', #267 ) ;
#56 = EDGE_LOOP ( 'NONE', ( #51, #73, #70, #59 ) ) ;
#57 = EDGE_CURVE ( 'NONE', #36, #72, #301, .T. ) ;
#58 = EDGE_CURVE ( 'NONE', #5, #55, #265, .T. ) ;
#59 = ORIENTED_EDGE ( 'NONE', *, *, #58, .F. ) ;
#60 = EDGE_CURVE ( 'NONE', #14, #42, #231, .T. ) ;
#61 = ORIENTED_EDGE ( 'NONE', *, *, #39, .T. ) ;
#62 = EDGE_CURVE ( 'NONE', #72, #12, #232, .T. ) ;
#63 = EDGE_CURVE ( 'NONE', #5, #13, #221, .T. ) ;
#64 = EDGE_LOOP ( 'NONE', ( #123, #71, #46, #82 ) ) ;
#65 = EDGE_LOOP ( 'NONE', ( #122, #30, #68, #205 ) ) ;
#66 = ORIENTED_EDGE ( 'NONE', *, *, #53, .T. ) ;
#67 = EDGE_CURVE ( 'NONE', #29, #55, #227, .T. ) ;
#68 = ORIENTED_EDGE ( 'NONE', *, *, #67, .F. ) ;
#69 = ORIENTED_EDGE ( 'NONE', *, *, #27, .T. ) ;
#70 = ORIENTED_EDGE ( 'NONE', *, *, #67, .T. ) ;
#71 = ORIENTED_EDGE ( 'NONE', *, *, #63, .F. ) ;
#72 = VERTEX_POINT ( 'NONE', #220 ) ;
#73 = ORIENTED_EDGE ( 'NONE', *, *, #45, .T. ) ;
#74 = ORIENTED_EDGE ( 'NONE', *, *, #60, .F. ) ;
#75 = CLOSED_SHELL ( 'NONE', ( #6, #37, #84, #88, #89, #49, #26, #77, #54, #48 ) ) ;
#76 = EDGE_LOOP ( 'NONE', ( #20, #66, #87, #23 ) ) ;
#77 = ADVANCED_FACE ( 'NONE', ( #266 ), #216, .T. ) ;
#78 = EDGE_LOOP ( 'NONE', ( #61, #32 ) ) ;
#79 = EDGE_LOOP ( 'NONE', ( #25, #19 ) ) ;
#80 = ORIENTED_EDGE ( 'NONE', *, *, #57, .F. ) ;
#81 = EDGE_CURVE ( 'NONE', #72, #29, #336, .T. ) ;
#82 = ORIENTED_EDGE ( 'NONE', *, *, #50, .T. ) ;
#83 = ORIENTED_EDGE ( 'NONE', *, *, #15, .F. ) ;
#84 = ADVANCED_FACE ( 'NONE', ( #334 ), #333, .T. ) ;
#85 = ORIENTED_EDGE ( 'NONE', *, *, #7, .F. ) ;
#86 = ORIENTED_EDGE ( 'NONE', *, *, #63, .T. ) ;
#87 = ORIENTED_EDGE ( 'NONE', *, *, #81, .T. ) ;
#88 = ADVANCED_FACE ( 'NONE', ( #359 ), #342, .T. ) ;
#89 = ADVANCED_FACE ( 'NONE', ( #363 ), #244, .T. ) ;
#90 = STYLED_ITEM ( 'NONE', ( #91 ), #3 ) ;
#91 = PRESENTATION_STYLE_ASSIGNMENT (( #92 ) ) ;
#92 = SURFACE_STYLE_USAGE ( .BOTH. , #170 ) ;
#93 = FILL_AREA_STYLE ('',( #106 ) ) ;
#94 = AXIS2_PLACEMENT_3D ( 'NONE', #208, #212, #211 ) ;
#95 = AXIS2_PLACEMENT_3D ( 'NONE', #167, #166, #165 ) ;
#96 = TOROIDAL_SURFACE ( 'NONE', #94, 0.07760877366011699500, 0.03999999999999851600 ) ;
#97 =( GEOMETRIC_REPRESENTATION_CONTEXT ( 3 ) GLOBAL_UNCERTAINTY_ASSIGNED_CONTEXT ( ( #107 ) ) GLOBAL_UNIT_ASSIGNED_CONTEXT ( ( #204, #203, #108 ) ) REPRESENTATION_CONTEXT ( 'NONE', 'WORKASPACE' ) );
#98 = MECHANICAL_DESIGN_GEOMETRIC_PRESENTATION_REPRESENTATION (  '', ( #100 ), #97 ) ;
#99 = PRESENTATION_LAYER_ASSIGNMENT (  '', '', ( #100 ) ) ;
#100 = STYLED_ITEM ( 'NONE', ( #101 ), #6 ) ;
#101 = PRESENTATION_STYLE_ASSIGNMENT (( #102 ) ) ;
#102 = SURFACE_STYLE_USAGE ( .BOTH. , #103 ) ;
#103 = SURFACE_SIDE_STYLE ('',( #104 ) ) ;
#104 = SURFACE_STYLE_FILL_AREA ( #105 ) ;
#105 = FILL_AREA_STYLE ('',( #206 ) ) ;
#106 = FILL_AREA_STYLE_COLOUR ( '', #169 ) ;
#107 = UNCERTAINTY_MEASURE_WITH_UNIT (LENGTH_MEASURE( 1.000000000000000100E-005 ), #204, 'distance_accuracy_value', 'NONE');
#108 =( NAMED_UNIT ( * ) SI_UNIT ( $, .STERADIAN. ) SOLID_ANGLE_UNIT ( ) );
#109 = DIRECTION ( 'NONE',  ( 1.000000000000000000, 0.0000000000000000000, 0.0000000000000000000 ) ) ;
#110 = DIRECTION ( 'NONE',  ( 3.543049380945720100E-016, -0.0000000000000000000, 1.000000000000000000 ) ) ;
#111 = CARTESIAN_POINT ( 'NONE',  ( 1.421085471520200400E-014, 0.0000000000000000000, 40.10910712006165800 ) ) ;
#112 = AXIS2_PLACEMENT_3D ( 'NONE', #195, #194, #193 ) ;
#113 = FACE_OUTER_BOUND ( 'NONE', #16, .T. ) ;
#114 = CARTESIAN_POINT ( 'NONE',  ( -0.1125935619456785000, 0.0000000000000000000, 40.08849950487152100 ) ) ;
#115 = CARTESIAN_POINT ( 'NONE',  ( -1.999999999999999600, 2.449293598294749800E-016, 0.3333333333333181600 ) ) ;
#116 = EDGE_CURVE ( 'NONE', #12, #55, #317, .T. ) ;
#117 = MECHANICAL_DESIGN_GEOMETRIC_PRESENTATION_REPRESENTATION (  '', ( #90 ), #207 ) ;
#118 = PRESENTATION_LAYER_ASSIGNMENT (  '', '', ( #90 ) ) ;
#119 = CARTESIAN_POINT ( 'NONE',  ( 0.1125935619457069100, 1.293590471768118900E-016, 40.08849950487152100 ) ) ;
#120 = UNCERTAINTY_MEASURE_WITH_UNIT (LENGTH_MEASURE( 1.000000000000000100E-005 ), #168, 'distance_accuracy_value', 'NONE');
#121 =( NAMED_UNIT ( * ) SI_UNIT ( $, .STERADIAN. ) SOLID_ANGLE_UNIT ( ) );
#122 = ORIENTED_EDGE ( 'NONE', *, *, #62, .T. ) ;
#123 = ORIENTED_EDGE ( 'NONE', *, *, #45, .F. ) ;
#124 = DIRECTION ( 'NONE',  ( 1.000000000000000000, 0.0000000000000000000, -3.543049380945720100E-016 ) ) ;
#125 = DIRECTION ( 'NONE',  ( 3.543049380945720100E-016, -0.0000000000000000000, 1.000000000000000000 ) ) ;
#126 = CYLINDRICAL_SURFACE ( 'NONE', #196, 2.000000000000057300 ) ;
#127 = FACE_OUTER_BOUND ( 'NONE', #76, .T. ) ;
#128 = CARTESIAN_POINT ( 'NONE',  ( 1.420304845956010800E-014, 0.0000000000000000000, 40.06910712006166600 ) ) ;
#129 =( GEOMETRIC_REPRESENTATION_CONTEXT ( 3 ) GLOBAL_UNCERTAINTY_ASSIGNED_CONTEXT ( ( #130 ) ) GLOBAL_UNIT_ASSIGNED_CONTEXT ( ( #133, #132, #131 ) ) REPRESENTATION_CONTEXT ( 'NONE', 'WORKASPACE' ) );
#130 = UNCERTAINTY_MEASURE_WITH_UNIT (LENGTH_MEASURE( 1.000000000000000100E-005 ), #133, 'distance_accuracy_value', 'NONE');
#131 =( NAMED_UNIT ( * ) SI_UNIT ( $, .STERADIAN. ) SOLID_ANGLE_UNIT ( ) );
#132 =( NAMED_UNIT ( * ) PLANE_ANGLE_UNIT ( ) SI_UNIT ( $, .RADIAN. ) );
#133 =( LENGTH_UNIT ( ) NAMED_UNIT ( * ) SI_UNIT ( .MILLI., .METRE. ) );
#134 = MECHANICAL_DESIGN_GEOMETRIC_PRESENTATION_REPRESENTATION (  '', ( #182 ), #129 ) ;
#135 = COLOUR_RGB ( '',1.000000000000000000, 0.0000000000000000000, 0.0000000000000000000 ) ;
#136 = CARTESIAN_POINT ( 'NONE',  ( -1.666666666666628800, 2.245185798436790800E-016, 5.905082301576066500E-016 ) ) ;
#137 = DIRECTION ( 'NONE',  ( 0.0000000000000000000, -1.000000000000000000, -0.0000000000000000000 ) ) ;
#138 = CIRCLE ( 'NONE', #145, 0.03999999999999837000 ) ;
#139 = CARTESIAN_POINT ( 'NONE',  ( 2.000000000000127500, 2.449293598294846900E-016, 36.68352815701462800 ) ) ;
#140 = CONICAL_SURFACE ( 'NONE', #214, 2.000000000000000000, 0.7853981633975288800 ) ;
#141 = CIRCLE ( 'NONE', #146, 1.666666666666628800 ) ;
#142 = DIRECTION ( 'NONE',  ( 1.000000000000000000, 0.0000000000000000000, -3.523657060577889400E-016 ) ) ;
#143 = DIRECTION ( 'NONE',  ( 3.543049380945720100E-016, -0.0000000000000000000, 1.000000000000000000 ) ) ;
#144 = CARTESIAN_POINT ( 'NONE',  ( 1.181016460315189400E-016, 0.0000000000000000000, 0.3333333333333174400 ) ) ;
#145 = AXIS2_PLACEMENT_3D ( 'NONE', #163, #137, #180 ) ;
#146 = AXIS2_PLACEMENT_3D ( 'NONE', #176, #175, #174 ) ;
#147 = CARTESIAN_POINT ( 'NONE',  ( 0.07760877366013117800, 0.0000000000000000000, 40.10910712006166500 ) ) ;
#148 = CONICAL_SURFACE ( 'NONE', #160, 2.000000000000000000, 0.7853981633975288800 ) ;
#149 = DIRECTION ( 'NONE',  ( 1.000000000000000000, 0.0000000000000000000, -3.543049380945720600E-016 ) ) ;
#150 = DIRECTION ( 'NONE',  ( 3.543049380945720100E-016, -0.0000000000000000000, 1.000000000000000000 ) ) ;
#151 = CARTESIAN_POINT ( 'NONE',  ( 0.0000000000000000000, 0.0000000000000000000, 0.0000000000000000000 ) ) ;
#152 = CIRCLE ( 'NONE', #213, 1.666666666666628800 ) ;
#153 = DIRECTION ( 'NONE',  ( 1.000000000000000000, 0.0000000000000000000, 0.0000000000000000000 ) ) ;
#154 = DIRECTION ( 'NONE',  ( 3.543049380945720100E-016, -0.0000000000000000000, 1.000000000000000000 ) ) ;
#155 = DIRECTION ( 'NONE',  ( -0.7071067811866043100, 8.659560562355630500E-017, 0.7071067811864907300 ) ) ;
#156 = VECTOR ( 'NONE', #155, 1000.000000000000000 ) ;
#157 = CARTESIAN_POINT ( 'NONE',  ( -2.000000000000000000, 2.449293598294706400E-016, 0.3333333333333181600 ) ) ;
#158 = LINE ( 'NONE', #157, #156 ) ;
#159 = CIRCLE ( 'NONE', #164, 0.1125935619456927000 ) ;
#160 = AXIS2_PLACEMENT_3D ( 'NONE', #144, #143, #142 ) ;
#161 = CARTESIAN_POINT ( 'NONE',  ( -0.07760877366010274200, 1.164653407450027300E-017, 40.10910712006166500 ) ) ;
#162 = CARTESIAN_POINT ( 'NONE',  ( 1.420355333537778300E-014, 0.0000000000000000000, 40.08849950487152100 ) ) ;
#163 = CARTESIAN_POINT ( 'NONE',  ( 0.07760877366013119200, 0.0000000000000000000, 40.06910712006166600 ) ) ;
#164 = AXIS2_PLACEMENT_3D ( 'NONE', #162, #154, #153 ) ;
#165 = DIRECTION ( 'NONE',  ( -1.000000000000000000, 1.224646799147353500E-016, 0.0000000000000000000 ) ) ;
#166 = DIRECTION ( 'NONE',  ( 1.224646799147353200E-016, 1.000000000000000000, -4.338984083596187400E-032 ) ) ;
#167 = CARTESIAN_POINT ( 'NONE',  ( -0.07760877366010278400, 9.504333624861368800E-018, 40.06910712006166600 ) ) ;
#168 =( LENGTH_UNIT ( ) NAMED_UNIT ( * ) SI_UNIT ( .MILLI., .METRE. ) );
#169 = COLOUR_RGB ( '',0.7921568627450980000, 0.8196078431372548800, 0.9333333333333333500 ) ;
#170 = SURFACE_SIDE_STYLE ('',( #171 ) ) ;
#171 = SURFACE_STYLE_FILL_AREA ( #93 ) ;
#172 =( NAMED_UNIT ( * ) PLANE_ANGLE_UNIT ( ) SI_UNIT ( $, .RADIAN. ) );
#173 = CARTESIAN_POINT ( 'NONE',  ( 1.666666666666628800, 0.0000000000000000000, -5.905082301576066500E-016 ) ) ;
#174 = DIRECTION ( 'NONE',  ( 1.000000000000000000, 0.0000000000000000000, -3.543049380945720600E-016 ) ) ;
#175 = DIRECTION ( 'NONE',  ( 3.543049380945720100E-016, -0.0000000000000000000, 1.000000000000000000 ) ) ;
#176 = CARTESIAN_POINT ( 'NONE',  ( 0.0000000000000000000, 0.0000000000000000000, 0.0000000000000000000 ) ) ;
#177 = FACE_OUTER_BOUND ( 'NONE', #21, .T. ) ;
#178 = LINE ( 'NONE', #197, #189 ) ;
#179 = FACE_OUTER_BOUND ( 'NONE', #33, .T. ) ;
#180 = DIRECTION ( 'NONE',  ( 0.0000000000000000000, 0.0000000000000000000, -1.000000000000000000 ) ) ;
#181 = PRESENTATION_LAYER_ASSIGNMENT (  '', '', ( #182 ) ) ;
#182 = STYLED_ITEM ( 'NONE', ( #183 ), #48 ) ;
#183 = PRESENTATION_STYLE_ASSIGNMENT (( #184 ) ) ;
#184 = SURFACE_STYLE_USAGE ( .BOTH. , #185 ) ;
#185 = SURFACE_SIDE_STYLE ('',( #186 ) ) ;
#186 = SURFACE_STYLE_FILL_AREA ( #187 ) ;
#187 = FILL_AREA_STYLE ('',( #190 ) ) ;
#188 = DIRECTION ( 'NONE',  ( 0.4848096202463393900, 5.937205496305238400E-017, -0.8746197071393944100 ) ) ;
#189 = VECTOR ( 'NONE', #188, 1000.000000000000100 ) ;
#190 = FILL_AREA_STYLE_COLOUR ( '', #191 ) ;
#191 = COLOUR_RGB ( '',1.000000000000000000, 0.0000000000000000000, 0.0000000000000000000 ) ;
#192 = TOROIDAL_SURFACE ( 'NONE', #198, 0.07760877366011699500, 0.03999999999999851600 ) ;
#193 = DIRECTION ( 'NONE',  ( 1.000000000000000000, 0.0000000000000000000, 0.0000000000000000000 ) ) ;
#194 = DIRECTION ( 'NONE',  ( 3.543049380945720100E-016, -0.0000000000000000000, 1.000000000000000000 ) ) ;
#195 = CARTESIAN_POINT ( 'NONE',  ( 1.421085471520200700E-014, 0.0000000000000000000, 40.10910712006166500 ) ) ;
#196 = AXIS2_PLACEMENT_3D ( 'NONE', #111, #110, #109 ) ;
#197 = CARTESIAN_POINT ( 'NONE',  ( 0.1125935619457069000, 1.378873452413917800E-017, 40.08849950487152100 ) ) ;
#198 = AXIS2_PLACEMENT_3D ( 'NONE', #128, #125, #124 ) ;
#199 = DIRECTION ( 'NONE',  ( 1.000000000000000000, 0.0000000000000000000, -3.523657060577889400E-016 ) ) ;
#200 = DIRECTION ( 'NONE',  ( 3.543049380945720100E-016, -0.0000000000000000000, 1.000000000000000000 ) ) ;
#201 = CARTESIAN_POINT ( 'NONE',  ( 1.181016460315189400E-016, 0.0000000000000000000, 0.3333333333333174400 ) ) ;
#202 = CIRCLE ( 'NONE', #112, 0.07760877366011696700 ) ;
#203 =( NAMED_UNIT ( * ) PLANE_ANGLE_UNIT ( ) SI_UNIT ( $, .RADIAN. ) );
#204 =( LENGTH_UNIT ( ) NAMED_UNIT ( * ) SI_UNIT ( .MILLI., .METRE. ) );
#205 = ORIENTED_EDGE ( 'NONE', *, *, #81, .F. ) ;
#206 = FILL_AREA_STYLE_COLOUR ( '', #135 ) ;
#207 =( GEOMETRIC_REPRESENTATION_CONTEXT ( 3 ) GLOBAL_UNCERTAINTY_ASSIGNED_CONTEXT ( ( #120 ) ) GLOBAL_UNIT_ASSIGNED_CONTEXT ( ( #168, #172, #121 ) ) REPRESENTATION_CONTEXT ( 'NONE', 'WORKASPACE' ) );
#208 = CARTESIAN_POINT ( 'NONE',  ( 1.420304845956010800E-014, 0.0000000000000000000, 40.06910712006166600 ) ) ;
#209 = CIRCLE ( 'NONE', #95, 0.03999999999999851600 ) ;
#210 = FACE_OUTER_BOUND ( 'NONE', #22, .T. ) ;
#211 = DIRECTION ( 'NONE',  ( 1.000000000000000000, 0.0000000000000000000, -3.543049380945720100E-016 ) ) ;
#212 = DIRECTION ( 'NONE',  ( 3.543049380945720100E-016, -0.0000000000000000000, 1.000000000000000000 ) ) ;
#213 = AXIS2_PLACEMENT_3D ( 'NONE', #151, #150, #149 ) ;
#214 = AXIS2_PLACEMENT_3D ( 'NONE', #201, #200, #199 ) ;
#215 = AXIS2_PLACEMENT_3D ( 'NONE', #367, #341, #357 ) ;
#216 = PLANE ( 'NONE',  #302 ) ;
#217 = DIRECTION ( 'NONE',  ( 1.000000000000000000, 0.0000000000000000000, 0.0000000000000000000 ) ) ;
#218 = DIRECTION ( 'NONE',  ( 3.543049380945720100E-016, -0.0000000000000000000, 1.000000000000000000 ) ) ;
#219 = CARTESIAN_POINT ( 'NONE',  ( 1.420355333537778300E-014, 0.0000000000000000000, 40.08849950487152100 ) ) ;
#220 = CARTESIAN_POINT ( 'NONE',  ( 1.999999999999999600, 0.0000000000000000000, 0.3333333333333167200 ) ) ;
#221 = CIRCLE ( 'NONE', #307, 0.1125935619456927000 ) ;
#222 = DIRECTION ( 'NONE',  ( 1.000000000000000000, 0.0000000000000000000, -3.523657060577890400E-016 ) ) ;
#223 = DIRECTION ( 'NONE',  ( 3.543049380945720100E-016, -0.0000000000000000000, 1.000000000000000000 ) ) ;
#224 = CARTESIAN_POINT ( 'NONE',  ( 1.181016460315189400E-016, 0.0000000000000000000, 0.3333333333333174400 ) ) ;
#225 = AXIS2_PLACEMENT_3D ( 'NONE', #224, #223, #222 ) ;
#226 = CARTESIAN_POINT ( 'NONE',  ( 1.666666666666628800, 0.0000000000000000000, -2.952541150788033200E-016 ) ) ;
#227 = CIRCLE ( 'NONE', #340, 2.000000000000115000 ) ;
#228 = DIRECTION ( 'NONE',  ( 1.000000000000000000, 0.0000000000000000000, 0.0000000000000000000 ) ) ;
#229 = DIRECTION ( 'NONE',  ( 3.543049380945720100E-016, -0.0000000000000000000, 1.000000000000000000 ) ) ;
#230 = CARTESIAN_POINT ( 'NONE',  ( 1.421085471520200700E-014, 0.0000000000000000000, 40.10910712006166500 ) ) ;
#231 = CIRCLE ( 'NONE', #306, 0.07760877366011696700 ) ;
#232 = CIRCLE ( 'NONE', #225, 1.999999999999999600 ) ;
#233 = MECHANICAL_DESIGN_GEOMETRIC_PRESENTATION_REPRESENTATION (  '', ( #235 ), #321 ) ;
#234 = PRESENTATION_LAYER_ASSIGNMENT (  '', '', ( #235 ) ) ;
#235 = STYLED_ITEM ( 'NONE', ( #236 ), #89 ) ;
#236 = PRESENTATION_STYLE_ASSIGNMENT (( #237 ) ) ;
#237 = SURFACE_STYLE_USAGE ( .BOTH. , #238 ) ;
#238 = SURFACE_SIDE_STYLE ('',( #239 ) ) ;
#239 = SURFACE_STYLE_FILL_AREA ( #240 ) ;
#240 = FILL_AREA_STYLE ('',( #343 ) ) ;
#241 = DIRECTION ( 'NONE',  ( -1.000000000000000000, 0.0000000000000000000, 0.0000000000000000000 ) ) ;
#242 = DIRECTION ( 'NONE',  ( -3.543049380945720100E-016, 0.0000000000000000000, -1.000000000000000000 ) ) ;
#243 = CARTESIAN_POINT ( 'NONE',  ( 1.420355333537778300E-014, 0.0000000000000000000, 40.08849950487152100 ) ) ;
#244 = CONICAL_SURFACE ( 'NONE', #361, 0.1125935619456927000, 0.5061454830783587200 ) ;
#245 = COLOUR_RGB ( '',1.000000000000000000, 0.0000000000000000000, 0.0000000000000000000 ) ;
#246 = FILL_AREA_STYLE_COLOUR ( '', #289 ) ;
#247 = PRODUCT_RELATED_PRODUCT_CATEGORY ( 'part', '', ( #253 ) ) ;
#248 = PRODUCT_DEFINITION_FORMATION_WITH_SPECIFIED_SOURCE ( 'ANY', '', #253, .NOT_KNOWN. ) ;
#249 = PRODUCT_DEFINITION ( 'UNKNOWN', '', #248, #250 ) ;
#250 = PRODUCT_DEFINITION_CONTEXT ( 'detailed design', #252, 'design' ) ;
#251 = APPLICATION_PROTOCOL_DEFINITION ( 'draft international standard', 'automotive_design', 1998, #252 ) ;
#252 = APPLICATION_CONTEXT ( 'automotive_design' ) ;
#253 = PRODUCT ( '99619-W060-04_W06004S102', '99619-W060-04_W06004S102', '', ( #254 ) ) ;
#254 = PRODUCT_CONTEXT ( 'NONE', #256, 'mechanical' ) ;
#255 = APPLICATION_PROTOCOL_DEFINITION ( 'draft international standard', 'automotive_design', 1998, #256 ) ;
#256 = APPLICATION_CONTEXT ( 'automotive_design' ) ;
#257 =( LENGTH_UNIT ( ) NAMED_UNIT ( * ) SI_UNIT ( .MILLI., .METRE. ) );
#258 = MECHANICAL_DESIGN_GEOMETRIC_PRESENTATION_REPRESENTATION (  '', ( #260 ), #308 ) ;
#259 = PRESENTATION_LAYER_ASSIGNMENT (  '', '', ( #260 ) ) ;
#260 = STYLED_ITEM ( 'NONE', ( #261 ), #54 ) ;
#261 = PRESENTATION_STYLE_ASSIGNMENT (( #262 ) ) ;
#262 = SURFACE_STYLE_USAGE ( .BOTH. , #263 ) ;
#263 = SURFACE_SIDE_STYLE ('',( #264 ) ) ;
#264 = SURFACE_STYLE_FILL_AREA ( #329 ) ;
#265 = LINE ( 'NONE', #297, #296 ) ;
#266 = FACE_OUTER_BOUND ( 'NONE', #79, .T. ) ;
#267 = CARTESIAN_POINT ( 'NONE',  ( -2.000000000000102100, 0.0000000000000000000, 36.68352815701462800 ) ) ;
#268 = DIRECTION ( 'NONE',  ( 1.000000000000000000, 0.0000000000000000000, -3.523657060577890400E-016 ) ) ;
#269 = DIRECTION ( 'NONE',  ( 3.543049380945720100E-016, -0.0000000000000000000, 1.000000000000000000 ) ) ;
#270 = CARTESIAN_POINT ( 'NONE',  ( 1.181016460315189400E-016, 0.0000000000000000000, 0.3333333333333174400 ) ) ;
#271 = AXIS2_PLACEMENT_3D ( 'NONE', #270, #269, #268 ) ;
#272 = AXIS2_PLACEMENT_3D ( 'NONE', #305, #304, #303 ) ;
#273 = FACE_OUTER_BOUND ( 'NONE', #78, .T. ) ;
#274 = FILL_AREA_STYLE_COLOUR ( '', #275 ) ;
#275 = COLOUR_RGB ( '',1.000000000000000000, 0.0000000000000000000, 0.0000000000000000000 ) ;
#276 = PLANE ( 'NONE',  #272 ) ;
#277 = CIRCLE ( 'NONE', #271, 1.999999999999999600 ) ;
#278 = UNCERTAINTY_MEASURE_WITH_UNIT (LENGTH_MEASURE( 1.000000000000000100E-005 ), #281, 'distance_accuracy_value', 'NONE');
#279 =( NAMED_UNIT ( * ) SI_UNIT ( $, .STERADIAN. ) SOLID_ANGLE_UNIT ( ) );
#280 =( NAMED_UNIT ( * ) PLANE_ANGLE_UNIT ( ) SI_UNIT ( $, .RADIAN. ) );
#281 =( LENGTH_UNIT ( ) NAMED_UNIT ( * ) SI_UNIT ( .MILLI., .METRE. ) );
#282 = MECHANICAL_DESIGN_GEOMETRIC_PRESENTATION_REPRESENTATION (  '', ( #284 ), #328 ) ;
#283 = PRESENTATION_LAYER_ASSIGNMENT (  '', '', ( #284 ) ) ;
#284 = STYLED_ITEM ( 'NONE', ( #285 ), #290 ) ;
#285 = PRESENTATION_STYLE_ASSIGNMENT (( #286 ) ) ;
#286 = SURFACE_STYLE_USAGE ( .BOTH. , #287 ) ;
#287 = SURFACE_SIDE_STYLE ('',( #288 ) ) ;
#288 = SURFACE_STYLE_FILL_AREA ( #313 ) ;
#289 = COLOUR_RGB ( '',0.7921568627450980000, 0.8196078431372548800, 0.9333333333333333500 ) ;
#290 = ADVANCED_BREP_SHAPE_REPRESENTATION ( '99619-W060-04_W06004S102', ( #3, #327 ), #291 ) ;
#291 =( GEOMETRIC_REPRESENTATION_CONTEXT ( 3 ) GLOBAL_UNCERTAINTY_ASSIGNED_CONTEXT ( ( #292 ) ) GLOBAL_UNIT_ASSIGNED_CONTEXT ( ( #312, #294, #293 ) ) REPRESENTATION_CONTEXT ( 'NONE', 'WORKASPACE' ) );
#292 = UNCERTAINTY_MEASURE_WITH_UNIT (LENGTH_MEASURE( 1.000000000000000100E-005 ), #312, 'distance_accuracy_value', 'NONE');
#293 =( NAMED_UNIT ( * ) SI_UNIT ( $, .STERADIAN. ) SOLID_ANGLE_UNIT ( ) );
#294 =( NAMED_UNIT ( * ) PLANE_ANGLE_UNIT ( ) SI_UNIT ( $, .RADIAN. ) );
#295 = DIRECTION ( 'NONE',  ( -0.4848096202463401100, 0.0000000000000000000, -0.8746197071393940800 ) ) ;
#296 = VECTOR ( 'NONE', #295, 1000.000000000000000 ) ;
#297 = CARTESIAN_POINT ( 'NONE',  ( -0.1125935619456784900, 0.0000000000000000000, 40.08849950487152100 ) ) ;
#298 = DIRECTION ( 'NONE',  ( 0.7071067811866047500, 0.0000000000000000000, 0.7071067811864902900 ) ) ;
#299 = VECTOR ( 'NONE', #298, 1000.000000000000000 ) ;
#300 = CARTESIAN_POINT ( 'NONE',  ( 2.000000000000000000, 0.0000000000000000000, 0.3333333333333167200 ) ) ;
#301 = LINE ( 'NONE', #300, #299 ) ;
#302 = AXIS2_PLACEMENT_3D ( 'NONE', #226, #332, #331 ) ;
#303 = DIRECTION ( 'NONE',  ( 1.000000000000000000, 0.0000000000000000000, -3.543049380945720100E-016 ) ) ;
#304 = DIRECTION ( 'NONE',  ( 3.543049380945720100E-016, -0.0000000000000000000, 1.000000000000000000 ) ) ;
#305 = CARTESIAN_POINT ( 'NONE',  ( 0.07760877366013117800, 0.0000000000000000000, 40.10910712006165800 ) ) ;
#306 = AXIS2_PLACEMENT_3D ( 'NONE', #230, #229, #228 ) ;
#307 = AXIS2_PLACEMENT_3D ( 'NONE', #219, #218, #217 ) ;
#308 =( GEOMETRIC_REPRESENTATION_CONTEXT ( 3 ) GLOBAL_UNCERTAINTY_ASSIGNED_CONTEXT ( ( #309 ) ) GLOBAL_UNIT_ASSIGNED_CONTEXT ( ( #257, #311, #310 ) ) REPRESENTATION_CONTEXT ( 'NONE', 'WORKASPACE' ) );
#309 = UNCERTAINTY_MEASURE_WITH_UNIT (LENGTH_MEASURE( 1.000000000000000100E-005 ), #257, 'distance_accuracy_value', 'NONE');
#310 =( NAMED_UNIT ( * ) SI_UNIT ( $, .STERADIAN. ) SOLID_ANGLE_UNIT ( ) );
#311 =( NAMED_UNIT ( * ) PLANE_ANGLE_UNIT ( ) SI_UNIT ( $, .RADIAN. ) );
#312 =( LENGTH_UNIT ( ) NAMED_UNIT ( * ) SI_UNIT ( .MILLI., .METRE. ) );
#313 = FILL_AREA_STYLE ('',( #246 ) ) ;
#314 = DIRECTION ( 'NONE',  ( 3.543049380945720100E-016, -0.0000000000000000000, 1.000000000000000000 ) ) ;
#315 = VECTOR ( 'NONE', #314, 1000.000000000000000 ) ;
#316 = CARTESIAN_POINT ( 'NONE',  ( -2.000000000000043100, 2.449293598294776400E-016, 40.10910712006165800 ) ) ;
#317 = LINE ( 'NONE', #316, #315 ) ;
#318 = DIRECTION ( 'NONE',  ( -1.000000000000000000, 0.0000000000000000000, 0.0000000000000000000 ) ) ;
#319 = CARTESIAN_POINT ( 'NONE',  ( 0.0000000000000000000, 0.0000000000000000000, 0.0000000000000000000 ) ) ;
#320 = DIRECTION ( 'NONE',  ( -3.543049380945720100E-016, 0.0000000000000000000, -1.000000000000000000 ) ) ;
#321 =( GEOMETRIC_REPRESENTATION_CONTEXT ( 3 ) GLOBAL_UNCERTAINTY_ASSIGNED_CONTEXT ( ( #322 ) ) GLOBAL_UNIT_ASSIGNED_CONTEXT ( ( #325, #324, #323 ) ) REPRESENTATION_CONTEXT ( 'NONE', 'WORKASPACE' ) );
#322 = UNCERTAINTY_MEASURE_WITH_UNIT (LENGTH_MEASURE( 1.000000000000000100E-005 ), #325, 'distance_accuracy_value', 'NONE');
#323 =( NAMED_UNIT ( * ) SI_UNIT ( $, .STERADIAN. ) SOLID_ANGLE_UNIT ( ) );
#324 =( NAMED_UNIT ( * ) PLANE_ANGLE_UNIT ( ) SI_UNIT ( $, .RADIAN. ) );
#325 =( LENGTH_UNIT ( ) NAMED_UNIT ( * ) SI_UNIT ( .MILLI., .METRE. ) );
#326 = DIRECTION ( 'NONE',  ( 1.000000000000000000, 0.0000000000000000000, 0.0000000000000000000 ) ) ;
#327 = AXIS2_PLACEMENT_3D ( 'NONE', #319, #330, #326 ) ;
#328 =( GEOMETRIC_REPRESENTATION_CONTEXT ( 3 ) GLOBAL_UNCERTAINTY_ASSIGNED_CONTEXT ( ( #278 ) ) GLOBAL_UNIT_ASSIGNED_CONTEXT ( ( #281, #280, #279 ) ) REPRESENTATION_CONTEXT ( 'NONE', 'WORKASPACE' ) );
#329 = FILL_AREA_STYLE ('',( #274 ) ) ;
#330 = DIRECTION ( 'NONE',  ( 0.0000000000000000000, 0.0000000000000000000, 1.000000000000000000 ) ) ;
#331 = DIRECTION ( 'NONE',  ( -1.000000000000000000, 0.0000000000000000000, 3.543049380945720100E-016 ) ) ;
#332 = DIRECTION ( 'NONE',  ( -3.543049380945720100E-016, 0.0000000000000000000, -1.000000000000000000 ) ) ;
#333 = CYLINDRICAL_SURFACE ( 'NONE', #215, 2.000000000000057300 ) ;
#334 = FACE_OUTER_BOUND ( 'NONE', #65, .T. ) ;
#335 = CARTESIAN_POINT ( 'NONE',  ( 2.000000000000071500, 0.0000000000000000000, 40.10910712006165800 ) ) ;
#336 = LINE ( 'NONE', #335, #366 ) ;
#337 = DIRECTION ( 'NONE',  ( 1.000000000000000000, 0.0000000000000000000, 0.0000000000000000000 ) ) ;
#338 = DIRECTION ( 'NONE',  ( 3.543049380945720100E-016, -0.0000000000000000000, 1.000000000000000000 ) ) ;
#339 = CARTESIAN_POINT ( 'NONE',  ( 1.299715517276155700E-014, 0.0000000000000000000, 36.68352815701462800 ) ) ;
#340 = AXIS2_PLACEMENT_3D ( 'NONE', #339, #338, #337 ) ;
#341 = DIRECTION ( 'NONE',  ( 3.543049380945720100E-016, -0.0000000000000000000, 1.000000000000000000 ) ) ;
#342 = CONICAL_SURFACE ( 'NONE', #360, 0.1125935619456927000, 0.5061454830783587200 ) ;
#343 = FILL_AREA_STYLE_COLOUR ( '', #245 ) ;
#344 =( GEOMETRIC_REPRESENTATION_CONTEXT ( 3 ) GLOBAL_UNCERTAINTY_ASSIGNED_CONTEXT ( ( #345 ) ) GLOBAL_UNIT_ASSIGNED_CONTEXT ( ( #348, #347, #346 ) ) REPRESENTATION_CONTEXT ( 'NONE', 'WORKASPACE' ) );
#345 = UNCERTAINTY_MEASURE_WITH_UNIT (LENGTH_MEASURE( 1.000000000000000100E-005 ), #348, 'distance_accuracy_value', 'NONE');
#346 =( NAMED_UNIT ( * ) SI_UNIT ( $, .STERADIAN. ) SOLID_ANGLE_UNIT ( ) );
#347 =( NAMED_UNIT ( * ) PLANE_ANGLE_UNIT ( ) SI_UNIT ( $, .RADIAN. ) );
#348 =( LENGTH_UNIT ( ) NAMED_UNIT ( * ) SI_UNIT ( .MILLI., .METRE. ) );
#349 = MECHANICAL_DESIGN_GEOMETRIC_PRESENTATION_REPRESENTATION (  '', ( #351 ), #344 ) ;
#350 = PRESENTATION_LAYER_ASSIGNMENT (  '', '', ( #351 ) ) ;
#351 = STYLED_ITEM ( 'NONE', ( #352 ), #88 ) ;
#352 = PRESENTATION_STYLE_ASSIGNMENT (( #353 ) ) ;
#353 = SURFACE_STYLE_USAGE ( .BOTH. , #354 ) ;
#354 = SURFACE_SIDE_STYLE ('',( #355 ) ) ;
#355 = SURFACE_STYLE_FILL_AREA ( #356 ) ;
#356 = FILL_AREA_STYLE ('',( #364 ) ) ;
#357 = DIRECTION ( 'NONE',  ( 1.000000000000000000, 0.0000000000000000000, 0.0000000000000000000 ) ) ;
#358 = CARTESIAN_POINT ( 'NONE',  ( 1.420355333537778300E-014, 0.0000000000000000000, 40.08849950487152100 ) ) ;
#359 = FACE_OUTER_BOUND ( 'NONE', #56, .T. ) ;
#360 = AXIS2_PLACEMENT_3D ( 'NONE', #243, #242, #241 ) ;
#361 = AXIS2_PLACEMENT_3D ( 'NONE', #358, #320, #318 ) ;
#362 = COLOUR_RGB ( '',1.000000000000000000, 0.0000000000000000000, 0.0000000000000000000 ) ;
#363 = FACE_OUTER_BOUND ( 'NONE', #64, .T. ) ;
#364 = FILL_AREA_STYLE_COLOUR ( '', #362 ) ;
#365 = DIRECTION ( 'NONE',  ( 3.543049380945720100E-016, -0.0000000000000000000, 1.000000000000000000 ) ) ;
#366 = VECTOR ( 'NONE', #365, 1000.000000000000000 ) ;
#367 = CARTESIAN_POINT ( 'NONE',  ( 1.421085471520200400E-014, 0.0000000000000000000, 40.10910712006165800 ) ) ;
ENDSEC;
END-ISO-10303-21;
