ISO-10303-21;
HEADER;
FILE_DESCRIPTION (( 'STEP AP214' ),
    '1' );
FILE_NAME ('99619-W060-04_W06004S101.STEP',
    '2017-03-06T07:21:29',
    ( 'User' ),
    ( 'GENUINE' ),
    'SwSTEP 2.0',
    'SolidWorks 2012',
    '' );
FILE_SCHEMA (( 'AUTOMOTIVE_DESIGN' ));
ENDSEC;

DATA;
#1 = EDGE_CURVE ( 'NONE', #16, #3, #10, .T. ) ;
#2 = ORIENTED_EDGE ( 'NONE', *, *, #4, .T. ) ;
#3 = VERTEX_POINT ( 'NONE', #102 ) ;
#4 = EDGE_CURVE ( 'NONE', #77, #3, #8, .T. ) ;
#5 = EDGE_CURVE ( 'NONE', #75, #77, #116, .T. ) ;
#6 = EDGE_LOOP ( 'NONE', ( #78, #2, #7, #76 ) ) ;
#7 = ORIENTED_EDGE ( 'NONE', *, *, #1, .F. ) ;
#8 = LINE ( 'NONE', #65, #51 ) ;
#9 = MANIFOLD_SOLID_BREP ( '±ÛÂà1', #97 ) ;
#10 = CIRCLE ( 'NONE', #61, 2.000000000000121200 ) ;
#11 = ORIENTED_EDGE ( 'NONE', *, *, #43, .F. ) ;
#12 = ORIENTED_EDGE ( 'NONE', *, *, #19, .T. ) ;
#13 = ADVANCED_FACE ( 'NONE', ( #121 ), #231, .T. ) ;
#14 = ADVANCED_FACE ( 'NONE', ( #180 ), #122, .T. ) ;
#15 = EDGE_CURVE ( 'NONE', #70, #3, #190, .T. ) ;
#16 = VERTEX_POINT ( 'NONE', #191 ) ;
#17 = ORIENTED_EDGE ( 'NONE', *, *, #33, .T. ) ;
#18 = ORIENTED_EDGE ( 'NONE', *, *, #47, .T. ) ;
#19 = EDGE_CURVE ( 'NONE', #71, #21, #213, .T. ) ;
#20 = EDGE_LOOP ( 'NONE', ( #18, #34, #29, #41 ) ) ;
#21 = VERTEX_POINT ( 'NONE', #242 ) ;
#22 = ORIENTED_EDGE ( 'NONE', *, *, #48, .T. ) ;
#23 = ORIENTED_EDGE ( 'NONE', *, *, #19, .F. ) ;
#24 = VERTEX_POINT ( 'NONE', #193 ) ;
#25 = ORIENTED_EDGE ( 'NONE', *, *, #33, .F. ) ;
#26 = ADVANCED_FACE ( 'NONE', ( #133 ), #202, .T. ) ;
#27 = EDGE_LOOP ( 'NONE', ( #50, #38, #36, #44 ) ) ;
#28 = EDGE_CURVE ( 'NONE', #77, #75, #211, .T. ) ;
#29 = ORIENTED_EDGE ( 'NONE', *, *, #5, .F. ) ;
#30 = ADVANCED_FACE ( 'NONE', ( #158 ), #207, .T. ) ;
#31 = EDGE_CURVE ( 'NONE', #70, #24, #176, .T. ) ;
#32 = VERTEX_POINT ( 'NONE', #177 ) ;
#33 = EDGE_CURVE ( 'NONE', #21, #24, #129, .T. ) ;
#34 = ORIENTED_EDGE ( 'NONE', *, *, #42, .T. ) ;
#35 = EDGE_LOOP ( 'NONE', ( #46, #89, #12, #45 ) ) ;
#36 = ORIENTED_EDGE ( 'NONE', *, *, #37, .T. ) ;
#37 = EDGE_CURVE ( 'NONE', #39, #75, #178, .T. ) ;
#38 = ORIENTED_EDGE ( 'NONE', *, *, #43, .T. ) ;
#39 = VERTEX_POINT ( 'NONE', #188 ) ;
#40 = ADVANCED_FACE ( 'NONE', ( #162 ), #135, .T. ) ;
#41 = ORIENTED_EDGE ( 'NONE', *, *, #37, .F. ) ;
#42 = EDGE_CURVE ( 'NONE', #32, #77, #149, .T. ) ;
#43 = EDGE_CURVE ( 'NONE', #32, #39, #134, .T. ) ;
#44 = ORIENTED_EDGE ( 'NONE', *, *, #28, .F. ) ;
#45 = ORIENTED_EDGE ( 'NONE', *, *, #48, .F. ) ;
#46 = ORIENTED_EDGE ( 'NONE', *, *, #31, .F. ) ;
#47 = EDGE_CURVE ( 'NONE', #39, #32, #240, .T. ) ;
#48 = EDGE_CURVE ( 'NONE', #24, #21, #229, .T. ) ;
#49 = EDGE_LOOP ( 'NONE', ( #17, #22 ) ) ;
#50 = ORIENTED_EDGE ( 'NONE', *, *, #42, .F. ) ;
#51 = VECTOR ( 'NONE', #66, 1000.000000000000000 ) ;
#52 = ADVANCED_FACE ( 'NONE', ( #241 ), #255, .T. ) ;
#53 = EDGE_CURVE ( 'NONE', #70, #71, #310, .T. ) ;
#54 = ORIENTED_EDGE ( 'NONE', *, *, #31, .T. ) ;
#55 = ADVANCED_FACE ( 'NONE', ( #311 ), #251, .T. ) ;
#56 = EDGE_CURVE ( 'NONE', #75, #16, #296, .T. ) ;
#57 = ADVANCED_FACE ( 'NONE', ( #254 ), #282, .T. ) ;
#58 = ORIENTED_EDGE ( 'NONE', *, *, #47, .F. ) ;
#59 = ORIENTED_EDGE ( 'NONE', *, *, #68, .T. ) ;
#60 = CARTESIAN_POINT ( 'NONE',  ( 0.0000000000000000000, 0.0000000000000000000, 36.65258817692023300 ) ) ;
#61 = AXIS2_PLACEMENT_3D ( 'NONE', #60, #90, #99 ) ;
#62 = STYLED_ITEM ( 'NONE', ( #109 ), #9 ) ;
#63 = ORIENTED_EDGE ( 'NONE', *, *, #15, .F. ) ;
#64 = EDGE_LOOP ( 'NONE', ( #59, #54, #25, #23 ) ) ;
#65 = CARTESIAN_POINT ( 'NONE',  ( -2.000000000000064400, 2.449293598294785300E-016, 40.16465667720738300 ) ) ;
#66 = DIRECTION ( 'NONE',  ( -0.0000000000000000000, -0.0000000000000000000, 1.000000000000000000 ) ) ;
#67 =( NAMED_UNIT ( * ) SI_UNIT ( $, .STERADIAN. ) SOLID_ANGLE_UNIT ( ) );
#68 = EDGE_CURVE ( 'NONE', #71, #70, #298, .T. ) ;
#69 = ORIENTED_EDGE ( 'NONE', *, *, #79, .T. ) ;
#70 = VERTEX_POINT ( 'NONE', #349 ) ;
#71 = VERTEX_POINT ( 'NONE', #314 ) ;
#72 = EDGE_LOOP ( 'NONE', ( #58, #11 ) ) ;
#73 = EDGE_LOOP ( 'NONE', ( #74, #69, #80, #63 ) ) ;
#74 = ORIENTED_EDGE ( 'NONE', *, *, #68, .F. ) ;
#75 = VERTEX_POINT ( 'NONE', #273 ) ;
#76 = ORIENTED_EDGE ( 'NONE', *, *, #56, .F. ) ;
#77 = VERTEX_POINT ( 'NONE', #278 ) ;
#78 = ORIENTED_EDGE ( 'NONE', *, *, #5, .T. ) ;
#79 = EDGE_CURVE ( 'NONE', #71, #16, #301, .T. ) ;
#80 = ORIENTED_EDGE ( 'NONE', *, *, #1, .T. ) ;
#81 = ADVANCED_FACE ( 'NONE', ( #262 ), #293, .T. ) ;
#82 = ORIENTED_EDGE ( 'NONE', *, *, #79, .F. ) ;
#83 = EDGE_LOOP ( 'NONE', ( #82, #88, #85, #94 ) ) ;
#84 = ORIENTED_EDGE ( 'NONE', *, *, #4, .F. ) ;
#85 = ORIENTED_EDGE ( 'NONE', *, *, #15, .T. ) ;
#86 = EDGE_CURVE ( 'NONE', #3, #16, #327, .T. ) ;
#87 = ORIENTED_EDGE ( 'NONE', *, *, #56, .T. ) ;
#88 = ORIENTED_EDGE ( 'NONE', *, *, #53, .F. ) ;
#89 = ORIENTED_EDGE ( 'NONE', *, *, #53, .T. ) ;
#90 = DIRECTION ( 'NONE',  ( -0.0000000000000000000, -0.0000000000000000000, 1.000000000000000000 ) ) ;
#91 =( LENGTH_UNIT ( ) NAMED_UNIT ( * ) SI_UNIT ( .MILLI., .METRE. ) );
#92 = MECHANICAL_DESIGN_GEOMETRIC_PRESENTATION_REPRESENTATION (  '', ( #62 ), #217 ) ;
#93 = UNCERTAINTY_MEASURE_WITH_UNIT (LENGTH_MEASURE( 1.000000000000000100E-005 ), #331, 'distance_accuracy_value', 'NONE');
#94 = ORIENTED_EDGE ( 'NONE', *, *, #86, .T. ) ;
#95 = ORIENTED_EDGE ( 'NONE', *, *, #86, .F. ) ;
#96 = EDGE_LOOP ( 'NONE', ( #84, #100, #87, #95 ) ) ;
#97 = CLOSED_SHELL ( 'NONE', ( #14, #57, #13, #26, #40, #55, #30, #52, #81, #101 ) ) ;
#98 = PRESENTATION_LAYER_ASSIGNMENT (  '', '', ( #62 ) ) ;
#99 = DIRECTION ( 'NONE',  ( 1.000000000000000000, 0.0000000000000000000, 0.0000000000000000000 ) ) ;
#100 = ORIENTED_EDGE ( 'NONE', *, *, #28, .T. ) ;
#101 = ADVANCED_FACE ( 'NONE', ( #291 ), #258, .T. ) ;
#102 = CARTESIAN_POINT ( 'NONE',  ( -2.000000000000121200, 0.0000000000000000000, 36.65258817692023300 ) ) ;
#103 = MECHANICAL_DESIGN_GEOMETRIC_PRESENTATION_REPRESENTATION (  '', ( #221 ), #317 ) ;
#104 = FILL_AREA_STYLE ('',( #106 ) ) ;
#105 = SURFACE_STYLE_FILL_AREA ( #104 ) ;
#106 = FILL_AREA_STYLE_COLOUR ( '', #108 ) ;
#107 =( LENGTH_UNIT ( ) NAMED_UNIT ( * ) SI_UNIT ( .MILLI., .METRE. ) );
#108 = COLOUR_RGB ( '',0.7921568627450980000, 0.8196078431372548800, 0.9333333333333333500 ) ;
#109 = PRESENTATION_STYLE_ASSIGNMENT (( #110 ) ) ;
#110 = SURFACE_STYLE_USAGE ( .BOTH. , #111 ) ;
#111 = SURFACE_SIDE_STYLE ('',( #105 ) ) ;
#112 = DIRECTION ( 'NONE',  ( 1.000000000000000000, 0.0000000000000000000, 0.0000000000000000000 ) ) ;
#113 = DIRECTION ( 'NONE',  ( -0.0000000000000000000, -0.0000000000000000000, 1.000000000000000000 ) ) ;
#114 = CARTESIAN_POINT ( 'NONE',  ( 0.0000000000000000000, 0.0000000000000000000, 0.3333333333333174400 ) ) ;
#115 = AXIS2_PLACEMENT_3D ( 'NONE', #114, #113, #112 ) ;
#116 = CIRCLE ( 'NONE', #115, 2.000000000000007100 ) ;
#117 =( NAMED_UNIT ( * ) PLANE_ANGLE_UNIT ( ) SI_UNIT ( $, .RADIAN. ) );
#118 =( NAMED_UNIT ( * ) PLANE_ANGLE_UNIT ( ) SI_UNIT ( $, .RADIAN. ) );
#119 = PRESENTATION_STYLE_ASSIGNMENT (( #120 ) ) ;
#120 = SURFACE_STYLE_USAGE ( .BOTH. , #131 ) ;
#121 = FACE_OUTER_BOUND ( 'NONE', #64, .T. ) ;
#122 = CYLINDRICAL_SURFACE ( 'NONE', #232, 2.000000000000064400 ) ;
#123 = PRESENTATION_LAYER_ASSIGNMENT (  '', '', ( #124 ) ) ;
#124 = STYLED_ITEM ( 'NONE', ( #119 ), #13 ) ;
#125 = DIRECTION ( 'NONE',  ( 1.000000000000000000, 0.0000000000000000000, 0.0000000000000000000 ) ) ;
#126 = DIRECTION ( 'NONE',  ( -0.0000000000000000000, -0.0000000000000000000, 1.000000000000000000 ) ) ;
#127 = CARTESIAN_POINT ( 'NONE',  ( 0.0000000000000000000, 0.0000000000000000000, 40.16465667720739000 ) ) ;
#128 = CARTESIAN_POINT ( 'NONE',  ( 2.000000000000007100, 0.0000000000000000000, 0.3333333333333174400 ) ) ;
#129 = CIRCLE ( 'NONE', #203, 0.04144774064038613700 ) ;
#130 = DIRECTION ( 'NONE',  ( -0.0000000000000000000, -0.0000000000000000000, 1.000000000000000000 ) ) ;
#131 = SURFACE_SIDE_STYLE ('',( #132 ) ) ;
#132 = SURFACE_STYLE_FILL_AREA ( #218 ) ;
#133 = FACE_OUTER_BOUND ( 'NONE', #20, .T. ) ;
#134 = CIRCLE ( 'NONE', #136, 1.666666666666635900 ) ;
#135 = CONICAL_SURFACE ( 'NONE', #139, 2.000000000000007100, 0.7853981633975286600 ) ;
#136 = AXIS2_PLACEMENT_3D ( 'NONE', #187, #151, #150 ) ;
#137 = DIRECTION ( 'NONE',  ( 0.7071067811866043100, 0.0000000000000000000, 0.7071067811864907300 ) ) ;
#138 = VECTOR ( 'NONE', #137, 1000.000000000000000 ) ;
#139 = AXIS2_PLACEMENT_3D ( 'NONE', #147, #146, #145 ) ;
#140 =( LENGTH_UNIT ( ) NAMED_UNIT ( * ) SI_UNIT ( .MILLI., .METRE. ) );
#141 = MECHANICAL_DESIGN_GEOMETRIC_PRESENTATION_REPRESENTATION (  '', ( #143 ), #195 ) ;
#142 = PRESENTATION_LAYER_ASSIGNMENT (  '', '', ( #143 ) ) ;
#143 = STYLED_ITEM ( 'NONE', ( #182 ), #30 ) ;
#144 = AXIS2_PLACEMENT_3D ( 'NONE', #228, #227, #226 ) ;
#145 = DIRECTION ( 'NONE',  ( 1.000000000000000000, 0.0000000000000000000, 0.0000000000000000000 ) ) ;
#146 = DIRECTION ( 'NONE',  ( -0.0000000000000000000, -0.0000000000000000000, 1.000000000000000000 ) ) ;
#147 = CARTESIAN_POINT ( 'NONE',  ( 0.0000000000000000000, 0.0000000000000000000, 0.3333333333333174400 ) ) ;
#148 = CARTESIAN_POINT ( 'NONE',  ( -2.000000000000007100, 2.449293598294714800E-016, 0.3333333333333174400 ) ) ;
#149 = LINE ( 'NONE', #148, #155 ) ;
#150 = DIRECTION ( 'NONE',  ( 1.000000000000000000, 0.0000000000000000000, 0.0000000000000000000 ) ) ;
#151 = DIRECTION ( 'NONE',  ( -0.0000000000000000000, -0.0000000000000000000, 1.000000000000000000 ) ) ;
#152 = FILL_AREA_STYLE ('',( #153 ) ) ;
#153 = FILL_AREA_STYLE_COLOUR ( '', #230 ) ;
#154 = DIRECTION ( 'NONE',  ( -0.7071067811866043100, 8.659560562355628000E-017, 0.7071067811864907300 ) ) ;
#155 = VECTOR ( 'NONE', #154, 1000.000000000000000 ) ;
#156 = COLOUR_RGB ( '',1.000000000000000000, 0.0000000000000000000, 0.0000000000000000000 ) ;
#157 = CARTESIAN_POINT ( 'NONE',  ( 0.0000000000000000000, 0.0000000000000000000, 40.14465667720738700 ) ) ;
#158 = FACE_OUTER_BOUND ( 'NONE', #49, .T. ) ;
#159 = DIRECTION ( 'NONE',  ( 1.000000000000000000, 0.0000000000000000000, 0.0000000000000000000 ) ) ;
#160 = DIRECTION ( 'NONE',  ( -0.0000000000000000000, -0.0000000000000000000, 1.000000000000000000 ) ) ;
#161 = CARTESIAN_POINT ( 'NONE',  ( 0.0000000000000000000, 0.0000000000000000000, 0.3333333333333174400 ) ) ;
#162 = FACE_OUTER_BOUND ( 'NONE', #27, .T. ) ;
#163 = DIRECTION ( 'NONE',  ( 0.0000000000000000000, -1.000000000000000000, 0.0000000000000000000 ) ) ;
#164 = CARTESIAN_POINT ( 'NONE',  ( 0.04144774064038614400, 0.0000000000000000000, 40.14465667720738700 ) ) ;
#165 = AXIS2_PLACEMENT_3D ( 'NONE', #164, #163, #206 ) ;
#166 = AXIS2_PLACEMENT_3D ( 'NONE', #210, #209, #208 ) ;
#167 = DIRECTION ( 'NONE',  ( -0.4848096202463380600, 0.0000000000000000000, -0.8746197071393953000 ) ) ;
#168 = VECTOR ( 'NONE', #167, 999.9999999999998900 ) ;
#169 = MECHANICAL_DESIGN_GEOMETRIC_PRESENTATION_REPRESENTATION (  '', ( #124 ), #181 ) ;
#170 =( NAMED_UNIT ( * ) PLANE_ANGLE_UNIT ( ) SI_UNIT ( $, .RADIAN. ) );
#171 = AXIS2_PLACEMENT_3D ( 'NONE', #216, #215, #179 ) ;
#172 = DIRECTION ( 'NONE',  ( -1.000000000000000000, 1.224646799147353200E-016, 0.0000000000000000000 ) ) ;
#173 = DIRECTION ( 'NONE',  ( 1.224646799147353200E-016, 1.000000000000000000, 0.0000000000000000000 ) ) ;
#174 = CARTESIAN_POINT ( 'NONE',  ( -0.04144774064038614400, 5.075884290713856000E-018, 40.14465667720738700 ) ) ;
#175 = AXIS2_PLACEMENT_3D ( 'NONE', #174, #173, #172 ) ;
#176 = CIRCLE ( 'NONE', #175, 0.01999999999999840400 ) ;
#177 = CARTESIAN_POINT ( 'NONE',  ( -1.666666666666635900, 2.245185798436799700E-016, 0.0000000000000000000 ) ) ;
#178 = LINE ( 'NONE', #128, #138 ) ;
#179 = DIRECTION ( 'NONE',  ( 1.000000000000000000, 0.0000000000000000000, 0.0000000000000000000 ) ) ;
#180 = FACE_OUTER_BOUND ( 'NONE', #6, .T. ) ;
#181 =( GEOMETRIC_REPRESENTATION_CONTEXT ( 3 ) GLOBAL_UNCERTAINTY_ASSIGNED_CONTEXT ( ( #199 ) ) GLOBAL_UNIT_ASSIGNED_CONTEXT ( ( #192, #170, #200 ) ) REPRESENTATION_CONTEXT ( 'NONE', 'WORKASPACE' ) );
#182 = PRESENTATION_STYLE_ASSIGNMENT (( #183 ) ) ;
#183 = SURFACE_STYLE_USAGE ( .BOTH. , #184 ) ;
#184 = SURFACE_SIDE_STYLE ('',( #185 ) ) ;
#185 = SURFACE_STYLE_FILL_AREA ( #186 ) ;
#186 = FILL_AREA_STYLE ('',( #194 ) ) ;
#187 = CARTESIAN_POINT ( 'NONE',  ( 0.0000000000000000000, 0.0000000000000000000, 0.0000000000000000000 ) ) ;
#188 = CARTESIAN_POINT ( 'NONE',  ( 1.666666666666635900, 0.0000000000000000000, 0.0000000000000000000 ) ) ;
#189 = CARTESIAN_POINT ( 'NONE',  ( -0.05894013478317488400, 0.0000000000000000000, 40.15435286961231000 ) ) ;
#190 = LINE ( 'NONE', #189, #168 ) ;
#191 = CARTESIAN_POINT ( 'NONE',  ( 2.000000000000121200, 2.449293598294854800E-016, 36.65258817692023300 ) ) ;
#192 =( LENGTH_UNIT ( ) NAMED_UNIT ( * ) SI_UNIT ( .MILLI., .METRE. ) );
#193 = CARTESIAN_POINT ( 'NONE',  ( -0.04144774064038613700, 6.146984515533364100E-018, 40.16465667720739000 ) ) ;
#194 = FILL_AREA_STYLE_COLOUR ( '', #205 ) ;
#195 =( GEOMETRIC_REPRESENTATION_CONTEXT ( 3 ) GLOBAL_UNCERTAINTY_ASSIGNED_CONTEXT ( ( #196 ) ) GLOBAL_UNIT_ASSIGNED_CONTEXT ( ( #140, #198, #197 ) ) REPRESENTATION_CONTEXT ( 'NONE', 'WORKASPACE' ) );
#196 = UNCERTAINTY_MEASURE_WITH_UNIT (LENGTH_MEASURE( 1.000000000000000100E-005 ), #140, 'distance_accuracy_value', 'NONE');
#197 =( NAMED_UNIT ( * ) SI_UNIT ( $, .STERADIAN. ) SOLID_ANGLE_UNIT ( ) );
#198 =( NAMED_UNIT ( * ) PLANE_ANGLE_UNIT ( ) SI_UNIT ( $, .RADIAN. ) );
#199 = UNCERTAINTY_MEASURE_WITH_UNIT (LENGTH_MEASURE( 1.000000000000000100E-005 ), #192, 'distance_accuracy_value', 'NONE');
#200 =( NAMED_UNIT ( * ) SI_UNIT ( $, .STERADIAN. ) SOLID_ANGLE_UNIT ( ) );
#201 =( NAMED_UNIT ( * ) SI_UNIT ( $, .STERADIAN. ) SOLID_ANGLE_UNIT ( ) );
#202 = CONICAL_SURFACE ( 'NONE', #204, 2.000000000000007100, 0.7853981633975286600 ) ;
#203 = AXIS2_PLACEMENT_3D ( 'NONE', #127, #126, #125 ) ;
#204 = AXIS2_PLACEMENT_3D ( 'NONE', #161, #160, #159 ) ;
#205 = COLOUR_RGB ( '',1.000000000000000000, 0.0000000000000000000, 0.0000000000000000000 ) ;
#206 = DIRECTION ( 'NONE',  ( 0.0000000000000000000, 0.0000000000000000000, -1.000000000000000000 ) ) ;
#207 = PLANE ( 'NONE',  #171 ) ;
#208 = DIRECTION ( 'NONE',  ( 1.000000000000000000, 0.0000000000000000000, 0.0000000000000000000 ) ) ;
#209 = DIRECTION ( 'NONE',  ( -0.0000000000000000000, -0.0000000000000000000, 1.000000000000000000 ) ) ;
#210 = CARTESIAN_POINT ( 'NONE',  ( 0.0000000000000000000, 0.0000000000000000000, 0.3333333333333174400 ) ) ;
#211 = CIRCLE ( 'NONE', #166, 2.000000000000007100 ) ;
#212 = UNCERTAINTY_MEASURE_WITH_UNIT (LENGTH_MEASURE( 1.000000000000000100E-005 ), #91, 'distance_accuracy_value', 'NONE');
#213 = CIRCLE ( 'NONE', #165, 0.01999999999999918500 ) ;
#214 = CARTESIAN_POINT ( 'NONE',  ( 0.0000000000000000000, 0.0000000000000000000, 40.16465667720738300 ) ) ;
#215 = DIRECTION ( 'NONE',  ( 0.0000000000000000000, -0.0000000000000000000, 1.000000000000000000 ) ) ;
#216 = CARTESIAN_POINT ( 'NONE',  ( 0.04144774064038613700, 0.0000000000000000000, 40.16465667720738300 ) ) ;
#217 =( GEOMETRIC_REPRESENTATION_CONTEXT ( 3 ) GLOBAL_UNCERTAINTY_ASSIGNED_CONTEXT ( ( #212 ) ) GLOBAL_UNIT_ASSIGNED_CONTEXT ( ( #91, #117, #201 ) ) REPRESENTATION_CONTEXT ( 'NONE', 'WORKASPACE' ) );
#218 = FILL_AREA_STYLE ('',( #219 ) ) ;
#219 = FILL_AREA_STYLE_COLOUR ( '', #156 ) ;
#220 = PRESENTATION_LAYER_ASSIGNMENT (  '', '', ( #221 ) ) ;
#221 = STYLED_ITEM ( 'NONE', ( #222 ), #52 ) ;
#222 = PRESENTATION_STYLE_ASSIGNMENT (( #223 ) ) ;
#223 = SURFACE_STYLE_USAGE ( .BOTH. , #224 ) ;
#224 = SURFACE_SIDE_STYLE ('',( #225 ) ) ;
#225 = SURFACE_STYLE_FILL_AREA ( #152 ) ;
#226 = DIRECTION ( 'NONE',  ( 1.000000000000000000, 0.0000000000000000000, 0.0000000000000000000 ) ) ;
#227 = DIRECTION ( 'NONE',  ( -0.0000000000000000000, -0.0000000000000000000, 1.000000000000000000 ) ) ;
#228 = CARTESIAN_POINT ( 'NONE',  ( 0.0000000000000000000, 0.0000000000000000000, 40.16465667720739000 ) ) ;
#229 = CIRCLE ( 'NONE', #144, 0.04144774064038613700 ) ;
#230 = COLOUR_RGB ( '',1.000000000000000000, 0.0000000000000000000, 0.0000000000000000000 ) ;
#231 = TOROIDAL_SURFACE ( 'NONE', #244, 0.04144774064038614400, 0.01999999999999840400 ) ;
#232 = AXIS2_PLACEMENT_3D ( 'NONE', #214, #130, #243 ) ;
#233 = DIRECTION ( 'NONE',  ( 1.000000000000000000, 0.0000000000000000000, 0.0000000000000000000 ) ) ;
#234 = DIRECTION ( 'NONE',  ( -0.0000000000000000000, -0.0000000000000000000, 1.000000000000000000 ) ) ;
#235 =( GEOMETRIC_REPRESENTATION_CONTEXT ( 3 ) GLOBAL_UNCERTAINTY_ASSIGNED_CONTEXT ( ( #93 ) ) GLOBAL_UNIT_ASSIGNED_CONTEXT ( ( #331, #330, #67 ) ) REPRESENTATION_CONTEXT ( 'NONE', 'WORKASPACE' ) );
#236 = DIRECTION ( 'NONE',  ( 1.000000000000000000, 0.0000000000000000000, 0.0000000000000000000 ) ) ;
#237 = DIRECTION ( 'NONE',  ( -0.0000000000000000000, -0.0000000000000000000, 1.000000000000000000 ) ) ;
#238 = CARTESIAN_POINT ( 'NONE',  ( 0.0000000000000000000, 0.0000000000000000000, 0.0000000000000000000 ) ) ;
#239 = AXIS2_PLACEMENT_3D ( 'NONE', #238, #237, #236 ) ;
#240 = CIRCLE ( 'NONE', #239, 1.666666666666635900 ) ;
#241 = FACE_OUTER_BOUND ( 'NONE', #35, .T. ) ;
#242 = CARTESIAN_POINT ( 'NONE',  ( 0.04144774064038613700, 0.0000000000000000000, 40.16465667720739000 ) ) ;
#243 = DIRECTION ( 'NONE',  ( 1.000000000000000000, 0.0000000000000000000, 0.0000000000000000000 ) ) ;
#244 = AXIS2_PLACEMENT_3D ( 'NONE', #157, #234, #233 ) ;
#245 = MECHANICAL_DESIGN_GEOMETRIC_PRESENTATION_REPRESENTATION (  '', ( #247 ), #274 ) ;
#246 = PRESENTATION_LAYER_ASSIGNMENT (  '', '', ( #247 ) ) ;
#247 = STYLED_ITEM ( 'NONE', ( #248 ), #57 ) ;
#248 = PRESENTATION_STYLE_ASSIGNMENT (( #249 ) ) ;
#249 = SURFACE_STYLE_USAGE ( .BOTH. , #338 ) ;
#250 =( GEOMETRIC_REPRESENTATION_CONTEXT ( 3 ) GLOBAL_UNCERTAINTY_ASSIGNED_CONTEXT ( ( #287 ) ) GLOBAL_UNIT_ASSIGNED_CONTEXT ( ( #290, #289, #288 ) ) REPRESENTATION_CONTEXT ( 'NONE', 'WORKASPACE' ) );
#251 = PLANE ( 'NONE',  #347 ) ;
#252 = FILL_AREA_STYLE ('',( #326 ) ) ;
#253 = AXIS2_PLACEMENT_3D ( 'NONE', #285, #297, #272 ) ;
#254 = FACE_OUTER_BOUND ( 'NONE', #73, .T. ) ;
#255 = TOROIDAL_SURFACE ( 'NONE', #306, 0.04144774064038614400, 0.01999999999999840400 ) ;
#256 =( LENGTH_UNIT ( ) NAMED_UNIT ( * ) SI_UNIT ( .MILLI., .METRE. ) );
#257 = DIRECTION ( 'NONE',  ( -0.0000000000000000000, -0.0000000000000000000, 1.000000000000000000 ) ) ;
#258 = CYLINDRICAL_SURFACE ( 'NONE', #292, 2.000000000000064400 ) ;
#259 = DIRECTION ( 'NONE',  ( 1.000000000000000000, 0.0000000000000000000, 0.0000000000000000000 ) ) ;
#260 = DIRECTION ( 'NONE',  ( 1.000000000000000000, 0.0000000000000000000, 0.0000000000000000000 ) ) ;
#261 = DIRECTION ( 'NONE',  ( -0.0000000000000000000, -0.0000000000000000000, 1.000000000000000000 ) ) ;
#262 = FACE_OUTER_BOUND ( 'NONE', #83, .T. ) ;
#263 = PRESENTATION_LAYER_ASSIGNMENT (  '', '', ( #264 ) ) ;
#264 = STYLED_ITEM ( 'NONE', ( #265 ), #81 ) ;
#265 = PRESENTATION_STYLE_ASSIGNMENT (( #266 ) ) ;
#266 = SURFACE_STYLE_USAGE ( .BOTH. , #267 ) ;
#267 = SURFACE_SIDE_STYLE ('',( #268 ) ) ;
#268 = SURFACE_STYLE_FILL_AREA ( #277 ) ;
#269 =( NAMED_UNIT ( * ) PLANE_ANGLE_UNIT ( ) SI_UNIT ( $, .RADIAN. ) );
#270 =( LENGTH_UNIT ( ) NAMED_UNIT ( * ) SI_UNIT ( .MILLI., .METRE. ) );
#271 = MECHANICAL_DESIGN_GEOMETRIC_PRESENTATION_REPRESENTATION (  '', ( #264 ), #281 ) ;
#272 = DIRECTION ( 'NONE',  ( -1.000000000000000000, 0.0000000000000000000, 0.0000000000000000000 ) ) ;
#273 = CARTESIAN_POINT ( 'NONE',  ( 2.000000000000007100, 0.0000000000000000000, 0.3333333333333174400 ) ) ;
#274 =( GEOMETRIC_REPRESENTATION_CONTEXT ( 3 ) GLOBAL_UNCERTAINTY_ASSIGNED_CONTEXT ( ( #344 ) ) GLOBAL_UNIT_ASSIGNED_CONTEXT ( ( #256, #286, #345 ) ) REPRESENTATION_CONTEXT ( 'NONE', 'WORKASPACE' ) );
#275 = DIRECTION ( 'NONE',  ( 0.0000000000000000000, 0.0000000000000000000, -1.000000000000000000 ) ) ;
#276 = CARTESIAN_POINT ( 'NONE',  ( 0.05894013478317488400, 7.218084740352870000E-018, 40.15435286961231000 ) ) ;
#277 = FILL_AREA_STYLE ('',( #350 ) ) ;
#278 = CARTESIAN_POINT ( 'NONE',  ( -2.000000000000007100, 2.449293598294714800E-016, 0.3333333333333174400 ) ) ;
#279 = DIRECTION ( 'NONE',  ( 1.000000000000000000, 0.0000000000000000000, 0.0000000000000000000 ) ) ;
#280 = DIRECTION ( 'NONE',  ( -0.0000000000000000000, -0.0000000000000000000, 1.000000000000000000 ) ) ;
#281 =( GEOMETRIC_REPRESENTATION_CONTEXT ( 3 ) GLOBAL_UNCERTAINTY_ASSIGNED_CONTEXT ( ( #342 ) ) GLOBAL_UNIT_ASSIGNED_CONTEXT ( ( #270, #269, #343 ) ) REPRESENTATION_CONTEXT ( 'NONE', 'WORKASPACE' ) );
#282 = CONICAL_SURFACE ( 'NONE', #253, 0.05894013478317488400, 0.5061454830783567200 ) ;
#283 = CARTESIAN_POINT ( 'NONE',  ( 2.000000000000064400, 0.0000000000000000000, 40.16465667720738300 ) ) ;
#284 = CARTESIAN_POINT ( 'NONE',  ( 0.0000000000000000000, 0.0000000000000000000, 40.14465667720738700 ) ) ;
#285 = CARTESIAN_POINT ( 'NONE',  ( 0.0000000000000000000, 0.0000000000000000000, 40.15435286961231000 ) ) ;
#286 =( NAMED_UNIT ( * ) PLANE_ANGLE_UNIT ( ) SI_UNIT ( $, .RADIAN. ) );
#287 = UNCERTAINTY_MEASURE_WITH_UNIT (LENGTH_MEASURE( 1.000000000000000100E-005 ), #290, 'distance_accuracy_value', 'NONE');
#288 =( NAMED_UNIT ( * ) SI_UNIT ( $, .STERADIAN. ) SOLID_ANGLE_UNIT ( ) );
#289 =( NAMED_UNIT ( * ) PLANE_ANGLE_UNIT ( ) SI_UNIT ( $, .RADIAN. ) );
#290 =( LENGTH_UNIT ( ) NAMED_UNIT ( * ) SI_UNIT ( .MILLI., .METRE. ) );
#291 = FACE_OUTER_BOUND ( 'NONE', #96, .T. ) ;
#292 = AXIS2_PLACEMENT_3D ( 'NONE', #320, #257, #259 ) ;
#293 = CONICAL_SURFACE ( 'NONE', #324, 0.05894013478317488400, 0.5061454830783567200 ) ;
#294 = UNCERTAINTY_MEASURE_WITH_UNIT (LENGTH_MEASURE( 1.000000000000000100E-005 ), #107, 'distance_accuracy_value', 'NONE');
#295 = COLOUR_RGB ( '',1.000000000000000000, 0.0000000000000000000, 0.0000000000000000000 ) ;
#296 = LINE ( 'NONE', #283, #313 ) ;
#297 = DIRECTION ( 'NONE',  ( 0.0000000000000000000, 0.0000000000000000000, -1.000000000000000000 ) ) ;
#298 = CIRCLE ( 'NONE', #300, 0.05894013478317488400 ) ;
#299 = CARTESIAN_POINT ( 'NONE',  ( 0.0000000000000000000, 0.0000000000000000000, 40.15435286961231000 ) ) ;
#300 = AXIS2_PLACEMENT_3D ( 'NONE', #299, #280, #279 ) ;
#301 = LINE ( 'NONE', #276, #329 ) ;
#302 = COLOUR_RGB ( '',1.000000000000000000, 0.0000000000000000000, 0.0000000000000000000 ) ;
#303 = FILL_AREA_STYLE ('',( #351 ) ) ;
#304 = COLOUR_RGB ( '',0.7921568627450980000, 0.8196078431372548800, 0.9333333333333333500 ) ;
#305 = ADVANCED_BREP_SHAPE_REPRESENTATION ( '99619-W060-04_W06004S101', ( #9, #362 ), #250 ) ;
#306 = AXIS2_PLACEMENT_3D ( 'NONE', #284, #341, #340 ) ;
#307 = CARTESIAN_POINT ( 'NONE',  ( 1.666666666666635900, 0.0000000000000000000, 0.0000000000000000000 ) ) ;
#308 = DIRECTION ( 'NONE',  ( -0.0000000000000000000, -0.0000000000000000000, 1.000000000000000000 ) ) ;
#309 = CARTESIAN_POINT ( 'NONE',  ( 0.0000000000000000000, 0.0000000000000000000, 40.15435286961231000 ) ) ;
#310 = CIRCLE ( 'NONE', #316, 0.05894013478317488400 ) ;
#311 = FACE_OUTER_BOUND ( 'NONE', #72, .T. ) ;
#312 = DIRECTION ( 'NONE',  ( -0.0000000000000000000, -0.0000000000000000000, 1.000000000000000000 ) ) ;
#313 = VECTOR ( 'NONE', #312, 1000.000000000000000 ) ;
#314 = CARTESIAN_POINT ( 'NONE',  ( 0.05894013478317491200, 0.0000000000000000000, 40.15435286961231000 ) ) ;
#315 =( NAMED_UNIT ( * ) SI_UNIT ( $, .STERADIAN. ) SOLID_ANGLE_UNIT ( ) );
#316 = AXIS2_PLACEMENT_3D ( 'NONE', #309, #308, #348 ) ;
#317 =( GEOMETRIC_REPRESENTATION_CONTEXT ( 3 ) GLOBAL_UNCERTAINTY_ASSIGNED_CONTEXT ( ( #294 ) ) GLOBAL_UNIT_ASSIGNED_CONTEXT ( ( #107, #118, #315 ) ) REPRESENTATION_CONTEXT ( 'NONE', 'WORKASPACE' ) );
#318 = CARTESIAN_POINT ( 'NONE',  ( 0.0000000000000000000, 0.0000000000000000000, 36.65258817692023300 ) ) ;
#319 = AXIS2_PLACEMENT_3D ( 'NONE', #318, #261, #260 ) ;
#320 = CARTESIAN_POINT ( 'NONE',  ( 0.0000000000000000000, 0.0000000000000000000, 40.16465667720738300 ) ) ;
#321 = DIRECTION ( 'NONE',  ( -1.000000000000000000, 0.0000000000000000000, 0.0000000000000000000 ) ) ;
#322 = DIRECTION ( 'NONE',  ( 0.0000000000000000000, 0.0000000000000000000, -1.000000000000000000 ) ) ;
#323 = CARTESIAN_POINT ( 'NONE',  ( 0.0000000000000000000, 0.0000000000000000000, 40.15435286961231000 ) ) ;
#324 = AXIS2_PLACEMENT_3D ( 'NONE', #323, #322, #321 ) ;
#325 = SURFACE_STYLE_FILL_AREA ( #303 ) ;
#326 = FILL_AREA_STYLE_COLOUR ( '', #295 ) ;
#327 = CIRCLE ( 'NONE', #319, 2.000000000000121200 ) ;
#328 = DIRECTION ( 'NONE',  ( 0.4848096202463380600, 5.937205496305216200E-017, -0.8746197071393953000 ) ) ;
#329 = VECTOR ( 'NONE', #328, 999.9999999999998900 ) ;
#330 =( NAMED_UNIT ( * ) PLANE_ANGLE_UNIT ( ) SI_UNIT ( $, .RADIAN. ) );
#331 =( LENGTH_UNIT ( ) NAMED_UNIT ( * ) SI_UNIT ( .MILLI., .METRE. ) );
#332 = MECHANICAL_DESIGN_GEOMETRIC_PRESENTATION_REPRESENTATION (  '', ( #334 ), #235 ) ;
#333 = PRESENTATION_LAYER_ASSIGNMENT (  '', '', ( #334 ) ) ;
#334 = STYLED_ITEM ( 'NONE', ( #335 ), #305 ) ;
#335 = PRESENTATION_STYLE_ASSIGNMENT (( #336 ) ) ;
#336 = SURFACE_STYLE_USAGE ( .BOTH. , #337 ) ;
#337 = SURFACE_SIDE_STYLE ('',( #325 ) ) ;
#338 = SURFACE_SIDE_STYLE ('',( #339 ) ) ;
#339 = SURFACE_STYLE_FILL_AREA ( #252 ) ;
#340 = DIRECTION ( 'NONE',  ( 1.000000000000000000, 0.0000000000000000000, 0.0000000000000000000 ) ) ;
#341 = DIRECTION ( 'NONE',  ( -0.0000000000000000000, -0.0000000000000000000, 1.000000000000000000 ) ) ;
#342 = UNCERTAINTY_MEASURE_WITH_UNIT (LENGTH_MEASURE( 1.000000000000000100E-005 ), #270, 'distance_accuracy_value', 'NONE');
#343 =( NAMED_UNIT ( * ) SI_UNIT ( $, .STERADIAN. ) SOLID_ANGLE_UNIT ( ) );
#344 = UNCERTAINTY_MEASURE_WITH_UNIT (LENGTH_MEASURE( 1.000000000000000100E-005 ), #256, 'distance_accuracy_value', 'NONE');
#345 =( NAMED_UNIT ( * ) SI_UNIT ( $, .STERADIAN. ) SOLID_ANGLE_UNIT ( ) );
#346 = DIRECTION ( 'NONE',  ( -1.000000000000000000, 0.0000000000000000000, -0.0000000000000000000 ) ) ;
#347 = AXIS2_PLACEMENT_3D ( 'NONE', #307, #275, #346 ) ;
#348 = DIRECTION ( 'NONE',  ( 1.000000000000000000, 0.0000000000000000000, 0.0000000000000000000 ) ) ;
#349 = CARTESIAN_POINT ( 'NONE',  ( -0.05894013478317491200, 7.218084740352874600E-018, 40.15435286961231000 ) ) ;
#350 = FILL_AREA_STYLE_COLOUR ( '', #302 ) ;
#351 = FILL_AREA_STYLE_COLOUR ( '', #304 ) ;
#352 = CARTESIAN_POINT ( 'NONE',  ( 0.0000000000000000000, 0.0000000000000000000, 0.0000000000000000000 ) ) ;
#353 = PRODUCT_DEFINITION ( 'UNKNOWN', '', #361, #354 ) ;
#354 = PRODUCT_DEFINITION_CONTEXT ( 'detailed design', #356, 'design' ) ;
#355 = APPLICATION_PROTOCOL_DEFINITION ( 'draft international standard', 'automotive_design', 1998, #356 ) ;
#356 = APPLICATION_CONTEXT ( 'automotive_design' ) ;
#357 = APPLICATION_CONTEXT ( 'automotive_design' ) ;
#358 = SHAPE_DEFINITION_REPRESENTATION ( #363, #305 ) ;
#359 = DIRECTION ( 'NONE',  ( 1.000000000000000000, 0.0000000000000000000, 0.0000000000000000000 ) ) ;
#360 = PRODUCT_RELATED_PRODUCT_CATEGORY ( 'part', '', ( #366 ) ) ;
#361 = PRODUCT_DEFINITION_FORMATION_WITH_SPECIFIED_SOURCE ( 'ANY', '', #366, .NOT_KNOWN. ) ;
#362 = AXIS2_PLACEMENT_3D ( 'NONE', #352, #365, #359 ) ;
#363 = PRODUCT_DEFINITION_SHAPE ( 'NONE', 'NONE',  #353 ) ;
#364 = APPLICATION_PROTOCOL_DEFINITION ( 'draft international standard', 'automotive_design', 1998, #357 ) ;
#365 = DIRECTION ( 'NONE',  ( 0.0000000000000000000, 0.0000000000000000000, 1.000000000000000000 ) ) ;
#366 = PRODUCT ( '99619-W060-04_W06004S101', '99619-W060-04_W06004S101', '', ( #367 ) ) ;
#367 = PRODUCT_CONTEXT ( 'NONE', #357, 'mechanical' ) ;
ENDSEC;
END-ISO-10303-21;
