  0
SECTION
  2
HEADER
  9
$ACADVER
  1
AC1014
  9
$ACADMAINTVER
 70
     0
  9
$DWGCODEPAGE
  3
ANSI_950
  9
$INSBASE
 10
0.0
 20
0.0
 30
0.0
  9
$EXTMIN
 10
0.0
 20
0.0
 30
0.0
  9
$EXTMAX
 10
192.0
 20
282.0
 30
0.0
  9
$LIMMIN
 10
0.0
 20
0.0
  9
$LIMMAX
 10
210.0
 20
297.0
  9
$ORTHOMODE
 70
     0
  9
$REGENMODE
 70
     1
  9
$FILLMODE
 70
     1
  9
$QTEXTMODE
 70
     0
  9
$MIRRTEXT
 70
     1
  9
$DRAGMODE
 70
     2
  9
$LTSCALE
 40
6.0
  9
$OSMODE
 70
    59
  9
$ATTMODE
 70
     1
  9
$TEXTSIZE
 40
1.0
  9
$TRACEWID
 40
0.05
  9
$TEXTSTYLE
  7
STYLE1
  9
$CLAYER
  8
0
  9
$CELTYPE
  6
BYLAYER
  9
$CECOLOR
 62
   256
  9
$CELTSCALE
 40
1.0
  9
$DELOBJ
 70
     1
  9
$DISPSILH
 70
     0
  9
$DIMSCALE
 40
0.0
  9
$DIMASZ
 40
2.5
  9
$DIMEXO
 40
1.0
  9
$DIMDLI
 40
1.0
  9
$DIMRND
 40
0.0
  9
$DIMDLE
 40
0.0
  9
$DIMEXE
 40
1.0
  9
$DIMTP
 40
0.05
  9
$DIMTM
 40
0.05
  9
$DIMTXT
 40
2.5
  9
$DIMCEN
 40
0.09
  9
$DIMTSZ
 40
0.0
  9
$DIMTOL
 70
     0
  9
$DIMLIM
 70
     0
  9
$DIMTIH
 70
     0
  9
$DIMTOH
 70
     0
  9
$DIMSE1
 70
     0
  9
$DIMSE2
 70
     0
  9
$DIMTAD
 70
     1
  9
$DIMZIN
 70
     8
  9
$DIMBLK
  1

  9
$DIMASO
 70
     1
  9
$DIMSHO
 70
     1
  9
$DIMPOST
  1

  9
$DIMAPOST
  1

  9
$DIMALT
 70
     0
  9
$DIMALTD
 70
     2
  9
$DIMALTF
 40
25.4
  9
$DIMLFAC
 40
1.0
  9
$DIMTOFL
 70
     1
  9
$DIMTVP
 40
0.0
  9
$DIMTIX
 70
     0
  9
$DIMSOXD
 70
     0
  9
$DIMSAH
 70
     0
  9
$DIMBLK1
  1

  9
$DIMBLK2
  1

  9
$DIMSTYLE
  2
STANDARD
  9
$DIMCLRD
 70
     0
  9
$DIMCLRE
 70
     0
  9
$DIMCLRT
 70
     0
  9
$DIMTFAC
 40
0.5
  9
$DIMGAP
 40
1.0
  9
$DIMJUST
 70
     0
  9
$DIMSD1
 70
     0
  9
$DIMSD2
 70
     0
  9
$DIMTOLJ
 70
     1
  9
$DIMTZIN
 70
     8
  9
$DIMALTZ
 70
     0
  9
$DIMALTTZ
 70
     0
  9
$DIMFIT
 70
     3
  9
$DIMUPT
 70
     0
  9
$DIMUNIT
 70
     2
  9
$DIMDEC
 70
     2
  9
$DIMTDEC
 70
     2
  9
$DIMALTU
 70
     2
  9
$DIMALTTD
 70
     2
  9
$DIMTXSTY
  7
STANDARD
  9
$DIMAUNIT
 70
     0
  9
$LUNITS
 70
     2
  9
$LUPREC
 70
     4
  9
$SKETCHINC
 40
0.1
  9
$FILLETRAD
 40
1.2
  9
$AUNITS
 70
     0
  9
$AUPREC
 70
     3
  9
$MENU
  1
acad
  9
$ELEVATION
 40
0.0
  9
$PELEVATION
 40
0.0
  9
$THICKNESS
 40
0.0
  9
$LIMCHECK
 70
     0
  9
$BLIPMODE
 70
     1
  9
$CHAMFERA
 40
0.0
  9
$CHAMFERB
 40
0.0
  9
$CHAMFERC
 40
0.0
  9
$CHAMFERD
 40
0.0
  9
$SKPOLY
 70
     0
  9
$TDCREATE
 40
2450667.492824652
  9
$TDUPDATE
 40
2457613.411443322
  9
$TDINDWG
 40
3.5877248148
  9
$TDUSRTIMER
 40
3.5877248148
  9
$USRTIMER
 70
     1
  9
$ANGBASE
 50
0.0
  9
$ANGDIR
 70
     0
  9
$PDMODE
 70
     0
  9
$PDSIZE
 40
0.0
  9
$PLINEWID
 40
0.0
  9
$COORDS
 70
     2
  9
$SPLFRAME
 70
     0
  9
$SPLINETYPE
 70
     6
  9
$SPLINESEGS
 70
     8
  9
$ATTDIA
 70
     0
  9
$ATTREQ
 70
     1
  9
$HANDLING
 70
     1
  9
$HANDSEED
  5
15C4C
  9
$SURFTAB1
 70
     6
  9
$SURFTAB2
 70
     6
  9
$SURFTYPE
 70
     6
  9
$SURFU
 70
     6
  9
$SURFV
 70
     6
  9
$UCSNAME
  2

  9
$UCSORG
 10
0.0
 20
0.0
 30
0.0
  9
$UCSXDIR
 10
1.0
 20
0.0
 30
0.0
  9
$UCSYDIR
 10
0.0
 20
1.0
 30
0.0
  9
$PUCSNAME
  2

  9
$PUCSORG
 10
0.0
 20
0.0
 30
0.0
  9
$PUCSXDIR
 10
1.0
 20
0.0
 30
0.0
  9
$PUCSYDIR
 10
0.0
 20
1.0
 30
0.0
  9
$USERI1
 70
     0
  9
$USERI2
 70
     0
  9
$USERI3
 70
     0
  9
$USERI4
 70
     0
  9
$USERI5
 70
     0
  9
$USERR1
 40
0.0
  9
$USERR2
 40
0.0
  9
$USERR3
 40
0.0
  9
$USERR4
 40
0.0
  9
$USERR5
 40
0.0
  9
$WORLDVIEW
 70
     1
  9
$SHADEDGE
 70
     3
  9
$SHADEDIF
 70
    70
  9
$TILEMODE
 70
     1
  9
$MAXACTVP
 70
    16
  9
$PINSBASE
 10
0.0
 20
0.0
 30
0.0
  9
$PLIMCHECK
 70
     0
  9
$PEXTMIN
 10
1.000000E+20
 20
1.000000E+20
 30
1.000000E+20
  9
$PEXTMAX
 10
-1.000000E+20
 20
-1.000000E+20
 30
-1.000000E+20
  9
$PLIMMIN
 10
0.0
 20
0.0
  9
$PLIMMAX
 10
12.0
 20
9.0
  9
$UNITMODE
 70
     0
  9
$VISRETAIN
 70
     0
  9
$PLINEGEN
 70
     0
  9
$PSLTSCALE
 70
     1
  9
$TREEDEPTH
 70
  3020
  9
$PICKSTYLE
 70
     0
  9
$CMLSTYLE
  2
STANDARD
  9
$CMLJUST
 70
     0
  9
$CMLSCALE
 40
1.0
  9
$PROXYGRAPHICS
 70
     1
  9
$MEASUREMENT
 70
     0
  0
ENDSEC
  0
SECTION
  2
CLASSES
  0
CLASS
  1
DICTIONARYVAR
  2
AcDbDictionaryVar
  3
"AutoCAD"
 90
        0
280
     0
281
     0
  0
CLASS
  1
LWPOLYLINE
  2
AcDbPolyline
  3
"AutoCAD"
 90
        0
280
     0
281
     1
  0
CLASS
  1
HATCH
  2
AcDbHatch
  3
"ACAD_SEDONA"
 90
        0
280
     0
281
     1
  0
ENDSEC
  0
SECTION
  2
TABLES
  0
TABLE
  2
VPORT
  5
8
100
AcDbSymbolTable
 70
     1
  0
VPORT
  5
15C46
100
AcDbSymbolTableRecord
100
AcDbViewportTableRecord
  2
*ACTIVE
 70
     0
 10
0.0
 20
0.0
 11
1.0
 21
1.0
 12
103.113633
 22
134.39685
 13
0.0
 23
0.0
 14
1.0
 24
1.0
 15
0.0
 25
0.0
 16
0.0
 26
0.0
 36
1.0
 17
0.0
 27
0.0
 37
0.0
 40
39.536747
 41
1.53446
 42
50.0
 43
0.0
 44
0.0
 50
0.0
 51
0.0
 71
     0
 72
   200
 73
     1
 74
     1
 75
     0
 76
     0
 77
     0
 78
     0
  0
ENDTAB
  0
TABLE
  2
LTYPE
  5
5
100
AcDbSymbolTable
 70
     3
  0
LTYPE
  5
11
100
AcDbSymbolTableRecord
100
AcDbLinetypeTableRecord
  2
BYBLOCK
 70
     0
  3

 72
    65
 73
     0
 40
0.0
  0
LTYPE
  5
12
100
AcDbSymbolTableRecord
100
AcDbLinetypeTableRecord
  2
BYLAYER
 70
     0
  3

 72
    65
 73
     0
 40
0.0
  0
LTYPE
  5
13
100
AcDbSymbolTableRecord
100
AcDbLinetypeTableRecord
  2
CONTINUOUS
 70
     0
  3
Solid line
 72
    65
 73
     0
 40
0.0
  0
LTYPE
  5
2B
100
AcDbSymbolTableRecord
100
AcDbLinetypeTableRecord
  2
CENTER
 70
     0
  3
____ _ ____ _ ____ _ ____ _ ____ _ ____ _ ____ 
 72
    65
 73
     4
 40
2.0
 49
1.25
 74
     0
 49
-0.25
 74
     0
 49
0.25
 74
     0
 49
-0.25
 74
     0
  0
LTYPE
  5
15ABE
100
AcDbSymbolTableRecord
100
AcDbLinetypeTableRecord
  2
HIDDEN
 70
     0
  3
Hidden __ __ __ __ __ __ __ __ __ __ __ __ __ _
 72
    65
 73
     2
 40
0.375
 49
0.25
 74
     0
 49
-0.125
 74
     0
  0
ENDTAB
  0
TABLE
  2
LAYER
  5
2
100
AcDbSymbolTable
 70
    12
  0
LAYER
  5
E
100
AcDbSymbolTableRecord
100
AcDbLayerTableRecord
  2
0
 70
     0
 62
     7
  6
CONTINUOUS
  0
LAYER
  5
2F
100
AcDbSymbolTableRecord
100
AcDbLayerTableRecord
  2
4
 70
     0
 62
     2
  6
CENTER
  0
LAYER
  5
30
100
AcDbSymbolTableRecord
100
AcDbLayerTableRecord
  2
6
 70
     0
 62
     5
  6
CONTINUOUS
  0
LAYER
  5
31
100
AcDbSymbolTableRecord
100
AcDbLayerTableRecord
  2
CUT
 70
     0
 62
     1
  6
CONTINUOUS
  0
LAYER
  5
32
100
AcDbSymbolTableRecord
100
AcDbLayerTableRecord
  2
2
 70
     0
 62
     7
  6
CONTINUOUS
  0
LAYER
  5
15AA4
100
AcDbSymbolTableRecord
100
AcDbLayerTableRecord
  2
SK6
 70
     0
 62
     5
  6
CONTINUOUS
  0
LAYER
  5
15ABA
100
AcDbSymbolTableRecord
100
AcDbLayerTableRecord
  2
BODY
 70
     0
 62
     7
  6
CONTINUOUS
  0
LAYER
  5
15ABB
100
AcDbSymbolTableRecord
100
AcDbLayerTableRecord
  2
CEN
 70
     0
 62
     4
  6
CENTER
  0
LAYER
  5
15ABC
100
AcDbSymbolTableRecord
100
AcDbLayerTableRecord
  2
HA
 70
     0
 62
     5
  6
CONTINUOUS
  0
LAYER
  5
15ABD
100
AcDbSymbolTableRecord
100
AcDbLayerTableRecord
  2
HI
 70
     0
 62
     3
  6
HIDDEN
  0
LAYER
  5
15B51
100
AcDbSymbolTableRecord
100
AcDbLayerTableRecord
  2
1
 70
     0
 62
     4
  6
CONTINUOUS
  0
LAYER
  5
15BA7
100
AcDbSymbolTableRecord
100
AcDbLayerTableRecord
  2
DIM
 70
     0
 62
     2
  6
CONTINUOUS
  0
ENDTAB
  0
TABLE
  2
STYLE
  5
3
100
AcDbSymbolTable
 70
     3
  0
STYLE
  5
F
100
AcDbSymbolTableRecord
100
AcDbTextStyleTableRecord
  2
STANDARD
 70
     0
 40
0.0
 41
1.0
 50
0.0
 71
     0
 42
5.0
  3
txt
  4

  0
STYLE
  5
29
100
AcDbSymbolTableRecord
100
AcDbTextStyleTableRecord
  2
MONOTXT
 70
     0
 40
0.0
 41
1.0
 50
0.0
 71
     0
 42
1.0
  3
monotxt
  4

  0
STYLE
  5
15F4
100
AcDbSymbolTableRecord
100
AcDbTextStyleTableRecord
  2
STYLE1
 70
     0
 40
3.0
 41
1.0
 50
0.0
 71
     0
 42
3.0
  3

  4

1001
ACAD
1000
標楷體
1071
    34881
  0
ENDTAB
  0
TABLE
  2
VIEW
  5
6
100
AcDbSymbolTable
 70
     0
  0
ENDTAB
  0
TABLE
  2
UCS
  5
7
100
AcDbSymbolTable
 70
     0
  0
ENDTAB
  0
TABLE
  2
APPID
  5
9
100
AcDbSymbolTable
 70
     1
  0
APPID
  5
10
100
AcDbSymbolTableRecord
100
AcDbRegAppTableRecord
  2
ACAD
 70
     0
  0
ENDTAB
  0
TABLE
  2
DIMSTYLE
  5
A
100
AcDbSymbolTable
 70
     1
  0
DIMSTYLE
105
191
100
AcDbSymbolTableRecord
100
AcDbDimStyleTableRecord
  2
STANDARD
 70
     0
  3

  4

  5

  6

  7

 40
1.0
 41
0.18
 42
0.0625
 43
0.38
 44
0.18
 45
0.0
 46
0.0
 47
0.0
 48
0.0
140
0.18
141
0.09
142
0.0
143
25.4
144
1.0
145
0.0
146
1.0
147
0.09
 71
     0
 72
     0
 73
     1
 74
     1
 75
     0
 76
     0
 77
     0
 78
     0
170
     0
171
     2
172
     0
173
     0
174
     0
175
     0
176
     0
177
     0
178
     0
270
     2
271
     4
272
     4
273
     2
274
     2
340
F
275
     0
280
     0
281
     0
282
     0
283
     1
284
     0
285
     0
286
     0
287
     3
288
     0
  0
ENDTAB
  0
TABLE
  2
BLOCK_RECORD
  5
1
100
AcDbSymbolTable
 70
     8
  0
BLOCK_RECORD
  5
17
100
AcDbSymbolTableRecord
100
AcDbBlockTableRecord
  2
*MODEL_SPACE
  0
BLOCK_RECORD
  5
14
100
AcDbSymbolTableRecord
100
AcDbBlockTableRecord
  2
*PAPER_SPACE
  0
BLOCK_RECORD
  5
15AD7
100
AcDbSymbolTableRecord
100
AcDbBlockTableRecord
  2
A$C5A2B3BA8
  0
BLOCK_RECORD
  5
15AF6
100
AcDbSymbolTableRecord
100
AcDbBlockTableRecord
  2
A$C7E35292D
  0
BLOCK_RECORD
  5
15B0B
100
AcDbSymbolTableRecord
100
AcDbBlockTableRecord
  2
A$C5AB37167
  0
BLOCK_RECORD
  5
15B52
100
AcDbSymbolTableRecord
100
AcDbBlockTableRecord
  2
A$C2BE014A8
  0
BLOCK_RECORD
  5
15B75
100
AcDbSymbolTableRecord
100
AcDbBlockTableRecord
  2
A$C15E512DC
  0
BLOCK_RECORD
  5
15B89
100
AcDbSymbolTableRecord
100
AcDbBlockTableRecord
  2
A$C1D4F2B7F
  0
BLOCK_RECORD
  5
15BA8
100
AcDbSymbolTableRecord
100
AcDbBlockTableRecord
  2
A$C7365671E
  0
BLOCK_RECORD
  5
15BFA
100
AcDbSymbolTableRecord
100
AcDbBlockTableRecord
  2
A$C3E032C54
  0
ENDTAB
  0
ENDSEC
  0
SECTION
  2
BLOCKS
  0
BLOCK
  5
37
100
AcDbEntity
  8
0
100
AcDbBlockBegin
  2
*MODEL_SPACE
 70
     0
 10
0.0
 20
0.0
 30
0.0
  3
*MODEL_SPACE
  1

  0
ENDBLK
  5
38
100
AcDbEntity
  8
0
100
AcDbBlockEnd
  0
BLOCK
  5
35
100
AcDbEntity
 67
     1
  8
0
100
AcDbBlockBegin
  2
*PAPER_SPACE
 70
     0
 10
0.0
 20
0.0
 30
0.0
  3
*PAPER_SPACE
  1

  0
ENDBLK
  5
36
100
AcDbEntity
 67
     1
  8
0
100
AcDbBlockEnd
  0
BLOCK
  5
15ADA
100
AcDbEntity
  8
0
100
AcDbBlockBegin
  2
A$C5A2B3BA8
 70
     0
 10
0.0
 20
0.0
 30
0.0
  3
A$C5A2B3BA8
  1

  0
POINT
  5
15AD8
100
AcDbEntity
  8
0
100
AcDbPoint
 10
0.0
 20
0.0
 30
0.0
  0
POINT
  5
15AD9
100
AcDbEntity
  8
0
100
AcDbPoint
 10
192.0
 20
282.0
 30
0.0
  0
ENDBLK
  5
15ADB
100
AcDbEntity
  8
0
100
AcDbBlockEnd
  0
BLOCK
  5
15AFC
100
AcDbEntity
  8
0
100
AcDbBlockBegin
  2
A$C7E35292D
 70
     0
 10
0.0
 20
0.0
 30
0.0
  3
A$C7E35292D
  1

  0
LINE
  5
15AF7
102
{ACAD_REACTORS
330
15AF9
102
}
100
AcDbEntity
  8
2
100
AcDbLine
 10
3.272193
 20
7.539909
 30
0.0
 11
5.772193
 21
7.539909
 31
0.0
  0
CIRCLE
  5
15AF8
102
{ACAD_REACTORS
330
15AF9
102
}
100
AcDbEntity
  8
2
100
AcDbCircle
 10
4.522193
 20
7.539909
 30
0.0
 40
1.25
  0
HATCH
  5
15AF9
100
AcDbEntity
  8
2
100
AcDbHatch
 10
0.0
 20
0.0
 30
0.0
210
0.0
220
0.0
230
1.0
  2
ANSI31
 70
     0
 71
     1
 91
        2
 92
        7
 72
     1
 73
     1
 93
        3
 10
4.522193194479172
 20
8.789908547315107
 42
0.4142135623730951
 10
3.272193194479172
 20
7.539908547315107
 42
0.0
 10
4.522193194479172
 20
7.539908547315093
 42
0.0
 97
        3
330
15AF8
330
15AF7
330
15AFA
 92
        7
 72
     1
 73
     1
 93
        3
 10
4.522193194479172
 20
6.289908547315107
 42
0.4142135623730951
 10
5.772193194479172
 20
7.539908547315107
 42
0.0
 10
4.522193194479172
 20
7.539908547315093
 42
0.0
 97
        3
330
15AF7
330
15AFA
330
15AF8
 75
     0
 76
     1
 52
0.0
 41
1.0
 77
     0
 78
     1
 53
45.0
 43
-88.888386
 44
-100.674916
 45
-0.0883883476483184
 46
0.0883883476483185
 79
     0
 47
0.01145
 98
        2
 10
4.241531
 20
8.306672
 10
4.779944
 20
6.966984
  0
LINE
  5
15AFA
102
{ACAD_REACTORS
330
15AF9
102
}
100
AcDbEntity
  8
2
100
AcDbLine
 10
4.522193
 20
8.789909
 30
0.0
 11
4.522193
 21
6.289909
 31
0.0
  0
LWPOLYLINE
  5
15AFB
100
AcDbEntity
  8
CUT
100
AcDbPolyline
 90
        8
 70
     1
 43
0.0
 10
4.175783
 20
0.199909
 42
0.57735
 10
4.868603
 20
0.199909
 10
8.990884
 20
7.339909
 42
0.267949
 10
8.990884
 20
7.739909
 10
4.868603
 20
14.879909
 42
0.57735
 10
4.175783
 20
14.879909
 10
0.053502
 20
7.739909
 42
0.267949
 10
0.053502
 20
7.339909
  0
ENDBLK
  5
15AFD
100
AcDbEntity
  8
0
100
AcDbBlockEnd
  0
BLOCK
  5
15B11
100
AcDbEntity
  8
0
100
AcDbBlockBegin
  2
A$C5AB37167
 70
     0
 10
0.0
 20
0.0
 30
0.0
  3
A$C5AB37167
  1

  0
LWPOLYLINE
  5
15B0C
100
AcDbEntity
  8
CUT
100
AcDbPolyline
 90
        8
 70
     1
 43
0.0
 10
14.30909
 20
12.299171
 10
7.900502
 20
23.399171
 42
0.57735
 10
6.514862
 20
23.399171
 10
0.106274
 20
12.299171
 42
0.267949
 10
0.106274
 20
11.499171
 10
6.514862
 20
0.399171
 42
0.57735
 10
7.900502
 20
0.399171
 10
14.30909
 20
11.499171
 42
0.267949
  0
HATCH
  5
15B0D
100
AcDbEntity
  8
2
100
AcDbHatch
 10
0.0
 20
0.0
 30
0.0
210
0.0
220
0.0
230
1.0
  2
ANSI31
 70
     0
 71
     1
 91
        2
 92
        7
 72
     1
 73
     1
 93
        3
 10
7.20768200756602
 20
13.14917076699541
 42
0.4142135623730951
 10
5.95768200756602
 20
11.89917076699541
 42
0.0
 10
7.20768200756602
 20
11.89917076699542
 42
0.0
 97
        3
330
15B0E
330
15B0F
330
15B10
 92
        7
 72
     1
 73
     1
 93
        3
 10
7.20768200756602
 20
10.64917076699541
 42
0.4142135623730951
 10
8.45768200756602
 20
11.89917076699541
 42
0.0
 10
7.20768200756602
 20
11.89917076699542
 42
0.0
 97
        3
330
15B0F
330
15B10
330
15B0E
 75
     0
 76
     1
 52
0.0
 41
1.0
 77
     0
 78
     1
 53
45.0
 43
-86.202897
 44
-96.315654
 45
-0.0883883476483184
 46
0.0883883476483185
 79
     0
 47
0.01145
 98
        2
 10
6.92702
 20
12.665934
 10
7.465433
 20
11.326246
  0
CIRCLE
  5
15B0E
102
{ACAD_REACTORS
330
15B0D
102
}
100
AcDbEntity
  8
2
100
AcDbCircle
 10
7.207682
 20
11.899171
 30
0.0
 40
1.25
  0
LINE
  5
15B0F
102
{ACAD_REACTORS
330
15B0D
102
}
100
AcDbEntity
  8
2
100
AcDbLine
 10
5.957682
 20
11.899171
 30
0.0
 11
8.457682
 21
11.899171
 31
0.0
  0
LINE
  5
15B10
102
{ACAD_REACTORS
330
15B0D
102
}
100
AcDbEntity
  8
2
100
AcDbLine
 10
7.207682
 20
13.149171
 30
0.0
 11
7.207682
 21
10.649171
 31
0.0
  0
ENDBLK
  5
15B12
100
AcDbEntity
  8
0
100
AcDbBlockEnd
  0
BLOCK
  5
15B60
100
AcDbEntity
  8
0
100
AcDbBlockBegin
  2
A$C2BE014A8
 70
     0
 10
0.0
 20
0.0
 30
0.0
  3
A$C2BE014A8
  1

  0
LINE
  5
15B53
100
AcDbEntity
  8
1
100
AcDbLine
 10
8.669201
 20
5.886446
 30
0.0
 11
1.669201
 21
5.886446
 31
0.0
  0
LINE
  5
15B54
102
{ACAD_REACTORS
330
15B56
102
}
100
AcDbEntity
  8
2
100
AcDbLine
 10
3.919201
 20
5.886446
 30
0.0
 11
6.419201
 21
5.886446
 31
0.0
  0
CIRCLE
  5
15B55
102
{ACAD_REACTORS
330
15B56
102
}
100
AcDbEntity
  8
2
100
AcDbCircle
 10
5.169201
 20
5.886446
 30
0.0
 40
1.25
  0
HATCH
  5
15B56
100
AcDbEntity
  8
2
100
AcDbHatch
 10
0.0
 20
0.0
 30
0.0
210
0.0
220
0.0
230
1.0
  2
ANSI31
 70
     0
 71
     1
 91
        2
 92
        7
 72
     1
 73
     1
 93
        3
 10
5.169200650948297
 20
7.136446122054337
 42
0.4142135623730951
 10
3.919200650948297
 20
5.886446122054337
 42
0.0
 10
5.169200650948297
 20
5.886446122054323
 42
0.0
 97
        3
330
15B55
330
15B54
330
15B57
 92
        7
 72
     1
 73
     1
 93
        3
 10
5.169200650948297
 20
4.636446122054337
 42
0.4142135623730951
 10
6.419200650948297
 20
5.886446122054337
 42
0.0
 10
5.169200650948297
 20
5.886446122054323
 42
0.0
 97
        3
330
15B54
330
15B57
330
15B55
 75
     0
 76
     1
 52
0.0
 41
1.0
 77
     0
 78
     1
 53
45.0
 43
-88.241378
 44
-102.328378
 45
-0.0883883476483184
 46
0.0883883476483185
 79
     0
 47
0.01145
 98
        2
 10
4.888538
 20
6.653209
 10
5.426951
 20
5.313521
  0
LINE
  5
15B57
102
{ACAD_REACTORS
330
15B56
102
}
100
AcDbEntity
  8
2
100
AcDbLine
 10
5.169201
 20
7.136446
 30
0.0
 11
5.169201
 21
4.636446
 31
0.0
  0
LINE
  5
15B58
100
AcDbEntity
  8
CUT
100
AcDbLine
 10
5.471084
 20
11.636181
 30
0.0
 11
10.241131
 21
6.14887
 31
0.0
  0
LINE
  5
15B59
100
AcDbEntity
  8
CUT
100
AcDbLine
 10
4.867317
 20
11.636181
 30
0.0
 11
0.09727
 21
6.14887
 31
0.0
  0
ARC
  5
15B5A
100
AcDbEntity
  8
CUT
100
AcDbCircle
 10
5.169201
 20
11.373757
 30
0.0
 40
0.4
100
AcDbArc
 50
41.0
 51
139.0
  0
LINE
  5
15B5B
100
AcDbEntity
  8
CUT
100
AcDbLine
 10
5.471084
 20
0.136711
 30
0.0
 11
10.241131
 21
5.624023
 31
0.0
  0
ARC
  5
15B5C
100
AcDbEntity
  8
CUT
100
AcDbCircle
 10
9.939247
 20
5.886446
 30
0.0
 40
0.4
100
AcDbArc
 50
319.0
 51
41.0
  0
ARC
  5
15B5D
100
AcDbEntity
  8
CUT
100
AcDbCircle
 10
5.169201
 20
0.399135
 30
0.0
 40
0.4
100
AcDbArc
 50
221.0
 51
319.0
  0
LINE
  5
15B5E
100
AcDbEntity
  8
CUT
100
AcDbLine
 10
4.867317
 20
0.136711
 30
0.0
 11
0.09727
 21
5.624023
 31
0.0
  0
ARC
  5
15B5F
100
AcDbEntity
  8
CUT
100
AcDbCircle
 10
0.399154
 20
5.886446
 30
0.0
 40
0.4
100
AcDbArc
 50
139.0
 51
221.0
  0
ENDBLK
  5
15B61
100
AcDbEntity
  8
0
100
AcDbBlockEnd
  0
BLOCK
  5
15B7C
100
AcDbEntity
  8
0
100
AcDbBlockBegin
  2
A$C15E512DC
 70
     0
 10
0.0
 20
0.0
 30
0.0
  3
A$C15E512DC
  1

  0
LWPOLYLINE
  5
15B76
100
AcDbEntity
  8
CUT
100
AcDbPolyline
 90
        8
 70
     1
 43
0.0
 10
0.195322
 20
8.733947
 10
7.549144
 20
0.274342
 42
0.455726
 10
8.756679
 20
0.274342
 10
16.110502
 20
8.733947
 42
0.373885
 10
16.110502
 20
9.783641
 10
8.756679
 20
18.243246
 42
0.455726
 10
7.549144
 20
18.243246
 10
0.195322
 20
9.783641
 42
0.373885
  0
HATCH
  5
15B77
100
AcDbEntity
  8
2
100
AcDbHatch
 10
0.0
 20
0.0
 30
0.0
210
0.0
220
0.0
230
1.0
  2
ANSI31
 70
     0
 71
     0
 91
        2
 92
        7
 72
     1
 73
     1
 93
        3
 10
8.152911819444824
 20
10.50879423910049
 42
0.4142135623730951
 10
6.902911819444824
 20
9.258794239100495
 42
0.0
 10
8.152911819444824
 20
9.258794239100481
 42
0.0
 97
        0
 92
        7
 72
     1
 73
     1
 93
        3
 10
8.152911819444824
 20
8.008794239100495
 42
0.4142135623730951
 10
9.402911819444824
 20
9.258794239100495
 42
0.0
 10
8.152911819444824
 20
9.258794239100481
 42
0.0
 97
        0
 75
     0
 76
     1
 52
0.0
 41
1.0
 77
     0
 78
     1
 53
45.0
 43
-85.257667
 44
-98.95603
 45
-0.0883883476483184
 46
0.0883883476483185
 79
     0
 47
0.01145
 98
        2
 10
7.872249
 20
10.025557
 10
8.410663
 20
8.685869
  0
CIRCLE
  5
15B78
100
AcDbEntity
  8
2
100
AcDbCircle
 10
8.152912
 20
9.258794
 30
0.0
 40
1.25
  0
LINE
  5
15B79
100
AcDbEntity
  8
2
100
AcDbLine
 10
6.902912
 20
9.258794
 30
0.0
 11
9.402912
 21
9.258794
 31
0.0
  0
LINE
  5
15B7A
100
AcDbEntity
  8
1
100
AcDbLine
 10
11.652912
 20
9.258794
 30
0.0
 11
4.652912
 21
9.258794
 31
0.0
  0
LINE
  5
15B7B
100
AcDbEntity
  8
2
100
AcDbLine
 10
8.152912
 20
10.508794
 30
0.0
 11
8.152912
 21
8.008794
 31
0.0
  0
ENDBLK
  5
15B7D
100
AcDbEntity
  8
0
100
AcDbBlockEnd
  0
BLOCK
  5
15B95
100
AcDbEntity
  8
0
100
AcDbBlockBegin
  2
A$C1D4F2B7F
 70
     0
 10
0.0
 20
0.0
 30
0.0
  3
A$C1D4F2B7F
  1

  0
LINE
  5
15B8A
100
AcDbEntity
  8
CUT
100
AcDbLine
 10
0.0
 20
4.038225
 30
0.0
 11
0.0
 21
2.867157
 31
0.0
  0
LINE
  5
15B8B
100
AcDbEntity
  8
CUT
100
AcDbLine
 10
2.808578
 20
6.846804
 30
0.0
 11
0.0
 21
4.038225
 31
0.0
  0
LWPOLYLINE
  5
15B8C
100
AcDbEntity
  8
CUT
100
AcDbPolyline
 90
        4
 70
     0
 43
0.0
 10
0.0
 20
2.867157
 10
2.808578
 20
0.058578
 42
0.414214
 10
3.091421
 20
0.058578
 10
5.9
 20
2.867157
  0
LINE
  5
15B8D
100
AcDbEntity
  8
1
100
AcDbLine
 10
5.8
 20
3.2
 30
0.0
 11
5.560641
 21
2.960642
 31
0.0
  0
LINE
  5
15B8E
100
AcDbEntity
  8
CUT
100
AcDbLine
 10
5.9
 20
4.038225
 30
0.0
 11
5.9
 21
2.867157
 31
0.0
  0
LINE
  5
15B8F
100
AcDbEntity
  8
CUT
100
AcDbLine
 10
5.9
 20
4.038225
 30
0.0
 11
3.091421
 21
6.846804
 31
0.0
  0
ARC
  5
15B90
100
AcDbEntity
  8
CUT
100
AcDbCircle
 10
2.95
 20
6.705382
 30
0.0
 40
0.2
100
AcDbArc
 50
45.0
 51
135.0
  0
HATCH
  5
15B91
100
AcDbEntity
  8
2
100
AcDbHatch
 10
0.0
 20
0.0
 30
0.0
210
0.0
220
0.0
230
1.0
  2
ANSI31
 70
     0
 71
     1
 91
        2
 92
        7
 72
     1
 73
     1
 93
        3
 10
2.949999641208677
 20
4.702690981872251
 42
0.4142135623730951
 10
1.699999641208677
 20
3.452690981872251
 42
0.0
 10
2.949999641208677
 20
3.452690981872251
 42
0.0
 97
        3
330
15B92
330
15B93
330
15B94
 92
        7
 72
     1
 73
     1
 93
        3
 10
2.949999641208677
 20
2.202690981872251
 42
0.4142135623730951
 10
4.199999641208677
 20
3.452690981872251
 42
0.0
 10
2.949999641208677
 20
3.452690981872251
 42
0.0
 97
        3
330
15B93
330
15B94
330
15B92
 75
     0
 76
     1
 52
0.0
 41
1.0
 77
     0
 78
     1
 53
45.0
 43
-90.460579
 44
-104.762133
 45
-0.0883883476483184
 46
0.0883883476483185
 79
     0
 47
0.01145
 98
        2
 10
2.669337
 20
4.219454
 10
3.20775
 20
2.879766
  0
CIRCLE
  5
15B92
102
{ACAD_REACTORS
330
15B91
102
}
100
AcDbEntity
  8
2
100
AcDbCircle
 10
2.95
 20
3.452691
 30
0.0
 40
1.25
  0
LINE
  5
15B93
102
{ACAD_REACTORS
330
15B91
102
}
100
AcDbEntity
  8
2
100
AcDbLine
 10
1.7
 20
3.452691
 30
0.0
 11
4.2
 21
3.452691
 31
0.0
  0
LINE
  5
15B94
102
{ACAD_REACTORS
330
15B91
102
}
100
AcDbEntity
  8
2
100
AcDbLine
 10
2.95
 20
4.702691
 30
0.0
 11
2.95
 21
2.202691
 31
0.0
  0
ENDBLK
  5
15B96
100
AcDbEntity
  8
0
100
AcDbBlockEnd
  0
BLOCK
  5
15BCB
100
AcDbEntity
  8
0
100
AcDbBlockBegin
  2
A$C7365671E
 70
     0
 10
0.0
 20
0.0
 30
0.0
  3
A$C7365671E
  1

  0
CIRCLE
  5
15BA9
100
AcDbEntity
  8
BODY
  6
CONTINUOUS
100
AcDbCircle
 10
3.950538
 20
4.369848
 30
-0.00009
 40
1.499996
210
-0.0000227320331555
220
-0.0000000000000035
230
0.9999999997416272
1001
ACAD
1000
RTLwPs
1070
   132
  0
CIRCLE
  5
15BAA
100
AcDbEntity
  8
BODY
  6
CONTINUOUS
100
AcDbCircle
 10
3.950558
 20
4.369848
 30
-0.00009
 40
1.150017
210
-0.0000227320331555
220
-0.0000000000000035
230
0.9999999997416272
1001
ACAD
1000
RTLwPs
1070
   132
  0
LINE
  5
15BAB
100
AcDbEntity
  8
CEN
100
AcDbLine
 10
7.901068
 20
4.369848
 30
0.0
 11
0.0
 21
4.369848
 31
0.0
  0
LINE
  5
15BAC
100
AcDbEntity
  8
CEN
100
AcDbLine
 10
3.850538
 20
0.0
 30
0.0
 11
3.850538
 21
8.739697
 31
0.0
  0
LINE
  5
15BAD
100
AcDbEntity
  8
CEN
100
AcDbLine
 10
6.425384
 20
1.894951
 30
0.0
 11
1.475732
 21
6.844746
 31
0.0
  0
LINE
  5
15BAE
100
AcDbEntity
  8
CEN
100
AcDbLine
 10
1.475708
 20
1.894927
 30
0.0
 11
6.425384
 21
6.844746
 31
0.0
  0
LINE
  5
15BAF
100
AcDbEntity
  8
CEN
100
AcDbLine
 10
3.950538
 20
0.0
 30
0.0
 11
3.950538
 21
8.739697
 31
0.0
  0
CIRCLE
  5
15BB0
100
AcDbEntity
  8
BODY
  6
CONTINUOUS
100
AcDbCircle
 10
3.95057
 20
4.369848
 30
0.0
 40
1.150005
1001
ACAD
1000
RTLwPs
1070
   132
  0
LINE
  5
15BB1
100
AcDbEntity
  8
BODY
  6
CONTINUOUS
100
AcDbLine
 10
1.0
 20
4.954815
 30
0.0
 11
1.0
 21
3.784815
 31
0.0
1001
ACAD
1000
RTLwPs
1070
   132
  0
LINE
  5
15BB2
100
AcDbEntity
  8
BODY
  6
CONTINUOUS
100
AcDbLine
 10
6.901068
 20
3.784882
 30
0.0
 11
6.901068
 21
4.954882
 31
0.0
1001
ACAD
1000
RTLwPs
1070
   132
  0
LINE
  5
15BB3
100
AcDbEntity
  8
BODY
  6
CONTINUOUS
100
AcDbLine
 10
3.315976
 20
1.468905
 30
0.0
 11
3.667738
 21
1.117153
 31
0.0
1001
ACAD
1000
RTLwPs
1070
   132
  0
LINE
  5
15BB4
100
AcDbEntity
  8
BODY
  6
CONTINUOUS
100
AcDbLine
 10
1.0
 20
3.784815
 30
0.0
 11
2.519439
 21
2.265419
 31
0.0
1001
ACAD
1000
RTLwPs
1070
   132
  0
LINE
  5
15BB5
100
AcDbEntity
  8
BODY
100
AcDbLine
 10
3.299873
 20
1.776168
 30
0.0
 11
3.315976
 21
1.468896
 31
0.0
  0
LINE
  5
15BB6
100
AcDbEntity
  8
BODY
100
AcDbLine
 10
2.826726
 20
2.249315
 30
0.0
 11
2.519439
 21
2.265419
 31
0.0
  0
ARC
  5
15BB7
100
AcDbEntity
  8
BODY
100
AcDbCircle
 10
2.800558
 20
1.75
 30
0.0
 40
0.5
100
AcDbArc
 50
3.0
 51
87.0
  0
LINE
  5
15BB8
100
AcDbEntity
  8
BODY
  6
CONTINUOUS
100
AcDbLine
 10
4.233423
 20
1.117161
 30
0.0
 11
4.585139
 21
1.468887
 31
0.0
1001
ACAD
1000
RTLwPs
1070
   132
  0
ARC
  5
15BB9
100
AcDbEntity
  8
BODY
  6
CONTINUOUS
100
AcDbCircle
 10
3.950577
 20
1.4
 30
0.0
 40
0.4
100
AcDbArc
 50
225.000822
 51
315.000822
1001
ACAD
1000
RTLwPs
1070
   132
  0
LINE
  5
15BBA
100
AcDbEntity
  8
BODY
  6
CONTINUOUS
100
AcDbLine
 10
5.381647
 20
2.265417
 30
0.0
 11
6.901068
 21
3.784882
 31
0.0
1001
ACAD
1000
RTLwPs
1070
   132
  0
LINE
  5
15BBB
100
AcDbEntity
  8
CEN
100
AcDbLine
 10
4.850558
 20
1.75
 30
0.0
 11
5.350558
 21
1.75
 31
0.0
  0
LINE
  5
15BBC
100
AcDbEntity
  8
CEN
100
AcDbLine
 10
5.100558
 20
1.5
 30
0.0
 11
5.100558
 21
2.0
 31
0.0
  0
LINE
  5
15BBD
100
AcDbEntity
  8
BODY
100
AcDbLine
 10
5.07439
 20
2.249315
 30
0.0
 11
5.381662
 21
2.265418
 31
0.0
  0
LINE
  5
15BBE
100
AcDbEntity
  8
BODY
100
AcDbLine
 10
4.601243
 20
1.776168
 30
0.0
 11
4.585139
 21
1.468887
 31
0.0
  0
ARC
  5
15BBF
100
AcDbEntity
  8
BODY
100
AcDbCircle
 10
5.100558
 20
1.75
 30
0.0
 40
0.5
100
AcDbArc
 50
93.0
 51
177.0
  0
LINE
  5
15BC0
100
AcDbEntity
  8
BODY
  6
CONTINUOUS
100
AcDbLine
 10
3.667645
 20
7.622536
 30
0.0
 11
3.316006
 21
7.270886
 31
0.0
1001
ACAD
1000
RTLwPs
1070
   132
  0
LINE
  5
15BC1
100
AcDbEntity
  8
BODY
  6
CONTINUOUS
100
AcDbLine
 10
2.519418
 20
6.474276
 30
0.0
 11
1.0
 21
4.954815
 31
0.0
1001
ACAD
1000
RTLwPs
1070
   132
  0
LINE
  5
15BC2
100
AcDbEntity
  8
BODY
100
AcDbLine
 10
2.826751
 20
6.490382
 30
0.0
 11
2.519418
 21
6.474276
 31
0.0
  0
ARC
  5
15BC3
100
AcDbEntity
  8
BODY
100
AcDbCircle
 10
2.800583
 20
6.989697
 30
0.0
 40
0.5
100
AcDbArc
 50
273.0
 51
357.0
  0
LINE
  5
15BC4
100
AcDbEntity
  8
BODY
100
AcDbLine
 10
3.299898
 20
6.963529
 30
0.0
 11
3.316006
 21
7.270886
 31
0.0
  0
LINE
  5
15BC5
100
AcDbEntity
  8
BODY
  6
CONTINUOUS
100
AcDbLine
 10
6.901068
 20
4.954882
 30
0.0
 11
5.381626
 21
6.474281
 31
0.0
1001
ACAD
1000
RTLwPs
1070
   132
  0
LINE
  5
15BC6
100
AcDbEntity
  8
BODY
  6
CONTINUOUS
100
AcDbLine
 10
4.585143
 20
7.270741
 30
0.0
 11
4.23333
 21
7.622544
 31
0.0
1001
ACAD
1000
RTLwPs
1070
   132
  0
ARC
  5
15BC7
100
AcDbEntity
  8
BODY
  6
CONTINUOUS
100
AcDbCircle
 10
3.950491
 20
7.339697
 30
0.0
 40
0.4
100
AcDbArc
 50
45.000822
 51
135.000822
1001
ACAD
1000
RTLwPs
1070
   132
  0
LINE
  5
15BC8
100
AcDbEntity
  8
BODY
100
AcDbLine
 10
5.07439
 20
6.490382
 30
0.0
 11
5.381662
 21
6.474279
 31
0.0
  0
LINE
  5
15BC9
100
AcDbEntity
  8
BODY
100
AcDbLine
 10
4.601243
 20
6.963529
 30
0.0
 11
4.58514
 21
7.270801
 31
0.0
  0
ARC
  5
15BCA
100
AcDbEntity
  8
BODY
100
AcDbCircle
 10
5.100558
 20
6.989697
 30
0.0
 40
0.5
100
AcDbArc
 50
183.0
 51
267.0
  0
ENDBLK
  5
15BCC
100
AcDbEntity
  8
0
100
AcDbBlockEnd
  0
BLOCK
  5
15C1B
100
AcDbEntity
  8
0
100
AcDbBlockBegin
  2
A$C3E032C54
 70
     0
 10
0.0
 20
0.0
 30
0.0
  3
A$C3E032C54
  1

  0
CIRCLE
  5
15BFB
100
AcDbEntity
  8
BODY
  6
CONTINUOUS
100
AcDbCircle
 10
3.950538
 20
4.369848
 30
-0.00009
 40
1.499996
210
-0.0000227320331555
220
-0.0000000000000035
230
0.9999999997416272
1001
ACAD
1000
RTLwPs
1070
   132
  0
CIRCLE
  5
15BFC
100
AcDbEntity
  8
BODY
  6
CONTINUOUS
100
AcDbCircle
 10
3.950558
 20
4.369848
 30
-0.00009
 40
1.150017
210
-0.0000227320331555
220
-0.0000000000000035
230
0.9999999997416272
1001
ACAD
1000
RTLwPs
1070
   132
  0
LINE
  5
15BFD
100
AcDbEntity
  8
CEN
100
AcDbLine
 10
7.901068
 20
4.369848
 30
0.0
 11
0.0
 21
4.369848
 31
0.0
  0
LINE
  5
15BFE
100
AcDbEntity
  8
CEN
100
AcDbLine
 10
3.850538
 20
0.0
 30
0.0
 11
3.850538
 21
8.739697
 31
0.0
  0
LINE
  5
15BFF
100
AcDbEntity
  8
BODY
  6
CONTINUOUS
100
AcDbLine
 10
6.901068
 20
4.954882
 30
0.0
 11
5.631997
 21
6.223917
 31
0.0
1001
ACAD
1000
RTLwPs
1070
   132
  0
LINE
  5
15C00
100
AcDbEntity
  8
BODY
  6
CONTINUOUS
100
AcDbLine
 10
2.269065
 20
6.223916
 30
0.0
 11
1.0
 21
4.954814
 31
0.0
1001
ACAD
1000
RTLwPs
1070
   132
  0
LINE
  5
15C01
100
AcDbEntity
  8
CEN
100
AcDbLine
 10
3.950538
 20
0.0
 30
0.0
 11
3.950538
 21
8.739697
 31
0.0
  0
LINE
  5
15C02
100
AcDbEntity
  8
CEN
100
AcDbLine
 10
1.475708
 20
1.894927
 30
0.0
 11
6.425384
 21
6.844746
 31
0.0
  0
LINE
  5
15C03
100
AcDbEntity
  8
CEN
100
AcDbLine
 10
6.425384
 20
1.894951
 30
0.0
 11
1.475731
 21
6.844746
 31
0.0
  0
LINE
  5
15C04
100
AcDbEntity
  8
BODY
  6
CONTINUOUS
100
AcDbLine
 10
1.0
 20
3.784814
 30
0.0
 11
2.269071
 21
2.51578
 31
0.0
1001
ACAD
1000
RTLwPs
1070
   132
  0
LINE
  5
15C05
100
AcDbEntity
  8
BODY
  6
CONTINUOUS
100
AcDbLine
 10
1.0
 20
4.954814
 30
0.0
 11
1.0
 21
3.784814
 31
0.0
1001
ACAD
1000
RTLwPs
1070
   132
  0
LINE
  5
15C06
100
AcDbEntity
  8
BODY
  6
CONTINUOUS
100
AcDbLine
 10
5.632002
 20
2.51578
 30
0.0
 11
6.901068
 21
3.784882
 31
0.0
1001
ACAD
1000
RTLwPs
1070
   132
  0
ARC
  5
15C07
100
AcDbEntity
  8
BODY
100
AcDbCircle
 10
5.350538
 20
1.75
 30
0.0
 40
0.75
100
AcDbArc
 50
93.0
 51
177.0
  0
ARC
  5
15C08
100
AcDbEntity
  8
BODY
100
AcDbCircle
 10
2.550538
 20
1.75
 30
0.0
 40
0.75
100
AcDbArc
 50
3.0
 51
87.0
  0
LINE
  5
15C09
100
AcDbEntity
  8
BODY
 48
0.25
100
AcDbLine
 10
3.316318
 20
1.468534
 30
0.0
 11
3.667695
 21
1.117157
 31
0.0
  0
LINE
  5
15C0A
100
AcDbEntity
  8
BODY
100
AcDbLine
 10
3.29951
 20
1.789252
 30
0.0
 11
3.316318
 21
1.468534
 31
0.0
  0
LINE
  5
15C0B
100
AcDbEntity
  8
BODY
100
AcDbLine
 10
4.601565
 20
1.789252
 30
0.0
 11
4.584756
 21
1.468504
 31
0.0
  0
LINE
  5
15C0C
100
AcDbEntity
  8
BODY
100
AcDbLine
 10
2.58979
 20
2.498972
 30
0.0
 11
2.269071
 21
2.51578
 31
0.0
  0
ARC
  5
15C0D
100
AcDbEntity
  8
BODY
  6
CONTINUOUS
100
AcDbCircle
 10
3.950576
 20
1.4
 30
0.0
 40
0.4
100
AcDbArc
 50
225.000822
 51
315.000822
1001
ACAD
1000
RTLwPs
1070
   132
  0
LINE
  5
15C0E
100
AcDbEntity
  8
BODY
  6
CONTINUOUS
100
AcDbLine
 10
4.233423
 20
1.117161
 30
0.0
 11
4.584756
 21
1.468504
 31
0.0
1001
ACAD
1000
RTLwPs
1070
   132
  0
LINE
  5
15C0F
100
AcDbEntity
  8
BODY
100
AcDbLine
 10
5.311286
 20
2.498972
 30
0.0
 11
5.632003
 21
2.51578
 31
0.0
  0
CIRCLE
  5
15C10
100
AcDbEntity
  8
BODY
  6
CONTINUOUS
100
AcDbCircle
 10
3.95057
 20
4.369848
 30
0.0
 40
1.150005
1001
ACAD
1000
RTLwPs
1070
   132
  0
LINE
  5
15C11
100
AcDbEntity
  8
BODY
  6
CONTINUOUS
100
AcDbLine
 10
6.901068
 20
3.784882
 30
0.0
 11
6.901068
 21
4.954882
 31
0.0
1001
ACAD
1000
RTLwPs
1070
   132
  0
ARC
  5
15C12
100
AcDbEntity
  8
BODY
100
AcDbCircle
 10
5.350538
 20
6.989697
 30
0.0
 40
0.75
100
AcDbArc
 50
183.0
 51
267.0
  0
ARC
  5
15C13
100
AcDbEntity
  8
BODY
 48
0.25
100
AcDbCircle
 10
3.950538
 20
7.339697
 30
0.0
 40
0.4
100
AcDbArc
 50
45.0
 51
135.0
  0
LINE
  5
15C14
100
AcDbEntity
  8
BODY
100
AcDbLine
 10
4.601565
 20
6.950445
 30
0.0
 11
4.584757
 21
7.271162
 31
0.0
  0
LINE
  5
15C15
100
AcDbEntity
  8
BODY
100
AcDbLine
 10
3.29951
 20
6.950445
 30
0.0
 11
3.316318
 21
7.271162
 31
0.0
  0
ARC
  5
15C16
100
AcDbEntity
  8
BODY
100
AcDbCircle
 10
2.550538
 20
6.989697
 30
0.0
 40
0.75
100
AcDbArc
 50
273.0
 51
357.0
  0
LINE
  5
15C17
100
AcDbEntity
  8
BODY
100
AcDbLine
 10
2.58979
 20
6.240725
 30
0.0
 11
2.269065
 21
6.223916
 31
0.0
  0
LINE
  5
15C18
100
AcDbEntity
  8
BODY
 48
0.25
100
AcDbLine
 10
4.584757
 20
7.271162
 30
0.0
 11
4.23338
 21
7.622539
 31
0.0
  0
LINE
  5
15C19
100
AcDbEntity
  8
BODY
 48
0.25
100
AcDbLine
 10
3.667695
 20
7.622539
 30
0.0
 11
3.316318
 21
7.271162
 31
0.0
  0
LINE
  5
15C1A
100
AcDbEntity
  8
BODY
100
AcDbLine
 10
5.311286
 20
6.240725
 30
0.0
 11
5.631997
 21
6.223917
 31
0.0
  0
ENDBLK
  5
15C1C
100
AcDbEntity
  8
0
100
AcDbBlockEnd
  0
ENDSEC
  0
SECTION
  2
ENTITIES
  0
TEXT
  5
1E04
100
AcDbEntity
  8
6
100
AcDbText
 10
72.5
 20
8.5
 30
0.0
 40
3.0
  1

  7
STYLE1
100
AcDbText
  0
TEXT
  5
7DC0
100
AcDbEntity
  8
6
100
AcDbText
 10
272.5
 20
8.5
 30
0.0
 40
3.0
  1

  7
STYLE1
100
AcDbText
  0
TEXT
  5
B823
100
AcDbEntity
  8
6
100
AcDbText
 10
272.5
 20
8.5
 30
0.0
 40
3.0
  1

  7
STYLE1
100
AcDbText
  0
TEXT
  5
B84F
100
AcDbEntity
  8
6
100
AcDbText
 10
472.5
 20
8.5
 30
0.0
 40
3.0
  1

  7
STYLE1
100
AcDbText
  0
TEXT
  5
B898
100
AcDbEntity
  8
6
100
AcDbText
 10
472.5
 20
8.5
 30
0.0
 40
3.0
  1

  7
STYLE1
100
AcDbText
  0
TEXT
  5
B899
100
AcDbEntity
  8
6
100
AcDbText
 10
672.5
 20
8.5
 30
0.0
 40
3.0
  1

  7
STYLE1
100
AcDbText
  0
TEXT
  5
BB88
100
AcDbEntity
  8
6
100
AcDbText
 10
272.5
 20
8.5
 30
0.0
 40
3.0
  1

  7
STYLE1
100
AcDbText
  0
TEXT
  5
BBB4
100
AcDbEntity
  8
6
100
AcDbText
 10
472.5
 20
8.5
 30
0.0
 40
3.0
  1

  7
STYLE1
100
AcDbText
  0
TEXT
  5
BBB5
100
AcDbEntity
  8
6
100
AcDbText
 10
472.5
 20
8.5
 30
0.0
 40
3.0
  1

  7
STYLE1
100
AcDbText
  0
TEXT
  5
BBB6
100
AcDbEntity
  8
6
100
AcDbText
 10
672.5
 20
8.5
 30
0.0
 40
3.0
  1

  7
STYLE1
100
AcDbText
  0
TEXT
  5
132C2
100
AcDbEntity
  8
6
100
AcDbText
 10
272.5
 20
8.5
 30
0.0
 40
3.0
  1

  7
STYLE1
100
AcDbText
  0
TEXT
  5
132C3
100
AcDbEntity
  8
6
100
AcDbText
 10
472.5
 20
8.5
 30
0.0
 40
3.0
  1

  7
STYLE1
100
AcDbText
  0
TEXT
  5
132C4
100
AcDbEntity
  8
6
100
AcDbText
 10
472.5
 20
8.5
 30
0.0
 40
3.0
  1

  7
STYLE1
100
AcDbText
  0
TEXT
  5
132C5
100
AcDbEntity
  8
6
100
AcDbText
 10
672.5
 20
8.5
 30
0.0
 40
3.0
  1

  7
STYLE1
100
AcDbText
  0
TEXT
  5
132C6
100
AcDbEntity
  8
6
100
AcDbText
 10
672.5
 20
8.5
 30
0.0
 40
3.0
  1

  7
STYLE1
100
AcDbText
  0
TEXT
  5
132C7
100
AcDbEntity
  8
6
100
AcDbText
 10
872.5
 20
8.5
 30
0.0
 40
3.0
  1

  7
STYLE1
100
AcDbText
  0
TEXT
  5
132C8
100
AcDbEntity
  8
6
100
AcDbText
 10
472.5
 20
8.5
 30
0.0
 40
3.0
  1

  7
STYLE1
100
AcDbText
  0
TEXT
  5
132C9
100
AcDbEntity
  8
6
100
AcDbText
 10
672.5
 20
8.5
 30
0.0
 40
3.0
  1

  7
STYLE1
100
AcDbText
  0
TEXT
  5
132CA
100
AcDbEntity
  8
6
100
AcDbText
 10
672.5
 20
8.5
 30
0.0
 40
3.0
  1

  7
STYLE1
100
AcDbText
  0
TEXT
  5
132CB
100
AcDbEntity
  8
6
100
AcDbText
 10
872.5
 20
8.5
 30
0.0
 40
3.0
  1

  7
STYLE1
100
AcDbText
  0
TEXT
  5
132D1
100
AcDbEntity
  8
6
100
AcDbText
 10
472.5
 20
8.5
 30
0.0
 40
3.0
  1

  7
STYLE1
100
AcDbText
  0
TEXT
  5
132FD
100
AcDbEntity
  8
6
100
AcDbText
 10
672.5
 20
8.5
 30
0.0
 40
3.0
  1

  7
STYLE1
100
AcDbText
  0
TEXT
  5
132FE
100
AcDbEntity
  8
6
100
AcDbText
 10
672.5
 20
8.5
 30
0.0
 40
3.0
  1

  7
STYLE1
100
AcDbText
  0
TEXT
  5
132FF
100
AcDbEntity
  8
6
100
AcDbText
 10
872.5
 20
8.5
 30
0.0
 40
3.0
  1

  7
STYLE1
100
AcDbText
  0
TEXT
  5
13300
100
AcDbEntity
  8
6
100
AcDbText
 10
872.5
 20
8.5
 30
0.0
 40
3.0
  1

  7
STYLE1
100
AcDbText
  0
TEXT
  5
13301
100
AcDbEntity
  8
6
100
AcDbText
 10
1072.5
 20
8.5
 30
0.0
 40
3.0
  1

  7
STYLE1
100
AcDbText
  0
TEXT
  5
13302
100
AcDbEntity
  8
6
100
AcDbText
 10
672.5
 20
8.5
 30
0.0
 40
3.0
  1

  7
STYLE1
100
AcDbText
  0
TEXT
  5
13303
100
AcDbEntity
  8
6
100
AcDbText
 10
872.5
 20
8.5
 30
0.0
 40
3.0
  1

  7
STYLE1
100
AcDbText
  0
TEXT
  5
13304
100
AcDbEntity
  8
6
100
AcDbText
 10
872.5
 20
8.5
 30
0.0
 40
3.0
  1

  7
STYLE1
100
AcDbText
  0
TEXT
  5
13305
100
AcDbEntity
  8
6
100
AcDbText
 10
1072.5
 20
8.5
 30
0.0
 40
3.0
  1

  7
STYLE1
100
AcDbText
  0
TEXT
  5
1382A
100
AcDbEntity
  8
6
100
AcDbText
 10
272.5
 20
8.5
 30
0.0
 40
3.0
  1

  7
STYLE1
100
AcDbText
  0
TEXT
  5
1382B
100
AcDbEntity
  8
6
100
AcDbText
 10
472.5
 20
8.5
 30
0.0
 40
3.0
  1

  7
STYLE1
100
AcDbText
  0
TEXT
  5
1382C
100
AcDbEntity
  8
6
100
AcDbText
 10
472.5
 20
8.5
 30
0.0
 40
3.0
  1

  7
STYLE1
100
AcDbText
  0
TEXT
  5
1382D
100
AcDbEntity
  8
6
100
AcDbText
 10
672.5
 20
8.5
 30
0.0
 40
3.0
  1

  7
STYLE1
100
AcDbText
  0
TEXT
  5
1382E
100
AcDbEntity
  8
6
100
AcDbText
 10
672.5
 20
8.5
 30
0.0
 40
3.0
  1

  7
STYLE1
100
AcDbText
  0
TEXT
  5
1382F
100
AcDbEntity
  8
6
100
AcDbText
 10
872.5
 20
8.5
 30
0.0
 40
3.0
  1

  7
STYLE1
100
AcDbText
  0
TEXT
  5
13830
100
AcDbEntity
  8
6
100
AcDbText
 10
472.5
 20
8.5
 30
0.0
 40
3.0
  1

  7
STYLE1
100
AcDbText
  0
TEXT
  5
13831
100
AcDbEntity
  8
6
100
AcDbText
 10
672.5
 20
8.5
 30
0.0
 40
3.0
  1

  7
STYLE1
100
AcDbText
  0
TEXT
  5
13832
100
AcDbEntity
  8
6
100
AcDbText
 10
672.5
 20
8.5
 30
0.0
 40
3.0
  1

  7
STYLE1
100
AcDbText
  0
TEXT
  5
13833
100
AcDbEntity
  8
6
100
AcDbText
 10
872.5
 20
8.5
 30
0.0
 40
3.0
  1

  7
STYLE1
100
AcDbText
  0
TEXT
  5
13839
100
AcDbEntity
  8
6
100
AcDbText
 10
472.5
 20
8.5
 30
0.0
 40
3.0
  1

  7
STYLE1
100
AcDbText
  0
TEXT
  5
13865
100
AcDbEntity
  8
6
100
AcDbText
 10
672.5
 20
8.5
 30
0.0
 40
3.0
  1

  7
STYLE1
100
AcDbText
  0
TEXT
  5
13866
100
AcDbEntity
  8
6
100
AcDbText
 10
672.5
 20
8.5
 30
0.0
 40
3.0
  1

  7
STYLE1
100
AcDbText
  0
TEXT
  5
13867
100
AcDbEntity
  8
6
100
AcDbText
 10
872.5
 20
8.5
 30
0.0
 40
3.0
  1

  7
STYLE1
100
AcDbText
  0
TEXT
  5
13868
100
AcDbEntity
  8
6
100
AcDbText
 10
872.5
 20
8.5
 30
0.0
 40
3.0
  1

  7
STYLE1
100
AcDbText
  0
TEXT
  5
13869
100
AcDbEntity
  8
6
100
AcDbText
 10
1072.5
 20
8.5
 30
0.0
 40
3.0
  1

  7
STYLE1
100
AcDbText
  0
TEXT
  5
1386A
100
AcDbEntity
  8
6
100
AcDbText
 10
672.5
 20
8.5
 30
0.0
 40
3.0
  1

  7
STYLE1
100
AcDbText
  0
TEXT
  5
1386B
100
AcDbEntity
  8
6
100
AcDbText
 10
872.5
 20
8.5
 30
0.0
 40
3.0
  1

  7
STYLE1
100
AcDbText
  0
TEXT
  5
1386C
100
AcDbEntity
  8
6
100
AcDbText
 10
872.5
 20
8.5
 30
0.0
 40
3.0
  1

  7
STYLE1
100
AcDbText
  0
TEXT
  5
1386D
100
AcDbEntity
  8
6
100
AcDbText
 10
1072.5
 20
8.5
 30
0.0
 40
3.0
  1

  7
STYLE1
100
AcDbText
  0
TEXT
  5
13E29
100
AcDbEntity
  8
6
100
AcDbText
 10
272.5
 20
8.5
 30
0.0
 40
3.0
  1

  7
STYLE1
100
AcDbText
  0
TEXT
  5
13E55
100
AcDbEntity
  8
6
100
AcDbText
 10
472.5
 20
8.5
 30
0.0
 40
3.0
  1

  7
STYLE1
100
AcDbText
  0
TEXT
  5
13E56
100
AcDbEntity
  8
6
100
AcDbText
 10
472.5
 20
8.5
 30
0.0
 40
3.0
  1

  7
STYLE1
100
AcDbText
  0
TEXT
  5
13E57
100
AcDbEntity
  8
6
100
AcDbText
 10
672.5
 20
8.5
 30
0.0
 40
3.0
  1

  7
STYLE1
100
AcDbText
  0
TEXT
  5
13E58
100
AcDbEntity
  8
6
100
AcDbText
 10
672.5
 20
8.5
 30
0.0
 40
3.0
  1

  7
STYLE1
100
AcDbText
  0
TEXT
  5
13E59
100
AcDbEntity
  8
6
100
AcDbText
 10
872.5
 20
8.5
 30
0.0
 40
3.0
  1

  7
STYLE1
100
AcDbText
  0
TEXT
  5
13E5A
100
AcDbEntity
  8
6
100
AcDbText
 10
472.5
 20
8.5
 30
0.0
 40
3.0
  1

  7
STYLE1
100
AcDbText
  0
TEXT
  5
13E5B
100
AcDbEntity
  8
6
100
AcDbText
 10
672.5
 20
8.5
 30
0.0
 40
3.0
  1

  7
STYLE1
100
AcDbText
  0
TEXT
  5
13E5C
100
AcDbEntity
  8
6
100
AcDbText
 10
672.5
 20
8.5
 30
0.0
 40
3.0
  1

  7
STYLE1
100
AcDbText
  0
TEXT
  5
13E5D
100
AcDbEntity
  8
6
100
AcDbText
 10
872.5
 20
8.5
 30
0.0
 40
3.0
  1

  7
STYLE1
100
AcDbText
  0
TEXT
  5
13EAD
100
AcDbEntity
  8
6
100
AcDbText
 10
472.5
 20
8.5
 30
0.0
 40
3.0
  1

  7
STYLE1
100
AcDbText
  0
TEXT
  5
13EAE
100
AcDbEntity
  8
6
100
AcDbText
 10
672.5
 20
8.5
 30
0.0
 40
3.0
  1

  7
STYLE1
100
AcDbText
  0
TEXT
  5
13EAF
100
AcDbEntity
  8
6
100
AcDbText
 10
672.5
 20
8.5
 30
0.0
 40
3.0
  1

  7
STYLE1
100
AcDbText
  0
TEXT
  5
13EB0
100
AcDbEntity
  8
6
100
AcDbText
 10
872.5
 20
8.5
 30
0.0
 40
3.0
  1

  7
STYLE1
100
AcDbText
  0
TEXT
  5
13EB1
100
AcDbEntity
  8
6
100
AcDbText
 10
872.5
 20
8.5
 30
0.0
 40
3.0
  1

  7
STYLE1
100
AcDbText
  0
TEXT
  5
13EB2
100
AcDbEntity
  8
6
100
AcDbText
 10
1072.5
 20
8.5
 30
0.0
 40
3.0
  1

  7
STYLE1
100
AcDbText
  0
TEXT
  5
13EB3
100
AcDbEntity
  8
6
100
AcDbText
 10
672.5
 20
8.5
 30
0.0
 40
3.0
  1

  7
STYLE1
100
AcDbText
  0
TEXT
  5
13EB4
100
AcDbEntity
  8
6
100
AcDbText
 10
872.5
 20
8.5
 30
0.0
 40
3.0
  1

  7
STYLE1
100
AcDbText
  0
TEXT
  5
13EB5
100
AcDbEntity
  8
6
100
AcDbText
 10
872.5
 20
8.5
 30
0.0
 40
3.0
  1

  7
STYLE1
100
AcDbText
  0
TEXT
  5
13EB6
100
AcDbEntity
  8
6
100
AcDbText
 10
1072.5
 20
8.5
 30
0.0
 40
3.0
  1

  7
STYLE1
100
AcDbText
  0
TEXT
  5
13EB7
100
AcDbEntity
  8
6
100
AcDbText
 10
672.5
 20
8.5
 30
0.0
 40
3.0
  1

  7
STYLE1
100
AcDbText
  0
TEXT
  5
13EB8
100
AcDbEntity
  8
6
100
AcDbText
 10
872.5
 20
8.5
 30
0.0
 40
3.0
  1

  7
STYLE1
100
AcDbText
  0
TEXT
  5
13EB9
100
AcDbEntity
  8
6
100
AcDbText
 10
872.5
 20
8.5
 30
0.0
 40
3.0
  1

  7
STYLE1
100
AcDbText
  0
TEXT
  5
13EBA
100
AcDbEntity
  8
6
100
AcDbText
 10
1072.5
 20
8.5
 30
0.0
 40
3.0
  1

  7
STYLE1
100
AcDbText
  0
TEXT
  5
13EBB
100
AcDbEntity
  8
6
100
AcDbText
 10
1072.5
 20
8.5
 30
0.0
 40
3.0
  1

  7
STYLE1
100
AcDbText
  0
TEXT
  5
13EBC
100
AcDbEntity
  8
6
100
AcDbText
 10
1272.5
 20
8.5
 30
0.0
 40
3.0
  1

  7
STYLE1
100
AcDbText
  0
TEXT
  5
13EBD
100
AcDbEntity
  8
6
100
AcDbText
 10
872.5
 20
8.5
 30
0.0
 40
3.0
  1

  7
STYLE1
100
AcDbText
  0
TEXT
  5
13EBE
100
AcDbEntity
  8
6
100
AcDbText
 10
1072.5
 20
8.5
 30
0.0
 40
3.0
  1

  7
STYLE1
100
AcDbText
  0
TEXT
  5
13EBF
100
AcDbEntity
  8
6
100
AcDbText
 10
1072.5
 20
8.5
 30
0.0
 40
3.0
  1

  7
STYLE1
100
AcDbText
  0
TEXT
  5
13EC0
100
AcDbEntity
  8
6
100
AcDbText
 10
1272.5
 20
8.5
 30
0.0
 40
3.0
  1

  7
STYLE1
100
AcDbText
  0
TEXT
  5
13ED1
100
AcDbEntity
  8
6
100
AcDbText
 10
472.5
 20
8.5
 30
0.0
 40
3.0
  1

  7
STYLE1
100
AcDbText
  0
TEXT
  5
13ED2
100
AcDbEntity
  8
6
100
AcDbText
 10
672.5
 20
8.5
 30
0.0
 40
3.0
  1

  7
STYLE1
100
AcDbText
  0
TEXT
  5
13ED3
100
AcDbEntity
  8
6
100
AcDbText
 10
672.5
 20
8.5
 30
0.0
 40
3.0
  1

  7
STYLE1
100
AcDbText
  0
TEXT
  5
13ED4
100
AcDbEntity
  8
6
100
AcDbText
 10
872.5
 20
8.5
 30
0.0
 40
3.0
  1

  7
STYLE1
100
AcDbText
  0
TEXT
  5
13ED5
100
AcDbEntity
  8
6
100
AcDbText
 10
872.5
 20
8.5
 30
0.0
 40
3.0
  1

  7
STYLE1
100
AcDbText
  0
TEXT
  5
13ED6
100
AcDbEntity
  8
6
100
AcDbText
 10
1072.5
 20
8.5
 30
0.0
 40
3.0
  1

  7
STYLE1
100
AcDbText
  0
TEXT
  5
13ED7
100
AcDbEntity
  8
6
100
AcDbText
 10
672.5
 20
8.5
 30
0.0
 40
3.0
  1

  7
STYLE1
100
AcDbText
  0
TEXT
  5
13ED8
100
AcDbEntity
  8
6
100
AcDbText
 10
872.5
 20
8.5
 30
0.0
 40
3.0
  1

  7
STYLE1
100
AcDbText
  0
TEXT
  5
13ED9
100
AcDbEntity
  8
6
100
AcDbText
 10
872.5
 20
8.5
 30
0.0
 40
3.0
  1

  7
STYLE1
100
AcDbText
  0
TEXT
  5
13EDA
100
AcDbEntity
  8
6
100
AcDbText
 10
1072.5
 20
8.5
 30
0.0
 40
3.0
  1

  7
STYLE1
100
AcDbText
  0
TEXT
  5
13EDB
100
AcDbEntity
  8
6
100
AcDbText
 10
672.5
 20
8.5
 30
0.0
 40
3.0
  1

  7
STYLE1
100
AcDbText
  0
TEXT
  5
13EDC
100
AcDbEntity
  8
6
100
AcDbText
 10
872.5
 20
8.5
 30
0.0
 40
3.0
  1

  7
STYLE1
100
AcDbText
  0
TEXT
  5
13EDD
100
AcDbEntity
  8
6
100
AcDbText
 10
872.5
 20
8.5
 30
0.0
 40
3.0
  1

  7
STYLE1
100
AcDbText
  0
TEXT
  5
13EDE
100
AcDbEntity
  8
6
100
AcDbText
 10
1072.5
 20
8.5
 30
0.0
 40
3.0
  1

  7
STYLE1
100
AcDbText
  0
TEXT
  5
13EDF
100
AcDbEntity
  8
6
100
AcDbText
 10
1072.5
 20
8.5
 30
0.0
 40
3.0
  1

  7
STYLE1
100
AcDbText
  0
TEXT
  5
13EE0
100
AcDbEntity
  8
6
100
AcDbText
 10
1272.5
 20
8.5
 30
0.0
 40
3.0
  1

  7
STYLE1
100
AcDbText
  0
TEXT
  5
13EE1
100
AcDbEntity
  8
6
100
AcDbText
 10
872.5
 20
8.5
 30
0.0
 40
3.0
  1

  7
STYLE1
100
AcDbText
  0
TEXT
  5
13EE2
100
AcDbEntity
  8
6
100
AcDbText
 10
1072.5
 20
8.5
 30
0.0
 40
3.0
  1

  7
STYLE1
100
AcDbText
  0
TEXT
  5
13EE3
100
AcDbEntity
  8
6
100
AcDbText
 10
1072.5
 20
8.5
 30
0.0
 40
3.0
  1

  7
STYLE1
100
AcDbText
  0
TEXT
  5
13EE4
100
AcDbEntity
  8
6
100
AcDbText
 10
1272.5
 20
8.5
 30
0.0
 40
3.0
  1

  7
STYLE1
100
AcDbText
  0
TEXT
  5
13EFE
100
AcDbEntity
  8
6
100
AcDbText
 10
472.5
 20
8.5
 30
0.0
 40
3.0
  1

  7
STYLE1
100
AcDbText
  0
TEXT
  5
13EFF
100
AcDbEntity
  8
6
100
AcDbText
 10
672.5
 20
8.5
 30
0.0
 40
3.0
  1

  7
STYLE1
100
AcDbText
  0
TEXT
  5
13F00
100
AcDbEntity
  8
6
100
AcDbText
 10
672.5
 20
8.5
 30
0.0
 40
3.0
  1

  7
STYLE1
100
AcDbText
  0
TEXT
  5
13F01
100
AcDbEntity
  8
6
100
AcDbText
 10
872.5
 20
8.5
 30
0.0
 40
3.0
  1

  7
STYLE1
100
AcDbText
  0
TEXT
  5
13F02
100
AcDbEntity
  8
6
100
AcDbText
 10
872.5
 20
8.5
 30
0.0
 40
3.0
  1

  7
STYLE1
100
AcDbText
  0
TEXT
  5
13F03
100
AcDbEntity
  8
6
100
AcDbText
 10
1072.5
 20
8.5
 30
0.0
 40
3.0
  1

  7
STYLE1
100
AcDbText
  0
TEXT
  5
13F04
100
AcDbEntity
  8
6
100
AcDbText
 10
672.5
 20
8.5
 30
0.0
 40
3.0
  1

  7
STYLE1
100
AcDbText
  0
TEXT
  5
13F05
100
AcDbEntity
  8
6
100
AcDbText
 10
872.5
 20
8.5
 30
0.0
 40
3.0
  1

  7
STYLE1
100
AcDbText
  0
TEXT
  5
13F06
100
AcDbEntity
  8
6
100
AcDbText
 10
872.5
 20
8.5
 30
0.0
 40
3.0
  1

  7
STYLE1
100
AcDbText
  0
TEXT
  5
13F07
100
AcDbEntity
  8
6
100
AcDbText
 10
1072.5
 20
8.5
 30
0.0
 40
3.0
  1

  7
STYLE1
100
AcDbText
  0
TEXT
  5
13F08
100
AcDbEntity
  8
6
100
AcDbText
 10
672.5
 20
8.5
 30
0.0
 40
3.0
  1

  7
STYLE1
100
AcDbText
  0
TEXT
  5
13F09
100
AcDbEntity
  8
6
100
AcDbText
 10
872.5
 20
8.5
 30
0.0
 40
3.0
  1

  7
STYLE1
100
AcDbText
  0
TEXT
  5
13F0A
100
AcDbEntity
  8
6
100
AcDbText
 10
872.5
 20
8.5
 30
0.0
 40
3.0
  1

  7
STYLE1
100
AcDbText
  0
TEXT
  5
13F0B
100
AcDbEntity
  8
6
100
AcDbText
 10
1072.5
 20
8.5
 30
0.0
 40
3.0
  1

  7
STYLE1
100
AcDbText
  0
TEXT
  5
13F0C
100
AcDbEntity
  8
6
100
AcDbText
 10
1072.5
 20
8.5
 30
0.0
 40
3.0
  1

  7
STYLE1
100
AcDbText
  0
TEXT
  5
13F0D
100
AcDbEntity
  8
6
100
AcDbText
 10
1272.5
 20
8.5
 30
0.0
 40
3.0
  1

  7
STYLE1
100
AcDbText
  0
TEXT
  5
13F0E
100
AcDbEntity
  8
6
100
AcDbText
 10
872.5
 20
8.5
 30
0.0
 40
3.0
  1

  7
STYLE1
100
AcDbText
  0
TEXT
  5
13F0F
100
AcDbEntity
  8
6
100
AcDbText
 10
1072.5
 20
8.5
 30
0.0
 40
3.0
  1

  7
STYLE1
100
AcDbText
  0
TEXT
  5
13F10
100
AcDbEntity
  8
6
100
AcDbText
 10
1072.5
 20
8.5
 30
0.0
 40
3.0
  1

  7
STYLE1
100
AcDbText
  0
TEXT
  5
13F11
100
AcDbEntity
  8
6
100
AcDbText
 10
1272.5
 20
8.5
 30
0.0
 40
3.0
  1

  7
STYLE1
100
AcDbText
  0
TEXT
  5
13F12
100
AcDbEntity
  8
6
100
AcDbText
 10
872.5
 20
8.5
 30
0.0
 40
3.0
  1

  7
STYLE1
100
AcDbText
  0
TEXT
  5
13F13
100
AcDbEntity
  8
6
100
AcDbText
 10
1072.5
 20
8.5
 30
0.0
 40
3.0
  1

  7
STYLE1
100
AcDbText
  0
TEXT
  5
13F14
100
AcDbEntity
  8
6
100
AcDbText
 10
1072.5
 20
8.5
 30
0.0
 40
3.0
  1

  7
STYLE1
100
AcDbText
  0
TEXT
  5
13F15
100
AcDbEntity
  8
6
100
AcDbText
 10
1272.5
 20
8.5
 30
0.0
 40
3.0
  1

  7
STYLE1
100
AcDbText
  0
TEXT
  5
13F16
100
AcDbEntity
  8
6
100
AcDbText
 10
1272.5
 20
8.5
 30
0.0
 40
3.0
  1

  7
STYLE1
100
AcDbText
  0
TEXT
  5
13F17
100
AcDbEntity
  8
6
100
AcDbText
 10
1472.5
 20
8.5
 30
0.0
 40
3.0
  1

  7
STYLE1
100
AcDbText
  0
TEXT
  5
13F18
100
AcDbEntity
  8
6
100
AcDbText
 10
1072.5
 20
8.5
 30
0.0
 40
3.0
  1

  7
STYLE1
100
AcDbText
  0
TEXT
  5
13F19
100
AcDbEntity
  8
6
100
AcDbText
 10
1272.5
 20
8.5
 30
0.0
 40
3.0
  1

  7
STYLE1
100
AcDbText
  0
TEXT
  5
13F1A
100
AcDbEntity
  8
6
100
AcDbText
 10
1272.5
 20
8.5
 30
0.0
 40
3.0
  1

  7
STYLE1
100
AcDbText
  0
TEXT
  5
13F1B
100
AcDbEntity
  8
6
100
AcDbText
 10
1472.5
 20
8.5
 30
0.0
 40
3.0
  1

  7
STYLE1
100
AcDbText
  0
TEXT
  5
15AAF
100
AcDbEntity
  8
SK6
100
AcDbText
 10
79.938468
 20
121.365588
 30
0.0
 40
3.0
  1
N9MT05T1RC075 NC2071
  7
STYLE1
100
AcDbText
  0
INSERT
  5
15ADC
100
AcDbEntity
  8
0
100
AcDbBlockReference
  2
A$C5A2B3BA8
 10
0.0
 20
0.0
 30
0.0
  0
POINT
  5
15ADD
100
AcDbEntity
  8
0
100
AcDbPoint
 10
0.0
 20
0.0
 30
0.0
  0
LINE
  5
15C22
100
AcDbEntity
  8
CUT
  6
CONTINUOUS
100
AcDbLine
 10
98.95053
 20
141.585034
 30
0.0
 11
97.681459
 21
142.854069
 31
0.0
1001
ACAD
1000
RTLwPs
1070
   132
  0
LINE
  5
15C23
100
AcDbEntity
  8
CUT
  6
CONTINUOUS
100
AcDbLine
 10
94.318528
 20
142.854068
 30
0.0
 11
93.049462
 21
141.584966
 31
0.0
1001
ACAD
1000
RTLwPs
1070
   132
  0
LINE
  5
15C27
100
AcDbEntity
  8
CUT
  6
CONTINUOUS
100
AcDbLine
 10
93.049462
 20
140.414966
 30
0.0
 11
94.318533
 21
139.145932
 31
0.0
1001
ACAD
1000
RTLwPs
1070
   132
  0
LINE
  5
15C28
100
AcDbEntity
  8
CUT
  6
CONTINUOUS
100
AcDbLine
 10
93.049462
 20
141.584966
 30
0.0
 11
93.049462
 21
140.414966
 31
0.0
1001
ACAD
1000
RTLwPs
1070
   132
  0
LINE
  5
15C29
100
AcDbEntity
  8
CUT
  6
CONTINUOUS
100
AcDbLine
 10
97.681464
 20
139.145932
 30
0.0
 11
98.95053
 21
140.415034
 31
0.0
1001
ACAD
1000
RTLwPs
1070
   132
  0
ARC
  5
15C2A
100
AcDbEntity
  8
CUT
  6
CONTINUOUS
100
AcDbCircle
 10
97.4
 20
138.380152
 30
0.0
 40
0.75
100
AcDbArc
 50
93.0
 51
177.0
  0
ARC
  5
15C2B
100
AcDbEntity
  8
CUT
  6
CONTINUOUS
100
AcDbCircle
 10
94.6
 20
138.380152
 30
0.0
 40
0.75
100
AcDbArc
 50
3.0
 51
87.0
  0
LINE
  5
15C2C
100
AcDbEntity
  8
CUT
  6
CONTINUOUS
100
AcDbLine
 10
95.36578
 20
138.098686
 30
0.0
 11
95.717157
 21
137.747309
 31
0.0
  0
LINE
  5
15C2D
100
AcDbEntity
  8
CUT
  6
CONTINUOUS
100
AcDbLine
 10
95.348972
 20
138.419403
 30
0.0
 11
95.36578
 21
138.098686
 31
0.0
  0
LINE
  5
15C2E
100
AcDbEntity
  8
CUT
  6
CONTINUOUS
100
AcDbLine
 10
96.651028
 20
138.419403
 30
0.0
 11
96.634218
 21
138.098655
 31
0.0
  0
LINE
  5
15C2F
100
AcDbEntity
  8
CUT
  6
CONTINUOUS
100
AcDbLine
 10
94.639252
 20
139.129124
 30
0.0
 11
94.318533
 21
139.145932
 31
0.0
  0
ARC
  5
15C30
100
AcDbEntity
  8
CUT
  6
CONTINUOUS
100
AcDbCircle
 10
96.000039
 20
138.030152
 30
0.0
 40
0.4
100
AcDbArc
 50
225.000822
 51
315.000822
1001
ACAD
1000
RTLwPs
1070
   132
  0
LINE
  5
15C31
100
AcDbEntity
  8
CUT
  6
CONTINUOUS
100
AcDbLine
 10
96.282886
 20
137.747313
 30
0.0
 11
96.634218
 21
138.098655
 31
0.0
1001
ACAD
1000
RTLwPs
1070
   132
  0
LINE
  5
15C32
100
AcDbEntity
  8
CUT
  6
CONTINUOUS
100
AcDbLine
 10
97.360748
 20
139.129124
 30
0.0
 11
97.681466
 21
139.145932
 31
0.0
  0
LINE
  5
15C34
100
AcDbEntity
  8
CUT
  6
CONTINUOUS
100
AcDbLine
 10
98.95053
 20
140.415034
 30
0.0
 11
98.95053
 21
141.585034
 31
0.0
1001
ACAD
1000
RTLwPs
1070
   132
  0
ARC
  5
15C35
100
AcDbEntity
  8
CUT
  6
CONTINUOUS
100
AcDbCircle
 10
97.4
 20
143.619848
 30
0.0
 40
0.75
100
AcDbArc
 50
183.0
 51
267.0
  0
ARC
  5
15C36
100
AcDbEntity
  8
CUT
  6
CONTINUOUS
100
AcDbCircle
 10
96.0
 20
143.969848
 30
0.0
 40
0.4
100
AcDbArc
 50
45.0
 51
135.0
  0
LINE
  5
15C37
100
AcDbEntity
  8
CUT
  6
CONTINUOUS
100
AcDbLine
 10
96.651028
 20
143.580597
 30
0.0
 11
96.63422
 21
143.901314
 31
0.0
  0
LINE
  5
15C38
100
AcDbEntity
  8
CUT
  6
CONTINUOUS
100
AcDbLine
 10
95.348972
 20
143.580597
 30
0.0
 11
95.36578
 21
143.901314
 31
0.0
  0
ARC
  5
15C39
100
AcDbEntity
  8
CUT
  6
CONTINUOUS
100
AcDbCircle
 10
94.6
 20
143.619848
 30
0.0
 40
0.75
100
AcDbArc
 50
273.0
 51
357.0
  0
LINE
  5
15C3A
100
AcDbEntity
  8
CUT
  6
CONTINUOUS
100
AcDbLine
 10
94.639252
 20
142.870876
 30
0.0
 11
94.318528
 21
142.854068
 31
0.0
  0
LINE
  5
15C3B
100
AcDbEntity
  8
CUT
  6
CONTINUOUS
100
AcDbLine
 10
96.63422
 20
143.901314
 30
0.0
 11
96.282843
 21
144.252691
 31
0.0
  0
LINE
  5
15C3C
100
AcDbEntity
  8
CUT
  6
CONTINUOUS
100
AcDbLine
 10
95.717157
 20
144.252691
 30
0.0
 11
95.36578
 21
143.901314
 31
0.0
  0
LINE
  5
15C3D
100
AcDbEntity
  8
CUT
  6
CONTINUOUS
100
AcDbLine
 10
97.360748
 20
142.870876
 30
0.0
 11
97.681459
 21
142.854069
 31
0.0
  0
LINE
  5
15C3E
100
AcDbEntity
  8
4
100
AcDbLine
 10
97.150037
 20
141.0
 30
0.0
 11
94.850028
 21
141.0
 31
0.0
  0
HATCH
  5
15C3F
100
AcDbEntity
  8
2
100
AcDbHatch
 10
0.0
 20
0.0
 30
0.0
210
0.0
220
0.0
230
1.0
  2
ANSI31
 70
     0
 71
     1
 91
        2
 92
        7
 72
     1
 73
     1
 93
        3
 10
96.00000000000001
 20
141.6249999999999
 42
0.4142135623730951
 10
95.37499999999999
 20
140.9999999999999
 42
0.0
 10
96.00000000000001
 20
140.9999999999999
 42
0.0
 97
        3
330
15C43
330
15C42
330
15C40
 92
        7
 72
     1
 73
     1
 93
        3
 10
96.00000000000001
 20
140.375
 42
0.4142135623730951
 10
96.62500000000001
 20
140.9999999999999
 42
0.0
 10
96.00000000000001
 20
140.9999999999999
 42
0.0
 97
        3
330
15C42
330
15C40
330
15C43
 75
     0
 76
     1
 52
0.0
 41
0.5
 77
     0
 78
     1
 53
45.0
 43
49.29471
 44
86.892588
 45
-0.0441941738241592
 46
0.0441941738241592
 79
     0
 47
0.01145
 98
        2
 10
95.859669
 20
141.383382
 10
96.128875
 20
140.713538
  0
LINE
  5
15C40
102
{ACAD_REACTORS
330
15C3F
102
}
100
AcDbEntity
  8
2
100
AcDbLine
 10
96.0
 20
141.625
 30
0.0
 11
96.0
 21
140.375
 31
0.0
  0
LINE
  5
15C41
100
AcDbEntity
  8
4
100
AcDbLine
 10
96.0
 20
139.849995
 30
0.0
 11
96.0
 21
142.150005
 31
0.0
  0
LINE
  5
15C42
102
{ACAD_REACTORS
330
15C3F
102
}
100
AcDbEntity
  8
2
100
AcDbLine
 10
95.375
 20
141.0
 30
0.0
 11
96.625
 21
141.0
 31
0.0
  0
CIRCLE
  5
15C43
102
{ACAD_REACTORS
330
15C3F
102
}
100
AcDbEntity
  8
2
100
AcDbCircle
 10
96.0
 20
141.0
 30
0.0
 40
0.625
  0
ENDSEC
  0
SECTION
  2
OBJECTS
  0
DICTIONARY
  5
C
100
AcDbDictionary
  3
ACAD_GROUP
350
D
  3
ACAD_MLINESTYLE
350
1A
  3
ACDBVARIABLEDICTIONARY
350
39
  0
DICTIONARY
  5
D
102
{ACAD_REACTORS
330
C
102
}
100
AcDbDictionary
  0
DICTIONARY
  5
1A
102
{ACAD_REACTORS
330
C
102
}
100
AcDbDictionary
  3
STANDARD
350
1B
  0
DICTIONARY
  5
39
102
{ACAD_REACTORS
330
C
102
}
100
AcDbDictionary
  3
DIMADEC
350
3A
  3
SORTENTS
350
316C
  0
MLINESTYLE
  5
1B
102
{ACAD_REACTORS
330
1A
102
}
100
AcDbMlineStyle
  2
STANDARD
 70
     0
  3

 62
   256
 51
90.0
 52
90.0
 71
     2
 49
0.5
 62
   256
  6
BYLAYER
 49
-0.5
 62
   256
  6
BYLAYER
  0
DICTIONARYVAR
  5
3A
102
{ACAD_REACTORS
330
39
102
}
100
DictionaryVariables
280
     0
  1
3
  0
DICTIONARYVAR
  5
316C
102
{ACAD_REACTORS
330
39
102
}
100
DictionaryVariables
280
     0
  1
96
  0
ENDSEC
  0
EOF
