  0
SECTION
  2
HEADER
  9
$ACADVER
  1
AC1014
  9
$ACADMAINTVER
 70
     0
  9
$DWGCODEPAGE
  3
ANSI_950
  9
$INSBASE
 10
0.0
 20
0.0
 30
0.0
  9
$EXTMIN
 10
74.206238
 20
113.559358
 30
0.0
  9
$EXTMAX
 10
147.521668
 20
169.9
 30
0.0
  9
$LIMMIN
 10
0.0
 20
0.0
  9
$LIMMAX
 10
210.0
 20
297.0
  9
$ORTHOMODE
 70
     0
  9
$REGENMODE
 70
     1
  9
$FILLMODE
 70
     1
  9
$QTEXTMODE
 70
     0
  9
$MIRRTEXT
 70
     1
  9
$DRAGMODE
 70
     2
  9
$LTSCALE
 40
0.5
  9
$OSMODE
 70
    59
  9
$ATTMODE
 70
     1
  9
$TEXTSIZE
 40
2.5
  9
$TRACEWID
 40
1.0
  9
$TEXTSTYLE
  7
STYLE1
  9
$CLAYER
  8
2
  9
$CELTYPE
  6
BYLAYER
  9
$CECOLOR
 62
   256
  9
$CELTSCALE
 40
1.0
  9
$DELOBJ
 70
     1
  9
$DISPSILH
 70
     0
  9
$DIMSCALE
 40
1.0
  9
$DIMASZ
 40
1.0
  9
$DIMEXO
 40
0.5
  9
$DIMDLI
 40
0.5
  9
$DIMRND
 40
0.0
  9
$DIMDLE
 40
0.0
  9
$DIMEXE
 40
0.5
  9
$DIMTP
 40
0.05
  9
$DIMTM
 40
0.0
  9
$DIMTXT
 40
1.0
  9
$DIMCEN
 40
0.0
  9
$DIMTSZ
 40
0.0
  9
$DIMTOL
 70
     0
  9
$DIMLIM
 70
     0
  9
$DIMTIH
 70
     0
  9
$DIMTOH
 70
     0
  9
$DIMSE1
 70
     0
  9
$DIMSE2
 70
     0
  9
$DIMTAD
 70
     1
  9
$DIMZIN
 70
     8
  9
$DIMBLK
  1

  9
$DIMASO
 70
     1
  9
$DIMSHO
 70
     1
  9
$DIMPOST
  1

  9
$DIMAPOST
  1

  9
$DIMALT
 70
     0
  9
$DIMALTD
 70
     4
  9
$DIMALTF
 40
0.0394
  9
$DIMLFAC
 40
1.0
  9
$DIMTOFL
 70
     1
  9
$DIMTVP
 40
0.0
  9
$DIMTIX
 70
     0
  9
$DIMSOXD
 70
     0
  9
$DIMSAH
 70
     0
  9
$DIMBLK1
  1

  9
$DIMBLK2
  1

  9
$DIMSTYLE
  2
STANDARD
  9
$DIMCLRD
 70
     0
  9
$DIMCLRE
 70
     0
  9
$DIMCLRT
 70
     0
  9
$DIMTFAC
 40
0.5
  9
$DIMGAP
 40
0.5
  9
$DIMJUST
 70
     0
  9
$DIMSD1
 70
     0
  9
$DIMSD2
 70
     0
  9
$DIMTOLJ
 70
     1
  9
$DIMTZIN
 70
     8
  9
$DIMALTZ
 70
     0
  9
$DIMALTTZ
 70
     0
  9
$DIMFIT
 70
     3
  9
$DIMUPT
 70
     0
  9
$DIMUNIT
 70
     8
  9
$DIMDEC
 70
     2
  9
$DIMTDEC
 70
     2
  9
$DIMALTU
 70
     8
  9
$DIMALTTD
 70
     4
  9
$DIMTXSTY
  7
STANDARD
  9
$DIMAUNIT
 70
     0
  9
$LUNITS
 70
     2
  9
$LUPREC
 70
     2
  9
$SKETCHINC
 40
1.0
  9
$FILLETRAD
 40
1.0
  9
$AUNITS
 70
     0
  9
$AUPREC
 70
     2
  9
$MENU
  1
.
  9
$ELEVATION
 40
0.0
  9
$PELEVATION
 40
0.0
  9
$THICKNESS
 40
0.0
  9
$LIMCHECK
 70
     0
  9
$BLIPMODE
 70
     0
  9
$CHAMFERA
 40
0.0
  9
$CHAMFERB
 40
0.0
  9
$CHAMFERC
 40
20.0
  9
$CHAMFERD
 40
0.0
  9
$SKPOLY
 70
     1
  9
$TDCREATE
 40
2451241.939620023
  9
$TDUPDATE
 40
2457872.687180984
  9
$TDINDWG
 40
2.3912138773
  9
$TDUSRTIMER
 40
2.3912138773
  9
$USRTIMER
 70
     1
  9
$ANGBASE
 50
0.0
  9
$ANGDIR
 70
     0
  9
$PDMODE
 70
     0
  9
$PDSIZE
 40
0.0
  9
$PLINEWID
 40
0.0
  9
$COORDS
 70
     1
  9
$SPLFRAME
 70
     0
  9
$SPLINETYPE
 70
     6
  9
$SPLINESEGS
 70
     8
  9
$ATTDIA
 70
     0
  9
$ATTREQ
 70
     1
  9
$HANDLING
 70
     1
  9
$HANDSEED
  5
E1CB
  9
$SURFTAB1
 70
     6
  9
$SURFTAB2
 70
     6
  9
$SURFTYPE
 70
     6
  9
$SURFU
 70
     6
  9
$SURFV
 70
     6
  9
$UCSNAME
  2

  9
$UCSORG
 10
0.0
 20
0.0
 30
0.0
  9
$UCSXDIR
 10
1.0
 20
0.0
 30
0.0
  9
$UCSYDIR
 10
0.0
 20
1.0
 30
0.0
  9
$PUCSNAME
  2

  9
$PUCSORG
 10
0.0
 20
0.0
 30
0.0
  9
$PUCSXDIR
 10
1.0
 20
0.0
 30
0.0
  9
$PUCSYDIR
 10
0.0
 20
1.0
 30
0.0
  9
$USERI1
 70
     0
  9
$USERI2
 70
     0
  9
$USERI3
 70
     0
  9
$USERI4
 70
     0
  9
$USERI5
 70
     0
  9
$USERR1
 40
0.0
  9
$USERR2
 40
0.0
  9
$USERR3
 40
0.0
  9
$USERR4
 40
0.0
  9
$USERR5
 40
0.0
  9
$WORLDVIEW
 70
     1
  9
$SHADEDGE
 70
     3
  9
$SHADEDIF
 70
    70
  9
$TILEMODE
 70
     1
  9
$MAXACTVP
 70
    48
  9
$PINSBASE
 10
0.0
 20
0.0
 30
0.0
  9
$PLIMCHECK
 70
     0
  9
$PEXTMIN
 10
1.000000E+20
 20
1.000000E+20
 30
1.000000E+20
  9
$PEXTMAX
 10
-1.000000E+20
 20
-1.000000E+20
 30
-1.000000E+20
  9
$PLIMMIN
 10
0.0
 20
0.0
  9
$PLIMMAX
 10
420.0
 20
297.0
  9
$UNITMODE
 70
     0
  9
$VISRETAIN
 70
     1
  9
$PLINEGEN
 70
     0
  9
$PSLTSCALE
 70
     1
  9
$TREEDEPTH
 70
  3020
  9
$PICKSTYLE
 70
     0
  9
$CMLSTYLE
  2
STANDARD
  9
$CMLJUST
 70
     0
  9
$CMLSCALE
 40
1.0
  9
$PROXYGRAPHICS
 70
     1
  9
$MEASUREMENT
 70
     0
  0
ENDSEC
  0
SECTION
  2
CLASSES
  0
CLASS
  1
DICTIONARYVAR
  2
AcDbDictionaryVar
  3
"AutoCAD"
 90
        0
280
     0
281
     0
  0
CLASS
  1
IDBUFFER
  2
AcDbIdBuffer
  3
"Acad"
 90
        0
280
     0
281
     0
  0
CLASS
  1
LWPOLYLINE
  2
AcDbPolyline
  3
"AutoCAD"
 90
        0
280
     0
281
     1
  0
CLASS
  1
HATCH
  2
AcDbHatch
  3
"ACAD_SEDONA"
 90
        0
280
     0
281
     1
  0
ENDSEC
  0
SECTION
  2
TABLES
  0
TABLE
  2
VPORT
  5
8
100
AcDbSymbolTable
 70
     4
  0
VPORT
  5
E1CA
100
AcDbSymbolTableRecord
100
AcDbViewportTableRecord
  2
*ACTIVE
 70
     0
 10
0.0
 20
0.0
 11
1.0
 21
1.0
 12
110.863953
 22
141.249024
 13
0.0
 23
0.0
 14
10.0
 24
10.0
 15
10.0
 25
10.0
 16
0.0
 26
0.0
 36
1.0
 17
0.0
 27
0.0
 37
0.0
 40
55.81086
 41
1.53446
 42
50.0
 43
0.0
 44
0.0
 50
0.0
 51
0.0
 71
     0
 72
 20000
 73
     1
 74
     1
 75
     0
 76
     0
 77
     0
 78
     0
  0
ENDTAB
  0
TABLE
  2
LTYPE
  5
5
100
AcDbSymbolTable
 70
     2
  0
LTYPE
  5
14
100
AcDbSymbolTableRecord
100
AcDbLinetypeTableRecord
  2
BYBLOCK
 70
     0
  3

 72
    65
 73
     0
 40
0.0
  0
LTYPE
  5
15
100
AcDbSymbolTableRecord
100
AcDbLinetypeTableRecord
  2
BYLAYER
 70
     0
  3

 72
    65
 73
     0
 40
0.0
  0
LTYPE
  5
16
100
AcDbSymbolTableRecord
100
AcDbLinetypeTableRecord
  2
CONTINUOUS
 70
     0
  3
Solid line
 72
    65
 73
     0
 40
0.0
  0
LTYPE
  5
88
100
AcDbSymbolTableRecord
100
AcDbLinetypeTableRecord
  2
CENTER
 70
     0
  3
Center ____ _ ____ _ ____ _ ____ _ ____ _ ____
 72
    65
 73
     4
 40
50.8
 49
31.75
 74
     0
 49
-6.35
 74
     0
 49
6.35
 74
     0
 49
-6.35
 74
     0
  0
ENDTAB
  0
TABLE
  2
LAYER
  5
2
100
AcDbSymbolTable
 70
    10
  0
LAYER
  5
F
100
AcDbSymbolTableRecord
100
AcDbLayerTableRecord
  2
0
 70
     0
 62
     7
  6
CONTINUOUS
  0
LAYER
  5
15A
100
AcDbSymbolTableRecord
100
AcDbLayerTableRecord
  2
1
 70
     0
 62
     4
  6
CONTINUOUS
  0
LAYER
  5
E051
100
AcDbSymbolTableRecord
100
AcDbLayerTableRecord
  2
4
 70
     0
 62
     2
  6
CENTER
  0
LAYER
  5
E052
100
AcDbSymbolTableRecord
100
AcDbLayerTableRecord
  2
CUT
 70
     0
 62
     1
  6
CONTINUOUS
  0
LAYER
  5
E053
100
AcDbSymbolTableRecord
100
AcDbLayerTableRecord
  2
2
 70
     0
 62
     7
  6
CONTINUOUS
  0
LAYER
  5
E054
100
AcDbSymbolTableRecord
100
AcDbLayerTableRecord
  2
SK6
 70
     0
 62
     5
  6
CONTINUOUS
  0
LAYER
  5
E093
100
AcDbSymbolTableRecord
100
AcDbLayerTableRecord
  2
BODY
 70
     0
 62
     7
  6
CONTINUOUS
  0
LAYER
  5
E094
100
AcDbSymbolTableRecord
100
AcDbLayerTableRecord
  2
CEN
 70
     0
 62
     4
  6
CENTER
  0
LAYER
  5
E095
100
AcDbSymbolTableRecord
100
AcDbLayerTableRecord
  2
DIM
 70
     0
 62
     2
  6
CONTINUOUS
  0
LAYER
  5
E137
100
AcDbSymbolTableRecord
100
AcDbLayerTableRecord
  2
BODY1
 70
     0
 62
     1
  6
CONTINUOUS
  0
ENDTAB
  0
TABLE
  2
STYLE
  5
3
100
AcDbSymbolTable
 70
     2
  0
STYLE
  5
10
100
AcDbSymbolTableRecord
100
AcDbTextStyleTableRecord
  2
STANDARD
 70
     0
 40
0.0
 41
1.0
 50
0.0
 71
     0
 42
2.5
  3
txt.shx
  4
chineset.shx
  0
STYLE
  5
1909
100
AcDbSymbolTableRecord
100
AcDbTextStyleTableRecord
  2
STYLE1
 70
     0
 40
3.0
 41
1.0
 50
0.0
 71
     0
 42
3.0
  3

  4

1001
ACAD
1000
標楷體
1071
    34881
  0
ENDTAB
  0
TABLE
  2
VIEW
  5
6
100
AcDbSymbolTable
 70
     0
  0
ENDTAB
  0
TABLE
  2
UCS
  5
7
100
AcDbSymbolTable
 70
     0
  0
ENDTAB
  0
TABLE
  2
APPID
  5
9
100
AcDbSymbolTable
 70
     1
  0
APPID
  5
11
100
AcDbSymbolTableRecord
100
AcDbRegAppTableRecord
  2
ACAD
 70
     0
  0
ENDTAB
  0
TABLE
  2
DIMSTYLE
  5
A
100
AcDbSymbolTable
 70
     1
  0
DIMSTYLE
105
1D
100
AcDbSymbolTableRecord
100
AcDbDimStyleTableRecord
  2
STANDARD
 70
     0
  3

  4

  5

  6

  7

 40
1.0
 41
2.5
 42
0.625
 43
3.75
 44
1.25
 45
0.0
 46
0.0
 47
0.0
 48
0.0
140
2.5
141
2.5
142
0.0
143
0.0394
144
1.0
145
0.0
146
1.0
147
0.625
 71
     0
 72
     0
 73
     0
 74
     0
 75
     0
 76
     0
 77
     1
 78
     8
170
     0
171
     4
172
     1
173
     0
174
     0
175
     0
176
     0
177
     0
178
     0
270
     8
271
     4
272
     4
273
     8
274
     4
340
10
275
     0
280
     0
281
     0
282
     0
283
     1
284
     0
285
     0
286
     0
287
     3
288
     0
  0
ENDTAB
  0
TABLE
  2
BLOCK_RECORD
  5
1
100
AcDbSymbolTable
 70
     4
  0
BLOCK_RECORD
  5
1A
100
AcDbSymbolTableRecord
100
AcDbBlockTableRecord
  2
*MODEL_SPACE
  0
BLOCK_RECORD
  5
17
100
AcDbSymbolTableRecord
100
AcDbBlockTableRecord
  2
*PAPER_SPACE
  0
BLOCK_RECORD
  5
E096
100
AcDbSymbolTableRecord
100
AcDbBlockTableRecord
  2
A$C1E8B6B29
  0
BLOCK_RECORD
  5
E0E1
100
AcDbSymbolTableRecord
100
AcDbBlockTableRecord
  2
A$C5FDD4189
  0
BLOCK_RECORD
  5
E138
100
AcDbSymbolTableRecord
100
AcDbBlockTableRecord
  2
A$C2EDA7AD5
  0
BLOCK_RECORD
  5
E17A
100
AcDbSymbolTableRecord
100
AcDbBlockTableRecord
  2
A$C3A4B3427
  0
ENDTAB
  0
ENDSEC
  0
SECTION
  2
BLOCKS
  0
BLOCK
  5
1B
100
AcDbEntity
  8
0
100
AcDbBlockBegin
  2
*MODEL_SPACE
 70
     0
 10
0.0
 20
0.0
 30
0.0
  3
*MODEL_SPACE
  1

  0
ENDBLK
  5
1C
100
AcDbEntity
  8
0
100
AcDbBlockEnd
  0
BLOCK
  5
18
100
AcDbEntity
 67
     1
  8
0
100
AcDbBlockBegin
  2
*PAPER_SPACE
 70
     0
 10
0.0
 20
0.0
 30
0.0
  3
*PAPER_SPACE
  1

  0
ENDBLK
  5
19
100
AcDbEntity
 67
     1
  8
0
100
AcDbBlockEnd
  0
BLOCK
  5
E0B7
100
AcDbEntity
  8
0
100
AcDbBlockBegin
  2
A$C1E8B6B29
 70
     0
 10
0.0
 20
0.0
 30
0.0
  3
A$C1E8B6B29
  1

  0
LINE
  5
E097
100
AcDbEntity
  8
CEN
100
AcDbLine
 10
8.0
 20
25.45
 30
0.0
 11
8.0
 21
0.0
 31
0.0
  0
LINE
  5
E098
100
AcDbEntity
  8
BODY
100
AcDbLine
 10
6.965
 20
3.434388
 30
0.0
 11
6.965
 21
1.597558
 31
0.0
  0
LINE
  5
E099
100
AcDbEntity
  8
BODY
100
AcDbLine
 10
9.035
 20
3.7
 30
0.0
 11
9.035
 21
1.597558
 31
0.0
  0
LINE
  5
E09A
100
AcDbEntity
  8
BODY
100
AcDbLine
 10
8.0
 20
1.0
 30
0.0
 11
6.965
 21
1.597558
 31
0.0
  0
LINE
  5
E09B
100
AcDbEntity
  8
BODY
100
AcDbLine
 10
8.0
 20
1.0
 30
0.0
 11
9.035
 21
1.597558
 31
0.0
  0
LINE
  5
E09C
100
AcDbEntity
  8
BODY
100
AcDbLine
 10
10.125
 20
19.842896
 30
0.0
 11
14.0
 21
17.605663
 31
0.0
  0
LINE
  5
E09D
100
AcDbEntity
  8
BODY
100
AcDbLine
 10
10.359077
 20
5.742249
 30
0.0
 11
14.0
 21
7.844337
 31
0.0
  0
LINE
  5
E09E
100
AcDbEntity
  8
CEN
 48
0.2
100
AcDbLine
 10
0.0
 20
12.725
 30
0.0
 11
16.0
 21
12.725
 31
0.0
  0
LINE
  5
E09F
100
AcDbEntity
  8
BODY
100
AcDbLine
 10
9.035
 20
21.75
 30
0.0
 11
10.125
 21
19.842896
 31
0.0
  0
LINE
  5
E0A0
100
AcDbEntity
  8
BODY
100
AcDbLine
 10
6.965
 20
21.75
 30
0.0
 11
5.875
 21
19.842896
 31
0.0
  0
ARC
  5
E0A1
100
AcDbEntity
  8
BODY
100
AcDbCircle
 10
1.0
 20
12.725
 30
0.0
 40
2.0
100
AcDbArc
 50
300.0
 51
60.0
  0
LINE
  5
E0A2
100
AcDbEntity
  8
CEN
 48
0.2
100
AcDbLine
 10
1.0
 20
13.725
 30
0.0
 11
1.0
 21
11.725
 31
0.0
  0
CIRCLE
  5
E0A3
100
AcDbEntity
  8
BODY
100
AcDbCircle
 10
8.0
 20
12.725
 30
0.0
 40
2.272172
  0
CIRCLE
  5
E0A4
100
AcDbEntity
  8
BODY
100
AcDbCircle
 10
8.0
 20
12.725
 30
0.0
 40
1.75
  0
LINE
  5
E0A5
100
AcDbEntity
  8
BODY
100
AcDbLine
 10
5.640923
 20
5.742249
 30
0.0
 11
2.0
 21
7.844337
 31
0.0
  0
LINE
  5
E0A6
100
AcDbEntity
  8
BODY
100
AcDbLine
 10
2.0
 20
10.992949
 30
0.0
 11
2.0
 21
7.844337
 31
0.0
  0
LINE
  5
E0A7
100
AcDbEntity
  8
BODY
100
AcDbLine
 10
6.833199
 20
3.930604
 30
0.0
 11
6.009122
 21
5.37244
 31
0.0
  0
ARC
  5
E0A8
100
AcDbEntity
  8
BODY
100
AcDbCircle
 10
5.965
 20
3.434388
 30
0.0
 40
1.0
100
AcDbArc
 50
0.0
 51
29.75
  0
ARC
  5
E0A9
100
AcDbEntity
  8
BODY
100
AcDbCircle
 10
5.140923
 20
4.876223
 30
0.0
 40
1.0
100
AcDbArc
 50
29.75
 51
60.0
  0
LINE
  5
E0AA
100
AcDbEntity
  8
BODY
100
AcDbLine
 10
9.035
 20
3.7
 30
0.0
 11
9.990878
 21
5.37244
 31
0.0
  0
ARC
  5
E0AB
100
AcDbEntity
  8
BODY
100
AcDbCircle
 10
10.035
 20
3.434388
 30
0.0
 40
1.0
100
AcDbArc
 50
150.25
 51
180.0
  0
ARC
  5
E0AC
100
AcDbEntity
  8
BODY
100
AcDbCircle
 10
10.859077
 20
4.876223
 30
0.0
 40
1.0
100
AcDbArc
 50
120.0
 51
150.25
  0
LINE
  5
E0AD
100
AcDbEntity
  8
BODY
100
AcDbLine
 10
5.875
 20
19.842896
 30
0.0
 11
2.0
 21
17.605663
 31
0.0
  0
LINE
  5
E0AE
100
AcDbEntity
  8
BODY
100
AcDbLine
 10
2.0
 20
17.605663
 30
0.0
 11
2.0
 21
14.457051
 31
0.0
  0
LINE
  5
E0AF
100
AcDbEntity
  8
BODY
100
AcDbLine
 10
8.0
 20
24.45
 30
0.0
 11
6.965
 21
23.852442
 31
0.0
  0
LINE
  5
E0B0
100
AcDbEntity
  8
BODY
100
AcDbLine
 10
6.965
 20
21.75
 30
0.0
 11
6.965
 21
23.852442
 31
0.0
  0
LINE
  5
E0B1
100
AcDbEntity
  8
BODY
100
AcDbLine
 10
8.0
 20
24.45
 30
0.0
 11
9.035
 21
23.852442
 31
0.0
  0
LINE
  5
E0B2
100
AcDbEntity
  8
BODY
100
AcDbLine
 10
9.035
 20
21.75
 30
0.0
 11
9.035
 21
23.852442
 31
0.0
  0
LINE
  5
E0B3
100
AcDbEntity
  8
CEN
 48
0.2
100
AcDbLine
 10
15.0
 20
13.725
 30
0.0
 11
15.0
 21
11.725
 31
0.0
  0
ARC
  5
E0B4
100
AcDbEntity
  8
BODY
100
AcDbCircle
 10
15.0
 20
12.725
 30
0.0
 40
2.0
100
AcDbArc
 50
120.0
 51
240.0
  0
LINE
  5
E0B5
100
AcDbEntity
  8
BODY
100
AcDbLine
 10
14.0
 20
10.992949
 30
0.0
 11
14.0
 21
7.844337
 31
0.0
  0
LINE
  5
E0B6
100
AcDbEntity
  8
BODY
100
AcDbLine
 10
14.0
 20
17.605663
 30
0.0
 11
14.0
 21
14.457051
 31
0.0
  0
ENDBLK
  5
E0B8
100
AcDbEntity
  8
0
100
AcDbBlockEnd
  0
BLOCK
  5
E106
100
AcDbEntity
  8
0
100
AcDbBlockBegin
  2
A$C5FDD4189
 70
     0
 10
0.0
 20
0.0
 30
0.0
  3
A$C5FDD4189
  1

  0
LINE
  5
E0E2
100
AcDbEntity
  8
CEN
100
AcDbLine
 10
0.0
 20
14.0
 30
0.0
 11
16.0
 21
14.0
 31
0.0
  0
LINE
  5
E0E3
100
AcDbEntity
  8
BODY
100
AcDbLine
 10
5.080923
 20
6.884636
 30
0.0
 11
2.0
 21
8.663408
 31
0.0
  0
LINE
  5
E0E4
100
AcDbEntity
  8
BODY
100
AcDbLine
 10
10.919077
 20
6.884636
 30
0.0
 11
14.0
 21
8.663408
 31
0.0
  0
LINE
  5
E0E5
100
AcDbEntity
  8
CEN
100
AcDbLine
 10
8.0
 20
28.0
 30
0.0
 11
8.0
 21
0.0
 31
0.0
  0
LINE
  5
E0E6
100
AcDbEntity
  8
BODY
100
AcDbLine
 10
8.0
 20
1.0
 30
0.0
 11
9.285
 21
1.741895
 31
0.0
  0
LINE
  5
E0E7
100
AcDbEntity
  8
BODY
100
AcDbLine
 10
8.0
 20
1.0
 30
0.0
 11
6.715
 21
1.741895
 31
0.0
  0
LINE
  5
E0E8
100
AcDbEntity
  8
BODY
100
AcDbLine
 10
6.583199
 20
4.530604
 30
0.0
 11
5.449122
 21
6.514828
 31
0.0
  0
ARC
  5
E0E9
100
AcDbEntity
  8
BODY
100
AcDbCircle
 10
4.580923
 20
6.018611
 30
0.0
 40
1.0
100
AcDbArc
 50
29.75
 51
60.0
  0
ARC
  5
E0EA
100
AcDbEntity
  8
BODY
100
AcDbCircle
 10
5.715
 20
4.034388
 30
0.0
 40
1.0
100
AcDbArc
 50
0.0
 51
29.75
  0
LINE
  5
E0EB
100
AcDbEntity
  8
BODY
100
AcDbLine
 10
6.715
 20
4.034388
 30
0.0
 11
6.715
 21
1.741895
 31
0.0
  0
LINE
  5
E0EC
100
AcDbEntity
  8
BODY
100
AcDbLine
 10
9.416801
 20
4.530604
 30
0.0
 11
10.550878
 21
6.514828
 31
0.0
  0
ARC
  5
E0ED
100
AcDbEntity
  8
BODY
100
AcDbCircle
 10
10.285
 20
4.034388
 30
0.0
 40
1.0
100
AcDbArc
 50
150.25
 51
180.0
  0
LINE
  5
E0EE
100
AcDbEntity
  8
BODY
100
AcDbLine
 10
9.285
 20
4.034388
 30
0.0
 11
9.285
 21
1.741895
 31
0.0
  0
ARC
  5
E0EF
100
AcDbEntity
  8
BODY
100
AcDbCircle
 10
11.419077
 20
6.018611
 30
0.0
 40
1.0
100
AcDbArc
 50
120.0
 51
150.25
  0
LINE
  5
E0F0
100
AcDbEntity
  8
BODY
100
AcDbLine
 10
8.0
 20
27.0
 30
0.0
 11
9.285
 21
26.258105
 31
0.0
  0
CIRCLE
  5
E0F1
100
AcDbEntity
  8
BODY
100
AcDbCircle
 10
8.0
 20
14.0
 30
0.0
 40
1.75
  0
CIRCLE
  5
E0F2
100
AcDbEntity
  8
BODY
100
AcDbCircle
 10
8.0
 20
14.0
 30
0.0
 40
2.272172
  0
LINE
  5
E0F3
100
AcDbEntity
  8
BODY
100
AcDbLine
 10
2.0
 20
19.336592
 30
0.0
 11
2.0
 21
15.732051
 31
0.0
  0
ARC
  5
E0F4
100
AcDbEntity
  8
BODY
100
AcDbCircle
 10
1.0
 20
14.0
 30
0.0
 40
2.0
100
AcDbArc
 50
300.0
 51
60.0
  0
LINE
  5
E0F5
100
AcDbEntity
  8
BODY
100
AcDbLine
 10
2.0
 20
12.267949
 30
0.0
 11
2.0
 21
8.663408
 31
0.0
  0
LINE
  5
E0F6
100
AcDbEntity
  8
CEN
100
AcDbLine
 10
1.0
 20
13.0
 30
0.0
 11
1.0
 21
15.0
 31
0.0
  0
LINE
  5
E0F7
100
AcDbEntity
  8
BODY
100
AcDbLine
 10
5.080923
 20
21.115364
 30
0.0
 11
2.0
 21
19.336592
 31
0.0
  0
LINE
  5
E0F8
100
AcDbEntity
  8
BODY
100
AcDbLine
 10
6.715
 20
23.965612
 30
0.0
 11
6.715
 21
26.258105
 31
0.0
  0
LINE
  5
E0F9
100
AcDbEntity
  8
BODY
100
AcDbLine
 10
6.583199
 20
23.469396
 30
0.0
 11
5.449122
 21
21.485173
 31
0.0
  0
ARC
  5
E0FA
100
AcDbEntity
  8
BODY
100
AcDbCircle
 10
4.580923
 20
21.981389
 30
0.0
 40
1.0
100
AcDbArc
 50
300.0
 51
330.25
  0
ARC
  5
E0FB
100
AcDbEntity
  8
BODY
100
AcDbCircle
 10
5.715
 20
23.965612
 30
0.0
 40
1.0
100
AcDbArc
 50
330.25
 51
0.0
  0
LINE
  5
E0FC
100
AcDbEntity
  8
BODY
100
AcDbLine
 10
8.0
 20
27.0
 30
0.0
 11
6.715
 21
26.258105
 31
0.0
  0
LINE
  5
E0FD
100
AcDbEntity
  8
BODY
100
AcDbLine
 10
14.0
 20
19.336592
 30
0.0
 11
14.0
 21
15.732051
 31
0.0
  0
ARC
  5
E0FE
100
AcDbEntity
  8
BODY
100
AcDbCircle
 10
15.0
 20
14.0
 30
0.0
 40
2.0
100
AcDbArc
 50
120.0
 51
240.0
  0
LINE
  5
E0FF
100
AcDbEntity
  8
BODY
100
AcDbLine
 10
14.0
 20
12.267949
 30
0.0
 11
14.0
 21
8.663408
 31
0.0
  0
LINE
  5
E100
100
AcDbEntity
  8
CEN
100
AcDbLine
 10
15.0
 20
13.0
 30
0.0
 11
15.0
 21
15.0
 31
0.0
  0
LINE
  5
E101
100
AcDbEntity
  8
BODY
100
AcDbLine
 10
10.919077
 20
21.115364
 30
0.0
 11
14.0
 21
19.336592
 31
0.0
  0
LINE
  5
E102
100
AcDbEntity
  8
BODY
100
AcDbLine
 10
9.285
 20
23.965612
 30
0.0
 11
9.285
 21
26.258105
 31
0.0
  0
LINE
  5
E103
100
AcDbEntity
  8
BODY
100
AcDbLine
 10
9.416801
 20
23.469396
 30
0.0
 11
10.550878
 21
21.485173
 31
0.0
  0
ARC
  5
E104
100
AcDbEntity
  8
BODY
100
AcDbCircle
 10
10.285
 20
23.965612
 30
0.0
 40
1.0
100
AcDbArc
 50
180.0
 51
209.75
  0
ARC
  5
E105
100
AcDbEntity
  8
BODY
100
AcDbCircle
 10
11.419077
 20
21.981389
 30
0.0
 40
1.0
100
AcDbArc
 50
209.75
 51
240.0
  0
ENDBLK
  5
E107
100
AcDbEntity
  8
0
100
AcDbBlockEnd
  0
BLOCK
  5
E155
100
AcDbEntity
  8
0
100
AcDbBlockBegin
  2
A$C2EDA7AD5
 70
     0
 10
0.0
 20
0.0
 30
0.0
  3
A$C2EDA7AD5
  1

  0
LINE
  5
E139
100
AcDbEntity
  8
BODY
100
AcDbLine
 10
9.12
 20
4.6
 30
0.0
 11
9.12
 21
1.435307
 31
0.0
  0
LINE
  5
E13A
100
AcDbEntity
  8
BODY
100
AcDbLine
 10
5.88
 20
4.6
 30
0.0
 11
5.88
 21
1.435307
 31
0.0
  0
LINE
  5
E13B
100
AcDbEntity
  8
CEN
 48
0.2
100
AcDbLine
 10
7.5
 20
29.0
 30
0.0
 11
7.5
 21
0.0
 31
0.0
  0
LINE
  5
E13C
100
AcDbEntity
  8
BODY
100
AcDbLine
 10
7.5
 20
0.5
 30
0.0
 11
5.88
 21
1.435307
 31
0.0
  0
LINE
  5
E13D
100
AcDbEntity
  8
BODY
100
AcDbLine
 10
7.5
 20
0.5
 30
0.0
 11
9.12
 21
1.435307
 31
0.0
  0
LINE
  5
E13E
100
AcDbEntity
  8
BODY
100
AcDbLine
 10
9.12
 20
24.4
 30
0.0
 11
10.85
 21
21.373128
 31
0.0
  0
LINE
  5
E13F
100
AcDbEntity
  8
BODY
100
AcDbLine
 10
5.88
 20
24.4
 30
0.0
 11
4.15
 21
21.373128
 31
0.0
  0
ARC
  5
E140
100
AcDbEntity
  8
BODY
100
AcDbCircle
 10
14.5
 20
14.5
 30
0.0
 40
2.0
100
AcDbArc
 50
120.0
 51
240.0
  0
LINE
  5
E141
100
AcDbEntity
  8
CEN
 48
0.2
100
AcDbLine
 10
14.5
 20
15.5
 30
0.0
 11
14.5
 21
13.5
 31
0.0
  0
ARC
  5
E142
100
AcDbEntity
  8
BODY
100
AcDbCircle
 10
0.5
 20
14.5
 30
0.0
 40
2.0
100
AcDbArc
 50
300.0
 51
60.0
  0
LINE
  5
E143
100
AcDbEntity
  8
CEN
 48
0.2
100
AcDbLine
 10
0.5
 20
15.5
 30
0.0
 11
0.5
 21
13.5
 31
0.0
  0
CIRCLE
  5
E144
100
AcDbEntity
  8
BODY
100
AcDbCircle
 10
7.5
 20
14.5
 30
0.0
 40
2.272172
  0
CIRCLE
  5
E145
100
AcDbEntity
  8
BODY
100
AcDbCircle
 10
7.5
 20
14.5
 30
0.0
 40
1.75
  0
LINE
  5
E146
100
AcDbEntity
  8
BODY
100
AcDbLine
 10
9.12
 20
4.6
 30
0.0
 11
10.85
 21
7.626872
 31
0.0
  0
LINE
  5
E147
100
AcDbEntity
  8
BODY
100
AcDbLine
 10
4.15
 20
7.626872
 30
0.0
 11
1.5
 21
9.15685
 31
0.0
  0
LINE
  5
E148
100
AcDbEntity
  8
BODY
100
AcDbLine
 10
5.88
 20
4.6
 30
0.0
 11
4.15
 21
7.626872
 31
0.0
  0
LINE
  5
E149
100
AcDbEntity
  8
BODY
100
AcDbLine
 10
1.5
 20
12.767949
 30
0.0
 11
1.5
 21
9.15685
 31
0.0
  0
LINE
  5
E14A
100
AcDbEntity
  8
BODY
100
AcDbLine
 10
10.85
 20
7.626872
 30
0.0
 11
13.5
 21
9.15685
 31
0.0
  0
LINE
  5
E14B
100
AcDbEntity
  8
BODY
100
AcDbLine
 10
13.5
 20
12.767949
 30
0.0
 11
13.5
 21
9.15685
 31
0.0
  0
LINE
  5
E14C
100
AcDbEntity
  8
CEN
 48
0.2
100
AcDbLine
 10
0.0
 20
14.5
 30
0.0
 11
15.0
 21
14.5
 31
0.0
  0
LINE
  5
E14D
100
AcDbEntity
  8
BODY
100
AcDbLine
 10
1.5
 20
16.232051
 30
0.0
 11
1.5
 21
19.84315
 31
0.0
  0
LINE
  5
E14E
100
AcDbEntity
  8
BODY
100
AcDbLine
 10
4.15
 20
21.373128
 30
0.0
 11
1.5
 21
19.84315
 31
0.0
  0
LINE
  5
E14F
100
AcDbEntity
  8
BODY
100
AcDbLine
 10
13.5
 20
16.232051
 30
0.0
 11
13.5
 21
19.84315
 31
0.0
  0
LINE
  5
E150
100
AcDbEntity
  8
BODY
100
AcDbLine
 10
10.85
 20
21.373128
 30
0.0
 11
13.5
 21
19.84315
 31
0.0
  0
LINE
  5
E151
100
AcDbEntity
  8
BODY
100
AcDbLine
 10
7.5
 20
28.5
 30
0.0
 11
5.88
 21
27.564693
 31
0.0
  0
LINE
  5
E152
100
AcDbEntity
  8
BODY
100
AcDbLine
 10
7.5
 20
28.5
 30
0.0
 11
9.12
 21
27.564693
 31
0.0
  0
LINE
  5
E153
100
AcDbEntity
  8
BODY
100
AcDbLine
 10
5.88
 20
24.4
 30
0.0
 11
5.88
 21
27.564693
 31
0.0
  0
LINE
  5
E154
100
AcDbEntity
  8
BODY
100
AcDbLine
 10
9.12
 20
24.4
 30
0.0
 11
9.12
 21
27.564693
 31
0.0
  0
ENDBLK
  5
E156
100
AcDbEntity
  8
0
100
AcDbBlockEnd
  0
BLOCK
  5
E19F
100
AcDbEntity
  8
0
100
AcDbBlockBegin
  2
A$C3A4B3427
 70
     0
 10
0.0
 20
0.0
 30
0.0
  3
A$C3A4B3427
  1

  0
LINE
  5
E17B
100
AcDbEntity
  8
BODY
100
AcDbLine
 10
7.323199
 20
7.730604
 30
0.0
 11
4.789122
 21
12.164319
 31
0.0
  0
LINE
  5
E17C
100
AcDbEntity
  8
BODY
100
AcDbLine
 10
12.676801
 20
7.730604
 30
0.0
 11
15.210878
 21
12.164319
 31
0.0
  0
LINE
  5
E17D
100
AcDbEntity
  8
CEN
100
AcDbLine
 10
10.0
 20
41.8
 30
0.0
 11
10.0
 21
0.0
 31
0.0
  0
ARC
  5
E17E
100
AcDbEntity
  8
BODY
100
AcDbCircle
 10
6.455
 20
7.234388
 30
0.0
 40
1.0
100
AcDbArc
 50
0.0
 51
29.75
  0
LINE
  5
E17F
100
AcDbEntity
  8
BODY
100
AcDbLine
 10
10.0
 20
1.0
 30
0.0
 11
12.545
 21
2.469356
 31
0.0
  0
LINE
  5
E180
100
AcDbEntity
  8
BODY
100
AcDbLine
 10
7.455
 20
7.234388
 30
0.0
 11
7.455
 21
2.469356
 31
0.0
  0
LINE
  5
E181
100
AcDbEntity
  8
BODY
100
AcDbLine
 10
10.0
 20
1.0
 30
0.0
 11
7.455
 21
2.469356
 31
0.0
  0
LINE
  5
E182
100
AcDbEntity
  8
BODY
100
AcDbLine
 10
12.545
 20
7.234388
 30
0.0
 11
12.545
 21
2.469356
 31
0.0
  0
ARC
  5
E183
100
AcDbEntity
  8
BODY
100
AcDbCircle
 10
13.545
 20
7.234388
 30
0.0
 40
1.0
100
AcDbArc
 50
150.25
 51
180.0
  0
ARC
  5
E184
100
AcDbEntity
  8
BODY
100
AcDbCircle
 10
16.079077
 20
29.131897
 30
0.0
 40
1.0
100
AcDbArc
 50
209.75
 51
240.0
  0
ARC
  5
E185
100
AcDbEntity
  8
BODY
100
AcDbCircle
 10
16.079077
 20
11.668103
 30
0.0
 40
1.0
100
AcDbArc
 50
120.0
 51
150.25
  0
LINE
  5
E186
100
AcDbEntity
  8
CEN
100
AcDbLine
 10
0.0
 20
20.4
 30
0.0
 11
20.0
 21
20.4
 31
0.0
  0
LINE
  5
E187
100
AcDbEntity
  8
BODY
100
AcDbLine
 10
7.323199
 20
33.069396
 30
0.0
 11
4.789122
 21
28.63568
 31
0.0
  0
LINE
  5
E188
100
AcDbEntity
  8
BODY
100
AcDbLine
 10
12.676801
 20
33.069396
 30
0.0
 11
15.210878
 21
28.63568
 31
0.0
  0
CIRCLE
  5
E189
100
AcDbEntity
  8
BODY
100
AcDbCircle
 10
10.0
 20
20.4
 30
0.0
 40
3.0
  0
LINE
  5
E18A
100
AcDbEntity
  8
CEN
100
AcDbLine
 10
1.0
 20
19.4
 30
0.0
 11
1.0
 21
21.4
 31
0.0
  0
ARC
  5
E18B
100
AcDbEntity
  8
BODY
100
AcDbCircle
 10
1.0
 20
20.4
 30
0.0
 40
2.5
100
AcDbArc
 50
293.578178
 51
66.421822
  0
LINE
  5
E18C
100
AcDbEntity
  8
BODY
100
AcDbLine
 10
4.420923
 20
12.534128
 30
0.0
 11
2.0
 21
13.931849
 31
0.0
  0
LINE
  5
E18D
100
AcDbEntity
  8
BODY
100
AcDbLine
 10
2.0
 20
18.108712
 30
0.0
 11
2.0
 21
13.931849
 31
0.0
  0
ARC
  5
E18E
100
AcDbEntity
  8
BODY
100
AcDbCircle
 10
3.920923
 20
11.668103
 30
0.0
 40
1.0
100
AcDbArc
 50
29.75
 51
60.0
  0
LINE
  5
E18F
100
AcDbEntity
  8
BODY
100
AcDbLine
 10
4.420923
 20
28.265872
 30
0.0
 11
2.0
 21
26.868151
 31
0.0
  0
LINE
  5
E190
100
AcDbEntity
  8
BODY
100
AcDbLine
 10
2.0
 20
26.868151
 30
0.0
 11
2.0
 21
22.691288
 31
0.0
  0
ARC
  5
E191
100
AcDbEntity
  8
BODY
100
AcDbCircle
 10
3.920923
 20
29.131897
 30
0.0
 40
1.0
100
AcDbArc
 50
300.0
 51
330.25
  0
CIRCLE
  5
E192
100
AcDbEntity
  8
BODY
100
AcDbCircle
 10
10.0
 20
20.4
 30
0.0
 40
2.2
  0
ARC
  5
E193
100
AcDbEntity
  8
BODY
100
AcDbCircle
 10
6.455
 20
33.565612
 30
0.0
 40
1.0
100
AcDbArc
 50
330.25
 51
0.0
  0
LINE
  5
E194
100
AcDbEntity
  8
BODY
100
AcDbLine
 10
10.0
 20
39.8
 30
0.0
 11
12.545
 21
38.330644
 31
0.0
  0
LINE
  5
E195
100
AcDbEntity
  8
BODY
100
AcDbLine
 10
7.455
 20
33.565612
 30
0.0
 11
7.455
 21
38.330644
 31
0.0
  0
LINE
  5
E196
100
AcDbEntity
  8
BODY
100
AcDbLine
 10
10.0
 20
39.8
 30
0.0
 11
7.455
 21
38.330644
 31
0.0
  0
LINE
  5
E197
100
AcDbEntity
  8
BODY
100
AcDbLine
 10
12.545
 20
33.565612
 30
0.0
 11
12.545
 21
38.330644
 31
0.0
  0
ARC
  5
E198
100
AcDbEntity
  8
BODY
100
AcDbCircle
 10
13.545
 20
33.565612
 30
0.0
 40
1.0
100
AcDbArc
 50
180.0
 51
209.75
  0
LINE
  5
E199
100
AcDbEntity
  8
CEN
100
AcDbLine
 10
19.0
 20
19.4
 30
0.0
 11
19.0
 21
21.4
 31
0.0
  0
ARC
  5
E19A
100
AcDbEntity
  8
BODY
100
AcDbCircle
 10
19.0
 20
20.4
 30
0.0
 40
2.5
100
AcDbArc
 50
113.578178
 51
246.421822
  0
LINE
  5
E19B
100
AcDbEntity
  8
BODY
100
AcDbLine
 10
18.0
 20
18.108712
 30
0.0
 11
18.0
 21
13.931849
 31
0.0
  0
LINE
  5
E19C
100
AcDbEntity
  8
BODY
100
AcDbLine
 10
15.579077
 20
12.534128
 30
0.0
 11
18.0
 21
13.931849
 31
0.0
  0
LINE
  5
E19D
100
AcDbEntity
  8
BODY
100
AcDbLine
 10
18.0
 20
26.868151
 30
0.0
 11
18.0
 21
22.691288
 31
0.0
  0
LINE
  5
E19E
100
AcDbEntity
  8
BODY
100
AcDbLine
 10
15.579077
 20
28.265872
 30
0.0
 11
18.0
 21
26.868151
 31
0.0
  0
ENDBLK
  5
E1A0
100
AcDbEntity
  8
0
100
AcDbBlockEnd
  0
ENDSEC
  0
SECTION
  2
ENTITIES
  0
TEXT
  5
6F80
100
AcDbEntity
  8
1
100
AcDbText
 10
1596.459221
 20
218.564067
 30
0.0
 40
3.0
  1

  7
STYLE1
100
AcDbText
  0
TEXT
  5
6F81
100
AcDbEntity
  8
1
100
AcDbText
 10
1796.459221
 20
218.564067
 30
0.0
 40
3.0
  1

  7
STYLE1
100
AcDbText
  0
TEXT
  5
6F82
100
AcDbEntity
  8
1
100
AcDbText
 10
1796.459221
 20
218.564067
 30
0.0
 40
3.0
  1

  7
STYLE1
100
AcDbText
  0
TEXT
  5
6F83
100
AcDbEntity
  8
1
100
AcDbText
 10
1996.459221
 20
218.564067
 30
0.0
 40
3.0
  1

  7
STYLE1
100
AcDbText
  0
TEXT
  5
6F84
100
AcDbEntity
  8
1
100
AcDbText
 10
1996.459221
 20
218.564067
 30
0.0
 40
3.0
  1

  7
STYLE1
100
AcDbText
  0
TEXT
  5
6F85
100
AcDbEntity
  8
1
100
AcDbText
 10
2196.459221
 20
218.564067
 30
0.0
 40
3.0
  1

  7
STYLE1
100
AcDbText
  0
TEXT
  5
6F86
100
AcDbEntity
  8
1
100
AcDbText
 10
1796.459221
 20
218.564067
 30
0.0
 40
3.0
  1

  7
STYLE1
100
AcDbText
  0
TEXT
  5
6F87
100
AcDbEntity
  8
1
100
AcDbText
 10
1996.459221
 20
218.564067
 30
0.0
 40
3.0
  1

  7
STYLE1
100
AcDbText
  0
TEXT
  5
6F88
100
AcDbEntity
  8
1
100
AcDbText
 10
1996.459221
 20
218.564067
 30
0.0
 40
3.0
  1

  7
STYLE1
100
AcDbText
  0
TEXT
  5
6F89
100
AcDbEntity
  8
1
100
AcDbText
 10
2196.459221
 20
218.564067
 30
0.0
 40
3.0
  1

  7
STYLE1
100
AcDbText
  0
TEXT
  5
6F8A
100
AcDbEntity
  8
1
100
AcDbText
 10
1796.459221
 20
218.564067
 30
0.0
 40
3.0
  1

  7
STYLE1
100
AcDbText
  0
TEXT
  5
6F8B
100
AcDbEntity
  8
1
100
AcDbText
 10
1996.459221
 20
218.564067
 30
0.0
 40
3.0
  1

  7
STYLE1
100
AcDbText
  0
TEXT
  5
6F8C
100
AcDbEntity
  8
1
100
AcDbText
 10
1996.459221
 20
218.564067
 30
0.0
 40
3.0
  1

  7
STYLE1
100
AcDbText
  0
TEXT
  5
6F8D
100
AcDbEntity
  8
1
100
AcDbText
 10
2196.459221
 20
218.564067
 30
0.0
 40
3.0
  1

  7
STYLE1
100
AcDbText
  0
TEXT
  5
6F8E
100
AcDbEntity
  8
1
100
AcDbText
 10
2196.459221
 20
218.564067
 30
0.0
 40
3.0
  1

  7
STYLE1
100
AcDbText
  0
TEXT
  5
6F8F
100
AcDbEntity
  8
1
100
AcDbText
 10
2396.459221
 20
218.564067
 30
0.0
 40
3.0
  1

  7
STYLE1
100
AcDbText
  0
TEXT
  5
6F90
100
AcDbEntity
  8
1
100
AcDbText
 10
1996.459221
 20
218.564067
 30
0.0
 40
3.0
  1

  7
STYLE1
100
AcDbText
  0
TEXT
  5
6F91
100
AcDbEntity
  8
1
100
AcDbText
 10
2196.459221
 20
218.564067
 30
0.0
 40
3.0
  1

  7
STYLE1
100
AcDbText
  0
TEXT
  5
6F92
100
AcDbEntity
  8
1
100
AcDbText
 10
2196.459221
 20
218.564067
 30
0.0
 40
3.0
  1

  7
STYLE1
100
AcDbText
  0
TEXT
  5
6F93
100
AcDbEntity
  8
1
100
AcDbText
 10
2396.459221
 20
218.564067
 30
0.0
 40
3.0
  1

  7
STYLE1
100
AcDbText
  0
TEXT
  5
6F94
100
AcDbEntity
  8
1
100
AcDbText
 10
1796.459221
 20
218.564067
 30
0.0
 40
3.0
  1

  7
STYLE1
100
AcDbText
  0
TEXT
  5
6F95
100
AcDbEntity
  8
1
100
AcDbText
 10
1996.459221
 20
218.564067
 30
0.0
 40
3.0
  1

  7
STYLE1
100
AcDbText
  0
TEXT
  5
6F96
100
AcDbEntity
  8
1
100
AcDbText
 10
1996.459221
 20
218.564067
 30
0.0
 40
3.0
  1

  7
STYLE1
100
AcDbText
  0
TEXT
  5
6F97
100
AcDbEntity
  8
1
100
AcDbText
 10
2196.459221
 20
218.564067
 30
0.0
 40
3.0
  1

  7
STYLE1
100
AcDbText
  0
TEXT
  5
6F98
100
AcDbEntity
  8
1
100
AcDbText
 10
2196.459221
 20
218.564067
 30
0.0
 40
3.0
  1

  7
STYLE1
100
AcDbText
  0
TEXT
  5
6F99
100
AcDbEntity
  8
1
100
AcDbText
 10
2396.459221
 20
218.564067
 30
0.0
 40
3.0
  1

  7
STYLE1
100
AcDbText
  0
TEXT
  5
6F9A
100
AcDbEntity
  8
1
100
AcDbText
 10
1996.459221
 20
218.564067
 30
0.0
 40
3.0
  1

  7
STYLE1
100
AcDbText
  0
TEXT
  5
6F9B
100
AcDbEntity
  8
1
100
AcDbText
 10
2196.459221
 20
218.564067
 30
0.0
 40
3.0
  1

  7
STYLE1
100
AcDbText
  0
TEXT
  5
6F9C
100
AcDbEntity
  8
1
100
AcDbText
 10
2196.459221
 20
218.564067
 30
0.0
 40
3.0
  1

  7
STYLE1
100
AcDbText
  0
TEXT
  5
6F9D
100
AcDbEntity
  8
1
100
AcDbText
 10
2396.459221
 20
218.564067
 30
0.0
 40
3.0
  1

  7
STYLE1
100
AcDbText
  0
TEXT
  5
6F9E
100
AcDbEntity
  8
1
100
AcDbText
 10
1796.459221
 20
218.564067
 30
0.0
 40
3.0
  1

  7
STYLE1
100
AcDbText
  0
TEXT
  5
6F9F
100
AcDbEntity
  8
1
100
AcDbText
 10
1996.459221
 20
218.564067
 30
0.0
 40
3.0
  1

  7
STYLE1
100
AcDbText
  0
TEXT
  5
6FA0
100
AcDbEntity
  8
1
100
AcDbText
 10
1996.459221
 20
218.564067
 30
0.0
 40
3.0
  1

  7
STYLE1
100
AcDbText
  0
TEXT
  5
6FA1
100
AcDbEntity
  8
1
100
AcDbText
 10
2196.459221
 20
218.564067
 30
0.0
 40
3.0
  1

  7
STYLE1
100
AcDbText
  0
TEXT
  5
6FA2
100
AcDbEntity
  8
1
100
AcDbText
 10
2196.459221
 20
218.564067
 30
0.0
 40
3.0
  1

  7
STYLE1
100
AcDbText
  0
TEXT
  5
6FA3
100
AcDbEntity
  8
1
100
AcDbText
 10
2396.459221
 20
218.564067
 30
0.0
 40
3.0
  1

  7
STYLE1
100
AcDbText
  0
TEXT
  5
6FA4
100
AcDbEntity
  8
1
100
AcDbText
 10
1996.459221
 20
218.564067
 30
0.0
 40
3.0
  1

  7
STYLE1
100
AcDbText
  0
TEXT
  5
6FA5
100
AcDbEntity
  8
1
100
AcDbText
 10
2196.459221
 20
218.564067
 30
0.0
 40
3.0
  1

  7
STYLE1
100
AcDbText
  0
TEXT
  5
6FA6
100
AcDbEntity
  8
1
100
AcDbText
 10
2196.459221
 20
218.564067
 30
0.0
 40
3.0
  1

  7
STYLE1
100
AcDbText
  0
TEXT
  5
6FA7
100
AcDbEntity
  8
1
100
AcDbText
 10
2396.459221
 20
218.564067
 30
0.0
 40
3.0
  1

  7
STYLE1
100
AcDbText
  0
TEXT
  5
6FA8
100
AcDbEntity
  8
1
100
AcDbText
 10
1996.459221
 20
218.564067
 30
0.0
 40
3.0
  1

  7
STYLE1
100
AcDbText
  0
TEXT
  5
6FA9
100
AcDbEntity
  8
1
100
AcDbText
 10
2196.459221
 20
218.564067
 30
0.0
 40
3.0
  1

  7
STYLE1
100
AcDbText
  0
TEXT
  5
6FAA
100
AcDbEntity
  8
1
100
AcDbText
 10
2196.459221
 20
218.564067
 30
0.0
 40
3.0
  1

  7
STYLE1
100
AcDbText
  0
TEXT
  5
6FAB
100
AcDbEntity
  8
1
100
AcDbText
 10
2396.459221
 20
218.564067
 30
0.0
 40
3.0
  1

  7
STYLE1
100
AcDbText
  0
TEXT
  5
6FAC
100
AcDbEntity
  8
1
100
AcDbText
 10
2396.459221
 20
218.564067
 30
0.0
 40
3.0
  1

  7
STYLE1
100
AcDbText
  0
TEXT
  5
6FAD
100
AcDbEntity
  8
1
100
AcDbText
 10
2596.459221
 20
218.564067
 30
0.0
 40
3.0
  1

  7
STYLE1
100
AcDbText
  0
TEXT
  5
6FAE
100
AcDbEntity
  8
1
100
AcDbText
 10
2196.459221
 20
218.564067
 30
0.0
 40
3.0
  1

  7
STYLE1
100
AcDbText
  0
TEXT
  5
6FAF
100
AcDbEntity
  8
1
100
AcDbText
 10
2396.459221
 20
218.564067
 30
0.0
 40
3.0
  1

  7
STYLE1
100
AcDbText
  0
TEXT
  5
6FB0
100
AcDbEntity
  8
1
100
AcDbText
 10
2396.459221
 20
218.564067
 30
0.0
 40
3.0
  1

  7
STYLE1
100
AcDbText
  0
TEXT
  5
6FB1
100
AcDbEntity
  8
1
100
AcDbText
 10
2596.459221
 20
218.564067
 30
0.0
 40
3.0
  1

  7
STYLE1
100
AcDbText
  0
TEXT
  5
6FB2
100
AcDbEntity
  8
1
100
AcDbText
 10
2196.459221
 20
218.564067
 30
0.0
 40
3.0
  1

  7
STYLE1
100
AcDbText
  0
TEXT
  5
6FB3
100
AcDbEntity
  8
1
100
AcDbText
 10
2396.459221
 20
218.564067
 30
0.0
 40
3.0
  1

  7
STYLE1
100
AcDbText
  0
TEXT
  5
6FB4
100
AcDbEntity
  8
1
100
AcDbText
 10
2396.459221
 20
218.564067
 30
0.0
 40
3.0
  1

  7
STYLE1
100
AcDbText
  0
TEXT
  5
6FB5
100
AcDbEntity
  8
1
100
AcDbText
 10
2596.459221
 20
218.564067
 30
0.0
 40
3.0
  1

  7
STYLE1
100
AcDbText
  0
TEXT
  5
6FB6
100
AcDbEntity
  8
1
100
AcDbText
 10
2596.459221
 20
218.564067
 30
0.0
 40
3.0
  1

  7
STYLE1
100
AcDbText
  0
TEXT
  5
6FB7
100
AcDbEntity
  8
1
100
AcDbText
 10
2796.459221
 20
218.564067
 30
0.0
 40
3.0
  1

  7
STYLE1
100
AcDbText
  0
TEXT
  5
6FB8
100
AcDbEntity
  8
1
100
AcDbText
 10
2396.459221
 20
218.564067
 30
0.0
 40
3.0
  1

  7
STYLE1
100
AcDbText
  0
TEXT
  5
6FB9
100
AcDbEntity
  8
1
100
AcDbText
 10
2596.459221
 20
218.564067
 30
0.0
 40
3.0
  1

  7
STYLE1
100
AcDbText
  0
TEXT
  5
6FBA
100
AcDbEntity
  8
1
100
AcDbText
 10
2596.459221
 20
218.564067
 30
0.0
 40
3.0
  1

  7
STYLE1
100
AcDbText
  0
TEXT
  5
6FBB
100
AcDbEntity
  8
1
100
AcDbText
 10
2796.459221
 20
218.564067
 30
0.0
 40
3.0
  1

  7
STYLE1
100
AcDbText
  0
TEXT
  5
6FBC
100
AcDbEntity
  8
1
100
AcDbText
 10
2196.459221
 20
218.564067
 30
0.0
 40
3.0
  1

  7
STYLE1
100
AcDbText
  0
TEXT
  5
6FBD
100
AcDbEntity
  8
1
100
AcDbText
 10
2396.459221
 20
218.564067
 30
0.0
 40
3.0
  1

  7
STYLE1
100
AcDbText
  0
TEXT
  5
6FBE
100
AcDbEntity
  8
1
100
AcDbText
 10
2396.459221
 20
218.564067
 30
0.0
 40
3.0
  1

  7
STYLE1
100
AcDbText
  0
TEXT
  5
6FBF
100
AcDbEntity
  8
1
100
AcDbText
 10
2596.459221
 20
218.564067
 30
0.0
 40
3.0
  1

  7
STYLE1
100
AcDbText
  0
TEXT
  5
6FC0
100
AcDbEntity
  8
1
100
AcDbText
 10
2596.459221
 20
218.564067
 30
0.0
 40
3.0
  1

  7
STYLE1
100
AcDbText
  0
TEXT
  5
6FC1
100
AcDbEntity
  8
1
100
AcDbText
 10
2796.459221
 20
218.564067
 30
0.0
 40
3.0
  1

  7
STYLE1
100
AcDbText
  0
TEXT
  5
6FC2
100
AcDbEntity
  8
1
100
AcDbText
 10
2396.459221
 20
218.564067
 30
0.0
 40
3.0
  1

  7
STYLE1
100
AcDbText
  0
TEXT
  5
6FC3
100
AcDbEntity
  8
1
100
AcDbText
 10
2596.459221
 20
218.564067
 30
0.0
 40
3.0
  1

  7
STYLE1
100
AcDbText
  0
TEXT
  5
6FC4
100
AcDbEntity
  8
1
100
AcDbText
 10
2596.459221
 20
218.564067
 30
0.0
 40
3.0
  1

  7
STYLE1
100
AcDbText
  0
TEXT
  5
6FC5
100
AcDbEntity
  8
1
100
AcDbText
 10
2796.459221
 20
218.564067
 30
0.0
 40
3.0
  1

  7
STYLE1
100
AcDbText
  0
TEXT
  5
6FC6
100
AcDbEntity
  8
1
100
AcDbText
 10
1996.459221
 20
218.564067
 30
0.0
 40
3.0
  1

  7
STYLE1
100
AcDbText
  0
TEXT
  5
6FC7
100
AcDbEntity
  8
1
100
AcDbText
 10
2196.459221
 20
218.564067
 30
0.0
 40
3.0
  1

  7
STYLE1
100
AcDbText
  0
TEXT
  5
6FC8
100
AcDbEntity
  8
1
100
AcDbText
 10
2196.459221
 20
218.564067
 30
0.0
 40
3.0
  1

  7
STYLE1
100
AcDbText
  0
TEXT
  5
6FC9
100
AcDbEntity
  8
1
100
AcDbText
 10
2396.459221
 20
218.564067
 30
0.0
 40
3.0
  1

  7
STYLE1
100
AcDbText
  0
TEXT
  5
6FCA
100
AcDbEntity
  8
1
100
AcDbText
 10
2396.459221
 20
218.564067
 30
0.0
 40
3.0
  1

  7
STYLE1
100
AcDbText
  0
TEXT
  5
6FCB
100
AcDbEntity
  8
1
100
AcDbText
 10
2596.459221
 20
218.564067
 30
0.0
 40
3.0
  1

  7
STYLE1
100
AcDbText
  0
TEXT
  5
6FCC
100
AcDbEntity
  8
1
100
AcDbText
 10
2196.459221
 20
218.564067
 30
0.0
 40
3.0
  1

  7
STYLE1
100
AcDbText
  0
TEXT
  5
6FCD
100
AcDbEntity
  8
1
100
AcDbText
 10
2396.459221
 20
218.564067
 30
0.0
 40
3.0
  1

  7
STYLE1
100
AcDbText
  0
TEXT
  5
6FCE
100
AcDbEntity
  8
1
100
AcDbText
 10
2396.459221
 20
218.564067
 30
0.0
 40
3.0
  1

  7
STYLE1
100
AcDbText
  0
TEXT
  5
6FCF
100
AcDbEntity
  8
1
100
AcDbText
 10
2596.459221
 20
218.564067
 30
0.0
 40
3.0
  1

  7
STYLE1
100
AcDbText
  0
TEXT
  5
6FD0
100
AcDbEntity
  8
1
100
AcDbText
 10
2196.459221
 20
218.564067
 30
0.0
 40
3.0
  1

  7
STYLE1
100
AcDbText
  0
TEXT
  5
6FD1
100
AcDbEntity
  8
1
100
AcDbText
 10
2396.459221
 20
218.564067
 30
0.0
 40
3.0
  1

  7
STYLE1
100
AcDbText
  0
TEXT
  5
6FD2
100
AcDbEntity
  8
1
100
AcDbText
 10
2396.459221
 20
218.564067
 30
0.0
 40
3.0
  1

  7
STYLE1
100
AcDbText
  0
TEXT
  5
6FD3
100
AcDbEntity
  8
1
100
AcDbText
 10
2596.459221
 20
218.564067
 30
0.0
 40
3.0
  1

  7
STYLE1
100
AcDbText
  0
TEXT
  5
6FD4
100
AcDbEntity
  8
1
100
AcDbText
 10
2596.459221
 20
218.564067
 30
0.0
 40
3.0
  1

  7
STYLE1
100
AcDbText
  0
TEXT
  5
6FD5
100
AcDbEntity
  8
1
100
AcDbText
 10
2796.459221
 20
218.564067
 30
0.0
 40
3.0
  1

  7
STYLE1
100
AcDbText
  0
TEXT
  5
6FD6
100
AcDbEntity
  8
1
100
AcDbText
 10
2396.459221
 20
218.564067
 30
0.0
 40
3.0
  1

  7
STYLE1
100
AcDbText
  0
TEXT
  5
6FD7
100
AcDbEntity
  8
1
100
AcDbText
 10
2596.459221
 20
218.564067
 30
0.0
 40
3.0
  1

  7
STYLE1
100
AcDbText
  0
TEXT
  5
6FD8
100
AcDbEntity
  8
1
100
AcDbText
 10
2596.459221
 20
218.564067
 30
0.0
 40
3.0
  1

  7
STYLE1
100
AcDbText
  0
TEXT
  5
6FD9
100
AcDbEntity
  8
1
100
AcDbText
 10
2796.459221
 20
218.564067
 30
0.0
 40
3.0
  1

  7
STYLE1
100
AcDbText
  0
TEXT
  5
6FDA
100
AcDbEntity
  8
1
100
AcDbText
 10
2396.459221
 20
218.564067
 30
0.0
 40
3.0
  1

  7
STYLE1
100
AcDbText
  0
TEXT
  5
6FDB
100
AcDbEntity
  8
1
100
AcDbText
 10
2596.459221
 20
218.564067
 30
0.0
 40
3.0
  1

  7
STYLE1
100
AcDbText
  0
TEXT
  5
6FDC
100
AcDbEntity
  8
1
100
AcDbText
 10
2596.459221
 20
218.564067
 30
0.0
 40
3.0
  1

  7
STYLE1
100
AcDbText
  0
TEXT
  5
6FDD
100
AcDbEntity
  8
1
100
AcDbText
 10
2796.459221
 20
218.564067
 30
0.0
 40
3.0
  1

  7
STYLE1
100
AcDbText
  0
TEXT
  5
6FDE
100
AcDbEntity
  8
1
100
AcDbText
 10
2796.459221
 20
218.564067
 30
0.0
 40
3.0
  1

  7
STYLE1
100
AcDbText
  0
TEXT
  5
6FDF
100
AcDbEntity
  8
1
100
AcDbText
 10
2996.459221
 20
218.564067
 30
0.0
 40
3.0
  1

  7
STYLE1
100
AcDbText
  0
TEXT
  5
6FE0
100
AcDbEntity
  8
1
100
AcDbText
 10
2596.459221
 20
218.564067
 30
0.0
 40
3.0
  1

  7
STYLE1
100
AcDbText
  0
TEXT
  5
6FE1
100
AcDbEntity
  8
1
100
AcDbText
 10
2796.459221
 20
218.564067
 30
0.0
 40
3.0
  1

  7
STYLE1
100
AcDbText
  0
TEXT
  5
6FE2
100
AcDbEntity
  8
1
100
AcDbText
 10
2796.459221
 20
218.564067
 30
0.0
 40
3.0
  1

  7
STYLE1
100
AcDbText
  0
TEXT
  5
6FE3
100
AcDbEntity
  8
1
100
AcDbText
 10
2996.459221
 20
218.564067
 30
0.0
 40
3.0
  1

  7
STYLE1
100
AcDbText
  0
TEXT
  5
6FE4
100
AcDbEntity
  8
1
100
AcDbText
 10
2396.459221
 20
218.564067
 30
0.0
 40
3.0
  1

  7
STYLE1
100
AcDbText
  0
TEXT
  5
6FE5
100
AcDbEntity
  8
1
100
AcDbText
 10
2596.459221
 20
218.564067
 30
0.0
 40
3.0
  1

  7
STYLE1
100
AcDbText
  0
TEXT
  5
6FE6
100
AcDbEntity
  8
1
100
AcDbText
 10
2596.459221
 20
218.564067
 30
0.0
 40
3.0
  1

  7
STYLE1
100
AcDbText
  0
TEXT
  5
6FE7
100
AcDbEntity
  8
1
100
AcDbText
 10
2796.459221
 20
218.564067
 30
0.0
 40
3.0
  1

  7
STYLE1
100
AcDbText
  0
TEXT
  5
6FE8
100
AcDbEntity
  8
1
100
AcDbText
 10
2796.459221
 20
218.564067
 30
0.0
 40
3.0
  1

  7
STYLE1
100
AcDbText
  0
TEXT
  5
6FE9
100
AcDbEntity
  8
1
100
AcDbText
 10
2996.459221
 20
218.564067
 30
0.0
 40
3.0
  1

  7
STYLE1
100
AcDbText
  0
TEXT
  5
6FEA
100
AcDbEntity
  8
1
100
AcDbText
 10
2596.459221
 20
218.564067
 30
0.0
 40
3.0
  1

  7
STYLE1
100
AcDbText
  0
TEXT
  5
6FEB
100
AcDbEntity
  8
1
100
AcDbText
 10
2796.459221
 20
218.564067
 30
0.0
 40
3.0
  1

  7
STYLE1
100
AcDbText
  0
TEXT
  5
6FEC
100
AcDbEntity
  8
1
100
AcDbText
 10
2796.459221
 20
218.564067
 30
0.0
 40
3.0
  1

  7
STYLE1
100
AcDbText
  0
TEXT
  5
6FED
100
AcDbEntity
  8
1
100
AcDbText
 10
2996.459221
 20
218.564067
 30
0.0
 40
3.0
  1

  7
STYLE1
100
AcDbText
  0
TEXT
  5
6FEE
100
AcDbEntity
  8
1
100
AcDbText
 10
1616.503434
 20
215.922704
 30
0.0
 40
3.0
  1

  7
STYLE1
100
AcDbText
  0
TEXT
  5
6FEF
100
AcDbEntity
  8
1
100
AcDbText
 10
1816.503434
 20
215.922704
 30
0.0
 40
3.0
  1

  7
STYLE1
100
AcDbText
  0
TEXT
  5
6FF0
100
AcDbEntity
  8
1
100
AcDbText
 10
1816.503434
 20
215.922704
 30
0.0
 40
3.0
  1

  7
STYLE1
100
AcDbText
  0
TEXT
  5
6FF1
100
AcDbEntity
  8
1
100
AcDbText
 10
2016.503434
 20
215.922704
 30
0.0
 40
3.0
  1

  7
STYLE1
100
AcDbText
  0
TEXT
  5
6FF2
100
AcDbEntity
  8
1
100
AcDbText
 10
2016.503434
 20
215.922704
 30
0.0
 40
3.0
  1

  7
STYLE1
100
AcDbText
  0
TEXT
  5
6FF3
100
AcDbEntity
  8
1
100
AcDbText
 10
2216.503434
 20
215.922704
 30
0.0
 40
3.0
  1

  7
STYLE1
100
AcDbText
  0
TEXT
  5
6FF4
100
AcDbEntity
  8
1
100
AcDbText
 10
1816.503434
 20
215.922704
 30
0.0
 40
3.0
  1

  7
STYLE1
100
AcDbText
  0
TEXT
  5
6FF5
100
AcDbEntity
  8
1
100
AcDbText
 10
2016.503434
 20
215.922704
 30
0.0
 40
3.0
  1

  7
STYLE1
100
AcDbText
  0
TEXT
  5
6FF6
100
AcDbEntity
  8
1
100
AcDbText
 10
2016.503434
 20
215.922704
 30
0.0
 40
3.0
  1

  7
STYLE1
100
AcDbText
  0
TEXT
  5
6FF7
100
AcDbEntity
  8
1
100
AcDbText
 10
2216.503434
 20
215.922704
 30
0.0
 40
3.0
  1

  7
STYLE1
100
AcDbText
  0
TEXT
  5
6FF8
100
AcDbEntity
  8
1
100
AcDbText
 10
1816.503434
 20
215.922704
 30
0.0
 40
3.0
  1

  7
STYLE1
100
AcDbText
  0
TEXT
  5
6FF9
100
AcDbEntity
  8
1
100
AcDbText
 10
2016.503434
 20
215.922704
 30
0.0
 40
3.0
  1

  7
STYLE1
100
AcDbText
  0
TEXT
  5
6FFA
100
AcDbEntity
  8
1
100
AcDbText
 10
2016.503434
 20
215.922704
 30
0.0
 40
3.0
  1

  7
STYLE1
100
AcDbText
  0
TEXT
  5
6FFB
100
AcDbEntity
  8
1
100
AcDbText
 10
2216.503434
 20
215.922704
 30
0.0
 40
3.0
  1

  7
STYLE1
100
AcDbText
  0
TEXT
  5
6FFC
100
AcDbEntity
  8
1
100
AcDbText
 10
2216.503434
 20
215.922704
 30
0.0
 40
3.0
  1

  7
STYLE1
100
AcDbText
  0
TEXT
  5
6FFD
100
AcDbEntity
  8
1
100
AcDbText
 10
2416.503434
 20
215.922704
 30
0.0
 40
3.0
  1

  7
STYLE1
100
AcDbText
  0
TEXT
  5
6FFE
100
AcDbEntity
  8
1
100
AcDbText
 10
2016.503434
 20
215.922704
 30
0.0
 40
3.0
  1

  7
STYLE1
100
AcDbText
  0
TEXT
  5
6FFF
100
AcDbEntity
  8
1
100
AcDbText
 10
2216.503434
 20
215.922704
 30
0.0
 40
3.0
  1

  7
STYLE1
100
AcDbText
  0
TEXT
  5
7000
100
AcDbEntity
  8
1
100
AcDbText
 10
2216.503434
 20
215.922704
 30
0.0
 40
3.0
  1

  7
STYLE1
100
AcDbText
  0
TEXT
  5
7001
100
AcDbEntity
  8
1
100
AcDbText
 10
2416.503434
 20
215.922704
 30
0.0
 40
3.0
  1

  7
STYLE1
100
AcDbText
  0
TEXT
  5
7002
100
AcDbEntity
  8
1
100
AcDbText
 10
2016.503434
 20
215.922704
 30
0.0
 40
3.0
  1

  7
STYLE1
100
AcDbText
  0
TEXT
  5
7003
100
AcDbEntity
  8
1
100
AcDbText
 10
2216.503434
 20
215.922704
 30
0.0
 40
3.0
  1

  7
STYLE1
100
AcDbText
  0
TEXT
  5
7004
100
AcDbEntity
  8
1
100
AcDbText
 10
2216.503434
 20
215.922704
 30
0.0
 40
3.0
  1

  7
STYLE1
100
AcDbText
  0
TEXT
  5
7005
100
AcDbEntity
  8
1
100
AcDbText
 10
2416.503434
 20
215.922704
 30
0.0
 40
3.0
  1

  7
STYLE1
100
AcDbText
  0
TEXT
  5
7006
100
AcDbEntity
  8
1
100
AcDbText
 10
2416.503434
 20
215.922704
 30
0.0
 40
3.0
  1

  7
STYLE1
100
AcDbText
  0
TEXT
  5
7007
100
AcDbEntity
  8
1
100
AcDbText
 10
2616.503434
 20
215.922704
 30
0.0
 40
3.0
  1

  7
STYLE1
100
AcDbText
  0
TEXT
  5
7008
100
AcDbEntity
  8
1
100
AcDbText
 10
2216.503434
 20
215.922704
 30
0.0
 40
3.0
  1

  7
STYLE1
100
AcDbText
  0
TEXT
  5
7009
100
AcDbEntity
  8
1
100
AcDbText
 10
2416.503434
 20
215.922704
 30
0.0
 40
3.0
  1

  7
STYLE1
100
AcDbText
  0
TEXT
  5
700A
100
AcDbEntity
  8
1
100
AcDbText
 10
2416.503434
 20
215.922704
 30
0.0
 40
3.0
  1

  7
STYLE1
100
AcDbText
  0
TEXT
  5
700B
100
AcDbEntity
  8
1
100
AcDbText
 10
2616.503434
 20
215.922704
 30
0.0
 40
3.0
  1

  7
STYLE1
100
AcDbText
  0
TEXT
  5
700C
100
AcDbEntity
  8
1
100
AcDbText
 10
1816.503434
 20
215.922704
 30
0.0
 40
3.0
  1

  7
STYLE1
100
AcDbText
  0
TEXT
  5
700D
100
AcDbEntity
  8
1
100
AcDbText
 10
2016.503434
 20
215.922704
 30
0.0
 40
3.0
  1

  7
STYLE1
100
AcDbText
  0
TEXT
  5
700E
100
AcDbEntity
  8
1
100
AcDbText
 10
2016.503434
 20
215.922704
 30
0.0
 40
3.0
  1

  7
STYLE1
100
AcDbText
  0
TEXT
  5
700F
100
AcDbEntity
  8
1
100
AcDbText
 10
2216.503434
 20
215.922704
 30
0.0
 40
3.0
  1

  7
STYLE1
100
AcDbText
  0
TEXT
  5
7010
100
AcDbEntity
  8
1
100
AcDbText
 10
2216.503434
 20
215.922704
 30
0.0
 40
3.0
  1

  7
STYLE1
100
AcDbText
  0
TEXT
  5
7011
100
AcDbEntity
  8
1
100
AcDbText
 10
2416.503434
 20
215.922704
 30
0.0
 40
3.0
  1

  7
STYLE1
100
AcDbText
  0
TEXT
  5
7012
100
AcDbEntity
  8
1
100
AcDbText
 10
2016.503434
 20
215.922704
 30
0.0
 40
3.0
  1

  7
STYLE1
100
AcDbText
  0
TEXT
  5
7013
100
AcDbEntity
  8
1
100
AcDbText
 10
2216.503434
 20
215.922704
 30
0.0
 40
3.0
  1

  7
STYLE1
100
AcDbText
  0
TEXT
  5
7014
100
AcDbEntity
  8
1
100
AcDbText
 10
2216.503434
 20
215.922704
 30
0.0
 40
3.0
  1

  7
STYLE1
100
AcDbText
  0
TEXT
  5
7015
100
AcDbEntity
  8
1
100
AcDbText
 10
2416.503434
 20
215.922704
 30
0.0
 40
3.0
  1

  7
STYLE1
100
AcDbText
  0
TEXT
  5
7016
100
AcDbEntity
  8
1
100
AcDbText
 10
2016.503434
 20
215.922704
 30
0.0
 40
3.0
  1

  7
STYLE1
100
AcDbText
  0
TEXT
  5
7017
100
AcDbEntity
  8
1
100
AcDbText
 10
2216.503434
 20
215.922704
 30
0.0
 40
3.0
  1

  7
STYLE1
100
AcDbText
  0
TEXT
  5
7018
100
AcDbEntity
  8
1
100
AcDbText
 10
2216.503434
 20
215.922704
 30
0.0
 40
3.0
  1

  7
STYLE1
100
AcDbText
  0
TEXT
  5
7019
100
AcDbEntity
  8
1
100
AcDbText
 10
2416.503434
 20
215.922704
 30
0.0
 40
3.0
  1

  7
STYLE1
100
AcDbText
  0
TEXT
  5
701A
100
AcDbEntity
  8
1
100
AcDbText
 10
2416.503434
 20
215.922704
 30
0.0
 40
3.0
  1

  7
STYLE1
100
AcDbText
  0
TEXT
  5
701B
100
AcDbEntity
  8
1
100
AcDbText
 10
2616.503434
 20
215.922704
 30
0.0
 40
3.0
  1

  7
STYLE1
100
AcDbText
  0
TEXT
  5
701C
100
AcDbEntity
  8
1
100
AcDbText
 10
2216.503434
 20
215.922704
 30
0.0
 40
3.0
  1

  7
STYLE1
100
AcDbText
  0
TEXT
  5
701D
100
AcDbEntity
  8
1
100
AcDbText
 10
2416.503434
 20
215.922704
 30
0.0
 40
3.0
  1

  7
STYLE1
100
AcDbText
  0
TEXT
  5
701E
100
AcDbEntity
  8
1
100
AcDbText
 10
2416.503434
 20
215.922704
 30
0.0
 40
3.0
  1

  7
STYLE1
100
AcDbText
  0
TEXT
  5
701F
100
AcDbEntity
  8
1
100
AcDbText
 10
2616.503434
 20
215.922704
 30
0.0
 40
3.0
  1

  7
STYLE1
100
AcDbText
  0
TEXT
  5
7020
100
AcDbEntity
  8
1
100
AcDbText
 10
1816.503434
 20
215.922704
 30
0.0
 40
3.0
  1

  7
STYLE1
100
AcDbText
  0
TEXT
  5
7021
100
AcDbEntity
  8
1
100
AcDbText
 10
2016.503434
 20
215.922704
 30
0.0
 40
3.0
  1

  7
STYLE1
100
AcDbText
  0
TEXT
  5
7022
100
AcDbEntity
  8
1
100
AcDbText
 10
2016.503434
 20
215.922704
 30
0.0
 40
3.0
  1

  7
STYLE1
100
AcDbText
  0
TEXT
  5
7023
100
AcDbEntity
  8
1
100
AcDbText
 10
2216.503434
 20
215.922704
 30
0.0
 40
3.0
  1

  7
STYLE1
100
AcDbText
  0
TEXT
  5
7024
100
AcDbEntity
  8
1
100
AcDbText
 10
2216.503434
 20
215.922704
 30
0.0
 40
3.0
  1

  7
STYLE1
100
AcDbText
  0
TEXT
  5
7025
100
AcDbEntity
  8
1
100
AcDbText
 10
2416.503434
 20
215.922704
 30
0.0
 40
3.0
  1

  7
STYLE1
100
AcDbText
  0
TEXT
  5
7026
100
AcDbEntity
  8
1
100
AcDbText
 10
2016.503434
 20
215.922704
 30
0.0
 40
3.0
  1

  7
STYLE1
100
AcDbText
  0
TEXT
  5
7027
100
AcDbEntity
  8
1
100
AcDbText
 10
2216.503434
 20
215.922704
 30
0.0
 40
3.0
  1

  7
STYLE1
100
AcDbText
  0
TEXT
  5
7028
100
AcDbEntity
  8
1
100
AcDbText
 10
2216.503434
 20
215.922704
 30
0.0
 40
3.0
  1

  7
STYLE1
100
AcDbText
  0
TEXT
  5
7029
100
AcDbEntity
  8
1
100
AcDbText
 10
2416.503434
 20
215.922704
 30
0.0
 40
3.0
  1

  7
STYLE1
100
AcDbText
  0
TEXT
  5
702A
100
AcDbEntity
  8
1
100
AcDbText
 10
2016.503434
 20
215.922704
 30
0.0
 40
3.0
  1

  7
STYLE1
100
AcDbText
  0
TEXT
  5
702B
100
AcDbEntity
  8
1
100
AcDbText
 10
2216.503434
 20
215.922704
 30
0.0
 40
3.0
  1

  7
STYLE1
100
AcDbText
  0
TEXT
  5
702C
100
AcDbEntity
  8
1
100
AcDbText
 10
2216.503434
 20
215.922704
 30
0.0
 40
3.0
  1

  7
STYLE1
100
AcDbText
  0
TEXT
  5
702D
100
AcDbEntity
  8
1
100
AcDbText
 10
2416.503434
 20
215.922704
 30
0.0
 40
3.0
  1

  7
STYLE1
100
AcDbText
  0
TEXT
  5
702E
100
AcDbEntity
  8
1
100
AcDbText
 10
2416.503434
 20
215.922704
 30
0.0
 40
3.0
  1

  7
STYLE1
100
AcDbText
  0
TEXT
  5
702F
100
AcDbEntity
  8
1
100
AcDbText
 10
2616.503434
 20
215.922704
 30
0.0
 40
3.0
  1

  7
STYLE1
100
AcDbText
  0
TEXT
  5
7030
100
AcDbEntity
  8
1
100
AcDbText
 10
2216.503434
 20
215.922704
 30
0.0
 40
3.0
  1

  7
STYLE1
100
AcDbText
  0
TEXT
  5
7031
100
AcDbEntity
  8
1
100
AcDbText
 10
2416.503434
 20
215.922704
 30
0.0
 40
3.0
  1

  7
STYLE1
100
AcDbText
  0
TEXT
  5
7032
100
AcDbEntity
  8
1
100
AcDbText
 10
2416.503434
 20
215.922704
 30
0.0
 40
3.0
  1

  7
STYLE1
100
AcDbText
  0
TEXT
  5
7033
100
AcDbEntity
  8
1
100
AcDbText
 10
2616.503434
 20
215.922704
 30
0.0
 40
3.0
  1

  7
STYLE1
100
AcDbText
  0
TEXT
  5
7034
100
AcDbEntity
  8
1
100
AcDbText
 10
2216.503434
 20
215.922704
 30
0.0
 40
3.0
  1

  7
STYLE1
100
AcDbText
  0
TEXT
  5
7035
100
AcDbEntity
  8
1
100
AcDbText
 10
2416.503434
 20
215.922704
 30
0.0
 40
3.0
  1

  7
STYLE1
100
AcDbText
  0
TEXT
  5
7036
100
AcDbEntity
  8
1
100
AcDbText
 10
2416.503434
 20
215.922704
 30
0.0
 40
3.0
  1

  7
STYLE1
100
AcDbText
  0
TEXT
  5
7037
100
AcDbEntity
  8
1
100
AcDbText
 10
2616.503434
 20
215.922704
 30
0.0
 40
3.0
  1

  7
STYLE1
100
AcDbText
  0
TEXT
  5
7038
100
AcDbEntity
  8
1
100
AcDbText
 10
2616.503434
 20
215.922704
 30
0.0
 40
3.0
  1

  7
STYLE1
100
AcDbText
  0
TEXT
  5
7039
100
AcDbEntity
  8
1
100
AcDbText
 10
2816.503434
 20
215.922704
 30
0.0
 40
3.0
  1

  7
STYLE1
100
AcDbText
  0
TEXT
  5
703A
100
AcDbEntity
  8
1
100
AcDbText
 10
2416.503434
 20
215.922704
 30
0.0
 40
3.0
  1

  7
STYLE1
100
AcDbText
  0
TEXT
  5
703B
100
AcDbEntity
  8
1
100
AcDbText
 10
2616.503434
 20
215.922704
 30
0.0
 40
3.0
  1

  7
STYLE1
100
AcDbText
  0
TEXT
  5
703C
100
AcDbEntity
  8
1
100
AcDbText
 10
2616.503434
 20
215.922704
 30
0.0
 40
3.0
  1

  7
STYLE1
100
AcDbText
  0
TEXT
  5
703D
100
AcDbEntity
  8
1
100
AcDbText
 10
2816.503434
 20
215.922704
 30
0.0
 40
3.0
  1

  7
STYLE1
100
AcDbText
  0
TEXT
  5
703E
100
AcDbEntity
  8
1
100
AcDbText
 10
2016.503434
 20
215.922704
 30
0.0
 40
3.0
  1

  7
STYLE1
100
AcDbText
  0
TEXT
  5
703F
100
AcDbEntity
  8
1
100
AcDbText
 10
2216.503434
 20
215.922704
 30
0.0
 40
3.0
  1

  7
STYLE1
100
AcDbText
  0
TEXT
  5
7040
100
AcDbEntity
  8
1
100
AcDbText
 10
2216.503434
 20
215.922704
 30
0.0
 40
3.0
  1

  7
STYLE1
100
AcDbText
  0
TEXT
  5
7041
100
AcDbEntity
  8
1
100
AcDbText
 10
2416.503434
 20
215.922704
 30
0.0
 40
3.0
  1

  7
STYLE1
100
AcDbText
  0
TEXT
  5
7042
100
AcDbEntity
  8
1
100
AcDbText
 10
2416.503434
 20
215.922704
 30
0.0
 40
3.0
  1

  7
STYLE1
100
AcDbText
  0
TEXT
  5
7043
100
AcDbEntity
  8
1
100
AcDbText
 10
2616.503434
 20
215.922704
 30
0.0
 40
3.0
  1

  7
STYLE1
100
AcDbText
  0
TEXT
  5
7044
100
AcDbEntity
  8
1
100
AcDbText
 10
2216.503434
 20
215.922704
 30
0.0
 40
3.0
  1

  7
STYLE1
100
AcDbText
  0
TEXT
  5
7045
100
AcDbEntity
  8
1
100
AcDbText
 10
2416.503434
 20
215.922704
 30
0.0
 40
3.0
  1

  7
STYLE1
100
AcDbText
  0
TEXT
  5
7046
100
AcDbEntity
  8
1
100
AcDbText
 10
2416.503434
 20
215.922704
 30
0.0
 40
3.0
  1

  7
STYLE1
100
AcDbText
  0
TEXT
  5
7047
100
AcDbEntity
  8
1
100
AcDbText
 10
2616.503434
 20
215.922704
 30
0.0
 40
3.0
  1

  7
STYLE1
100
AcDbText
  0
TEXT
  5
7048
100
AcDbEntity
  8
1
100
AcDbText
 10
2216.503434
 20
215.922704
 30
0.0
 40
3.0
  1

  7
STYLE1
100
AcDbText
  0
TEXT
  5
7049
100
AcDbEntity
  8
1
100
AcDbText
 10
2416.503434
 20
215.922704
 30
0.0
 40
3.0
  1

  7
STYLE1
100
AcDbText
  0
TEXT
  5
704A
100
AcDbEntity
  8
1
100
AcDbText
 10
2416.503434
 20
215.922704
 30
0.0
 40
3.0
  1

  7
STYLE1
100
AcDbText
  0
TEXT
  5
704B
100
AcDbEntity
  8
1
100
AcDbText
 10
2616.503434
 20
215.922704
 30
0.0
 40
3.0
  1

  7
STYLE1
100
AcDbText
  0
TEXT
  5
704C
100
AcDbEntity
  8
1
100
AcDbText
 10
2616.503434
 20
215.922704
 30
0.0
 40
3.0
  1

  7
STYLE1
100
AcDbText
  0
TEXT
  5
704D
100
AcDbEntity
  8
1
100
AcDbText
 10
2816.503434
 20
215.922704
 30
0.0
 40
3.0
  1

  7
STYLE1
100
AcDbText
  0
TEXT
  5
704E
100
AcDbEntity
  8
1
100
AcDbText
 10
2416.503434
 20
215.922704
 30
0.0
 40
3.0
  1

  7
STYLE1
100
AcDbText
  0
TEXT
  5
704F
100
AcDbEntity
  8
1
100
AcDbText
 10
2616.503434
 20
215.922704
 30
0.0
 40
3.0
  1

  7
STYLE1
100
AcDbText
  0
TEXT
  5
7050
100
AcDbEntity
  8
1
100
AcDbText
 10
2616.503434
 20
215.922704
 30
0.0
 40
3.0
  1

  7
STYLE1
100
AcDbText
  0
TEXT
  5
7051
100
AcDbEntity
  8
1
100
AcDbText
 10
2816.503434
 20
215.922704
 30
0.0
 40
3.0
  1

  7
STYLE1
100
AcDbText
  0
TEXT
  5
7052
100
AcDbEntity
  8
1
100
AcDbText
 10
2016.503434
 20
215.922704
 30
0.0
 40
3.0
  1

  7
STYLE1
100
AcDbText
  0
TEXT
  5
7053
100
AcDbEntity
  8
1
100
AcDbText
 10
2216.503434
 20
215.922704
 30
0.0
 40
3.0
  1

  7
STYLE1
100
AcDbText
  0
TEXT
  5
7054
100
AcDbEntity
  8
1
100
AcDbText
 10
2216.503434
 20
215.922704
 30
0.0
 40
3.0
  1

  7
STYLE1
100
AcDbText
  0
TEXT
  5
7055
100
AcDbEntity
  8
1
100
AcDbText
 10
2416.503434
 20
215.922704
 30
0.0
 40
3.0
  1

  7
STYLE1
100
AcDbText
  0
TEXT
  5
7056
100
AcDbEntity
  8
1
100
AcDbText
 10
2416.503434
 20
215.922704
 30
0.0
 40
3.0
  1

  7
STYLE1
100
AcDbText
  0
TEXT
  5
7057
100
AcDbEntity
  8
1
100
AcDbText
 10
2616.503434
 20
215.922704
 30
0.0
 40
3.0
  1

  7
STYLE1
100
AcDbText
  0
TEXT
  5
7058
100
AcDbEntity
  8
1
100
AcDbText
 10
2216.503434
 20
215.922704
 30
0.0
 40
3.0
  1

  7
STYLE1
100
AcDbText
  0
TEXT
  5
7059
100
AcDbEntity
  8
1
100
AcDbText
 10
2416.503434
 20
215.922704
 30
0.0
 40
3.0
  1

  7
STYLE1
100
AcDbText
  0
TEXT
  5
705A
100
AcDbEntity
  8
1
100
AcDbText
 10
2416.503434
 20
215.922704
 30
0.0
 40
3.0
  1

  7
STYLE1
100
AcDbText
  0
TEXT
  5
705B
100
AcDbEntity
  8
1
100
AcDbText
 10
2616.503434
 20
215.922704
 30
0.0
 40
3.0
  1

  7
STYLE1
100
AcDbText
  0
TEXT
  5
705C
100
AcDbEntity
  8
1
100
AcDbText
 10
2216.503434
 20
215.922704
 30
0.0
 40
3.0
  1

  7
STYLE1
100
AcDbText
  0
TEXT
  5
705D
100
AcDbEntity
  8
1
100
AcDbText
 10
2416.503434
 20
215.922704
 30
0.0
 40
3.0
  1

  7
STYLE1
100
AcDbText
  0
TEXT
  5
705E
100
AcDbEntity
  8
1
100
AcDbText
 10
2416.503434
 20
215.922704
 30
0.0
 40
3.0
  1

  7
STYLE1
100
AcDbText
  0
TEXT
  5
705F
100
AcDbEntity
  8
1
100
AcDbText
 10
2616.503434
 20
215.922704
 30
0.0
 40
3.0
  1

  7
STYLE1
100
AcDbText
  0
TEXT
  5
7060
100
AcDbEntity
  8
1
100
AcDbText
 10
2616.503434
 20
215.922704
 30
0.0
 40
3.0
  1

  7
STYLE1
100
AcDbText
  0
TEXT
  5
7061
100
AcDbEntity
  8
1
100
AcDbText
 10
2816.503434
 20
215.922704
 30
0.0
 40
3.0
  1

  7
STYLE1
100
AcDbText
  0
TEXT
  5
7062
100
AcDbEntity
  8
1
100
AcDbText
 10
2416.503434
 20
215.922704
 30
0.0
 40
3.0
  1

  7
STYLE1
100
AcDbText
  0
TEXT
  5
7063
100
AcDbEntity
  8
1
100
AcDbText
 10
2616.503434
 20
215.922704
 30
0.0
 40
3.0
  1

  7
STYLE1
100
AcDbText
  0
TEXT
  5
7064
100
AcDbEntity
  8
1
100
AcDbText
 10
2616.503434
 20
215.922704
 30
0.0
 40
3.0
  1

  7
STYLE1
100
AcDbText
  0
TEXT
  5
7065
100
AcDbEntity
  8
1
100
AcDbText
 10
2816.503434
 20
215.922704
 30
0.0
 40
3.0
  1

  7
STYLE1
100
AcDbText
  0
TEXT
  5
7066
100
AcDbEntity
  8
1
100
AcDbText
 10
2416.503434
 20
215.922704
 30
0.0
 40
3.0
  1

  7
STYLE1
100
AcDbText
  0
TEXT
  5
7067
100
AcDbEntity
  8
1
100
AcDbText
 10
2616.503434
 20
215.922704
 30
0.0
 40
3.0
  1

  7
STYLE1
100
AcDbText
  0
TEXT
  5
7068
100
AcDbEntity
  8
1
100
AcDbText
 10
2616.503434
 20
215.922704
 30
0.0
 40
3.0
  1

  7
STYLE1
100
AcDbText
  0
TEXT
  5
7069
100
AcDbEntity
  8
1
100
AcDbText
 10
2816.503434
 20
215.922704
 30
0.0
 40
3.0
  1

  7
STYLE1
100
AcDbText
  0
TEXT
  5
706A
100
AcDbEntity
  8
1
100
AcDbText
 10
2816.503434
 20
215.922704
 30
0.0
 40
3.0
  1

  7
STYLE1
100
AcDbText
  0
TEXT
  5
706B
100
AcDbEntity
  8
1
100
AcDbText
 10
3016.503434
 20
215.922704
 30
0.0
 40
3.0
  1

  7
STYLE1
100
AcDbText
  0
TEXT
  5
706C
100
AcDbEntity
  8
1
100
AcDbText
 10
2616.503434
 20
215.922704
 30
0.0
 40
3.0
  1

  7
STYLE1
100
AcDbText
  0
TEXT
  5
706D
100
AcDbEntity
  8
1
100
AcDbText
 10
2816.503434
 20
215.922704
 30
0.0
 40
3.0
  1

  7
STYLE1
100
AcDbText
  0
TEXT
  5
706E
100
AcDbEntity
  8
1
100
AcDbText
 10
2816.503434
 20
215.922704
 30
0.0
 40
3.0
  1

  7
STYLE1
100
AcDbText
  0
TEXT
  5
706F
100
AcDbEntity
  8
1
100
AcDbText
 10
3016.503434
 20
215.922704
 30
0.0
 40
3.0
  1

  7
STYLE1
100
AcDbText
  0
TEXT
  5
7070
100
AcDbEntity
  8
1
100
AcDbText
 10
1830.18677
 20
212.21245
 30
0.0
 40
3.0
  1

  7
STYLE1
100
AcDbText
  0
TEXT
  5
7071
100
AcDbEntity
  8
1
100
AcDbText
 10
2030.18677
 20
212.21245
 30
0.0
 40
3.0
  1

  7
STYLE1
100
AcDbText
  0
TEXT
  5
7072
100
AcDbEntity
  8
1
100
AcDbText
 10
2030.18677
 20
212.21245
 30
0.0
 40
3.0
  1

  7
STYLE1
100
AcDbText
  0
TEXT
  5
7073
100
AcDbEntity
  8
1
100
AcDbText
 10
2230.18677
 20
212.21245
 30
0.0
 40
3.0
  1

  7
STYLE1
100
AcDbText
  0
TEXT
  5
7074
100
AcDbEntity
  8
1
100
AcDbText
 10
2230.18677
 20
212.21245
 30
0.0
 40
3.0
  1

  7
STYLE1
100
AcDbText
  0
TEXT
  5
7075
100
AcDbEntity
  8
1
100
AcDbText
 10
2430.18677
 20
212.21245
 30
0.0
 40
3.0
  1

  7
STYLE1
100
AcDbText
  0
TEXT
  5
7076
100
AcDbEntity
  8
1
100
AcDbText
 10
2030.18677
 20
212.21245
 30
0.0
 40
3.0
  1

  7
STYLE1
100
AcDbText
  0
TEXT
  5
7077
100
AcDbEntity
  8
1
100
AcDbText
 10
2230.18677
 20
212.21245
 30
0.0
 40
3.0
  1

  7
STYLE1
100
AcDbText
  0
TEXT
  5
7078
100
AcDbEntity
  8
1
100
AcDbText
 10
2230.18677
 20
212.21245
 30
0.0
 40
3.0
  1

  7
STYLE1
100
AcDbText
  0
TEXT
  5
7079
100
AcDbEntity
  8
1
100
AcDbText
 10
2430.18677
 20
212.21245
 30
0.0
 40
3.0
  1

  7
STYLE1
100
AcDbText
  0
TEXT
  5
707A
100
AcDbEntity
  8
1
100
AcDbText
 10
2030.18677
 20
212.21245
 30
0.0
 40
3.0
  1

  7
STYLE1
100
AcDbText
  0
TEXT
  5
707B
100
AcDbEntity
  8
1
100
AcDbText
 10
2230.18677
 20
212.21245
 30
0.0
 40
3.0
  1

  7
STYLE1
100
AcDbText
  0
TEXT
  5
707C
100
AcDbEntity
  8
1
100
AcDbText
 10
2230.18677
 20
212.21245
 30
0.0
 40
3.0
  1

  7
STYLE1
100
AcDbText
  0
TEXT
  5
707D
100
AcDbEntity
  8
1
100
AcDbText
 10
2430.18677
 20
212.21245
 30
0.0
 40
3.0
  1

  7
STYLE1
100
AcDbText
  0
TEXT
  5
707E
100
AcDbEntity
  8
1
100
AcDbText
 10
2430.18677
 20
212.21245
 30
0.0
 40
3.0
  1

  7
STYLE1
100
AcDbText
  0
TEXT
  5
707F
100
AcDbEntity
  8
1
100
AcDbText
 10
2630.18677
 20
212.21245
 30
0.0
 40
3.0
  1

  7
STYLE1
100
AcDbText
  0
TEXT
  5
7080
100
AcDbEntity
  8
1
100
AcDbText
 10
2230.18677
 20
212.21245
 30
0.0
 40
3.0
  1

  7
STYLE1
100
AcDbText
  0
TEXT
  5
7081
100
AcDbEntity
  8
1
100
AcDbText
 10
2430.18677
 20
212.21245
 30
0.0
 40
3.0
  1

  7
STYLE1
100
AcDbText
  0
TEXT
  5
7082
100
AcDbEntity
  8
1
100
AcDbText
 10
2430.18677
 20
212.21245
 30
0.0
 40
3.0
  1

  7
STYLE1
100
AcDbText
  0
TEXT
  5
7083
100
AcDbEntity
  8
1
100
AcDbText
 10
2630.18677
 20
212.21245
 30
0.0
 40
3.0
  1

  7
STYLE1
100
AcDbText
  0
TEXT
  5
7084
100
AcDbEntity
  8
1
100
AcDbText
 10
2230.18677
 20
212.21245
 30
0.0
 40
3.0
  1

  7
STYLE1
100
AcDbText
  0
TEXT
  5
7085
100
AcDbEntity
  8
1
100
AcDbText
 10
2430.18677
 20
212.21245
 30
0.0
 40
3.0
  1

  7
STYLE1
100
AcDbText
  0
TEXT
  5
7086
100
AcDbEntity
  8
1
100
AcDbText
 10
2430.18677
 20
212.21245
 30
0.0
 40
3.0
  1

  7
STYLE1
100
AcDbText
  0
TEXT
  5
7087
100
AcDbEntity
  8
1
100
AcDbText
 10
2630.18677
 20
212.21245
 30
0.0
 40
3.0
  1

  7
STYLE1
100
AcDbText
  0
TEXT
  5
7088
100
AcDbEntity
  8
1
100
AcDbText
 10
2630.18677
 20
212.21245
 30
0.0
 40
3.0
  1

  7
STYLE1
100
AcDbText
  0
TEXT
  5
7089
100
AcDbEntity
  8
1
100
AcDbText
 10
2830.18677
 20
212.21245
 30
0.0
 40
3.0
  1

  7
STYLE1
100
AcDbText
  0
TEXT
  5
708A
100
AcDbEntity
  8
1
100
AcDbText
 10
2430.18677
 20
212.21245
 30
0.0
 40
3.0
  1

  7
STYLE1
100
AcDbText
  0
TEXT
  5
708B
100
AcDbEntity
  8
1
100
AcDbText
 10
2630.18677
 20
212.21245
 30
0.0
 40
3.0
  1

  7
STYLE1
100
AcDbText
  0
TEXT
  5
708C
100
AcDbEntity
  8
1
100
AcDbText
 10
2630.18677
 20
212.21245
 30
0.0
 40
3.0
  1

  7
STYLE1
100
AcDbText
  0
TEXT
  5
708D
100
AcDbEntity
  8
1
100
AcDbText
 10
2830.18677
 20
212.21245
 30
0.0
 40
3.0
  1

  7
STYLE1
100
AcDbText
  0
TEXT
  5
708E
100
AcDbEntity
  8
1
100
AcDbText
 10
2030.18677
 20
212.21245
 30
0.0
 40
3.0
  1

  7
STYLE1
100
AcDbText
  0
TEXT
  5
708F
100
AcDbEntity
  8
1
100
AcDbText
 10
2230.18677
 20
212.21245
 30
0.0
 40
3.0
  1

  7
STYLE1
100
AcDbText
  0
TEXT
  5
7090
100
AcDbEntity
  8
1
100
AcDbText
 10
2230.18677
 20
212.21245
 30
0.0
 40
3.0
  1

  7
STYLE1
100
AcDbText
  0
TEXT
  5
7091
100
AcDbEntity
  8
1
100
AcDbText
 10
2430.18677
 20
212.21245
 30
0.0
 40
3.0
  1

  7
STYLE1
100
AcDbText
  0
TEXT
  5
7092
100
AcDbEntity
  8
1
100
AcDbText
 10
2430.18677
 20
212.21245
 30
0.0
 40
3.0
  1

  7
STYLE1
100
AcDbText
  0
TEXT
  5
7093
100
AcDbEntity
  8
1
100
AcDbText
 10
2630.18677
 20
212.21245
 30
0.0
 40
3.0
  1

  7
STYLE1
100
AcDbText
  0
TEXT
  5
7094
100
AcDbEntity
  8
1
100
AcDbText
 10
2230.18677
 20
212.21245
 30
0.0
 40
3.0
  1

  7
STYLE1
100
AcDbText
  0
TEXT
  5
7095
100
AcDbEntity
  8
1
100
AcDbText
 10
2430.18677
 20
212.21245
 30
0.0
 40
3.0
  1

  7
STYLE1
100
AcDbText
  0
TEXT
  5
7096
100
AcDbEntity
  8
1
100
AcDbText
 10
2430.18677
 20
212.21245
 30
0.0
 40
3.0
  1

  7
STYLE1
100
AcDbText
  0
TEXT
  5
7097
100
AcDbEntity
  8
1
100
AcDbText
 10
2630.18677
 20
212.21245
 30
0.0
 40
3.0
  1

  7
STYLE1
100
AcDbText
  0
TEXT
  5
7098
100
AcDbEntity
  8
1
100
AcDbText
 10
2230.18677
 20
212.21245
 30
0.0
 40
3.0
  1

  7
STYLE1
100
AcDbText
  0
TEXT
  5
7099
100
AcDbEntity
  8
1
100
AcDbText
 10
2430.18677
 20
212.21245
 30
0.0
 40
3.0
  1

  7
STYLE1
100
AcDbText
  0
TEXT
  5
709A
100
AcDbEntity
  8
1
100
AcDbText
 10
2430.18677
 20
212.21245
 30
0.0
 40
3.0
  1

  7
STYLE1
100
AcDbText
  0
TEXT
  5
709B
100
AcDbEntity
  8
1
100
AcDbText
 10
2630.18677
 20
212.21245
 30
0.0
 40
3.0
  1

  7
STYLE1
100
AcDbText
  0
TEXT
  5
709C
100
AcDbEntity
  8
1
100
AcDbText
 10
2630.18677
 20
212.21245
 30
0.0
 40
3.0
  1

  7
STYLE1
100
AcDbText
  0
TEXT
  5
709D
100
AcDbEntity
  8
1
100
AcDbText
 10
2830.18677
 20
212.21245
 30
0.0
 40
3.0
  1

  7
STYLE1
100
AcDbText
  0
TEXT
  5
709E
100
AcDbEntity
  8
1
100
AcDbText
 10
2430.18677
 20
212.21245
 30
0.0
 40
3.0
  1

  7
STYLE1
100
AcDbText
  0
TEXT
  5
709F
100
AcDbEntity
  8
1
100
AcDbText
 10
2630.18677
 20
212.21245
 30
0.0
 40
3.0
  1

  7
STYLE1
100
AcDbText
  0
TEXT
  5
70A0
100
AcDbEntity
  8
1
100
AcDbText
 10
2630.18677
 20
212.21245
 30
0.0
 40
3.0
  1

  7
STYLE1
100
AcDbText
  0
TEXT
  5
70A1
100
AcDbEntity
  8
1
100
AcDbText
 10
2830.18677
 20
212.21245
 30
0.0
 40
3.0
  1

  7
STYLE1
100
AcDbText
  0
TEXT
  5
70A2
100
AcDbEntity
  8
1
100
AcDbText
 10
2030.18677
 20
212.21245
 30
0.0
 40
3.0
  1

  7
STYLE1
100
AcDbText
  0
TEXT
  5
70A3
100
AcDbEntity
  8
1
100
AcDbText
 10
2230.18677
 20
212.21245
 30
0.0
 40
3.0
  1

  7
STYLE1
100
AcDbText
  0
TEXT
  5
70A4
100
AcDbEntity
  8
1
100
AcDbText
 10
2230.18677
 20
212.21245
 30
0.0
 40
3.0
  1

  7
STYLE1
100
AcDbText
  0
TEXT
  5
70A5
100
AcDbEntity
  8
1
100
AcDbText
 10
2430.18677
 20
212.21245
 30
0.0
 40
3.0
  1

  7
STYLE1
100
AcDbText
  0
TEXT
  5
70A6
100
AcDbEntity
  8
1
100
AcDbText
 10
2430.18677
 20
212.21245
 30
0.0
 40
3.0
  1

  7
STYLE1
100
AcDbText
  0
TEXT
  5
70A7
100
AcDbEntity
  8
1
100
AcDbText
 10
2630.18677
 20
212.21245
 30
0.0
 40
3.0
  1

  7
STYLE1
100
AcDbText
  0
TEXT
  5
70A8
100
AcDbEntity
  8
1
100
AcDbText
 10
2230.18677
 20
212.21245
 30
0.0
 40
3.0
  1

  7
STYLE1
100
AcDbText
  0
TEXT
  5
70A9
100
AcDbEntity
  8
1
100
AcDbText
 10
2430.18677
 20
212.21245
 30
0.0
 40
3.0
  1

  7
STYLE1
100
AcDbText
  0
TEXT
  5
70AA
100
AcDbEntity
  8
1
100
AcDbText
 10
2430.18677
 20
212.21245
 30
0.0
 40
3.0
  1

  7
STYLE1
100
AcDbText
  0
TEXT
  5
70AB
100
AcDbEntity
  8
1
100
AcDbText
 10
2630.18677
 20
212.21245
 30
0.0
 40
3.0
  1

  7
STYLE1
100
AcDbText
  0
TEXT
  5
70AC
100
AcDbEntity
  8
1
100
AcDbText
 10
2230.18677
 20
212.21245
 30
0.0
 40
3.0
  1

  7
STYLE1
100
AcDbText
  0
TEXT
  5
70AD
100
AcDbEntity
  8
1
100
AcDbText
 10
2430.18677
 20
212.21245
 30
0.0
 40
3.0
  1

  7
STYLE1
100
AcDbText
  0
TEXT
  5
70AE
100
AcDbEntity
  8
1
100
AcDbText
 10
2430.18677
 20
212.21245
 30
0.0
 40
3.0
  1

  7
STYLE1
100
AcDbText
  0
TEXT
  5
70AF
100
AcDbEntity
  8
1
100
AcDbText
 10
2630.18677
 20
212.21245
 30
0.0
 40
3.0
  1

  7
STYLE1
100
AcDbText
  0
TEXT
  5
70B0
100
AcDbEntity
  8
1
100
AcDbText
 10
2630.18677
 20
212.21245
 30
0.0
 40
3.0
  1

  7
STYLE1
100
AcDbText
  0
TEXT
  5
70B1
100
AcDbEntity
  8
1
100
AcDbText
 10
2830.18677
 20
212.21245
 30
0.0
 40
3.0
  1

  7
STYLE1
100
AcDbText
  0
TEXT
  5
70B2
100
AcDbEntity
  8
1
100
AcDbText
 10
2430.18677
 20
212.21245
 30
0.0
 40
3.0
  1

  7
STYLE1
100
AcDbText
  0
TEXT
  5
70B3
100
AcDbEntity
  8
1
100
AcDbText
 10
2630.18677
 20
212.21245
 30
0.0
 40
3.0
  1

  7
STYLE1
100
AcDbText
  0
TEXT
  5
70B4
100
AcDbEntity
  8
1
100
AcDbText
 10
2630.18677
 20
212.21245
 30
0.0
 40
3.0
  1

  7
STYLE1
100
AcDbText
  0
TEXT
  5
70B5
100
AcDbEntity
  8
1
100
AcDbText
 10
2830.18677
 20
212.21245
 30
0.0
 40
3.0
  1

  7
STYLE1
100
AcDbText
  0
TEXT
  5
70B6
100
AcDbEntity
  8
1
100
AcDbText
 10
2430.18677
 20
212.21245
 30
0.0
 40
3.0
  1

  7
STYLE1
100
AcDbText
  0
TEXT
  5
70B7
100
AcDbEntity
  8
1
100
AcDbText
 10
2630.18677
 20
212.21245
 30
0.0
 40
3.0
  1

  7
STYLE1
100
AcDbText
  0
TEXT
  5
70B8
100
AcDbEntity
  8
1
100
AcDbText
 10
2630.18677
 20
212.21245
 30
0.0
 40
3.0
  1

  7
STYLE1
100
AcDbText
  0
TEXT
  5
70B9
100
AcDbEntity
  8
1
100
AcDbText
 10
2830.18677
 20
212.21245
 30
0.0
 40
3.0
  1

  7
STYLE1
100
AcDbText
  0
TEXT
  5
70BA
100
AcDbEntity
  8
1
100
AcDbText
 10
2830.18677
 20
212.21245
 30
0.0
 40
3.0
  1

  7
STYLE1
100
AcDbText
  0
TEXT
  5
70BB
100
AcDbEntity
  8
1
100
AcDbText
 10
3030.18677
 20
212.21245
 30
0.0
 40
3.0
  1

  7
STYLE1
100
AcDbText
  0
TEXT
  5
70BC
100
AcDbEntity
  8
1
100
AcDbText
 10
2630.18677
 20
212.21245
 30
0.0
 40
3.0
  1

  7
STYLE1
100
AcDbText
  0
TEXT
  5
70BD
100
AcDbEntity
  8
1
100
AcDbText
 10
2830.18677
 20
212.21245
 30
0.0
 40
3.0
  1

  7
STYLE1
100
AcDbText
  0
TEXT
  5
70BE
100
AcDbEntity
  8
1
100
AcDbText
 10
2830.18677
 20
212.21245
 30
0.0
 40
3.0
  1

  7
STYLE1
100
AcDbText
  0
TEXT
  5
70BF
100
AcDbEntity
  8
1
100
AcDbText
 10
3030.18677
 20
212.21245
 30
0.0
 40
3.0
  1

  7
STYLE1
100
AcDbText
  0
TEXT
  5
70C0
100
AcDbEntity
  8
1
100
AcDbText
 10
2230.18677
 20
212.21245
 30
0.0
 40
3.0
  1

  7
STYLE1
100
AcDbText
  0
TEXT
  5
70C1
100
AcDbEntity
  8
1
100
AcDbText
 10
2430.18677
 20
212.21245
 30
0.0
 40
3.0
  1

  7
STYLE1
100
AcDbText
  0
TEXT
  5
70C2
100
AcDbEntity
  8
1
100
AcDbText
 10
2430.18677
 20
212.21245
 30
0.0
 40
3.0
  1

  7
STYLE1
100
AcDbText
  0
TEXT
  5
70C3
100
AcDbEntity
  8
1
100
AcDbText
 10
2630.18677
 20
212.21245
 30
0.0
 40
3.0
  1

  7
STYLE1
100
AcDbText
  0
TEXT
  5
70C4
100
AcDbEntity
  8
1
100
AcDbText
 10
2630.18677
 20
212.21245
 30
0.0
 40
3.0
  1

  7
STYLE1
100
AcDbText
  0
TEXT
  5
70C5
100
AcDbEntity
  8
1
100
AcDbText
 10
2830.18677
 20
212.21245
 30
0.0
 40
3.0
  1

  7
STYLE1
100
AcDbText
  0
TEXT
  5
70C6
100
AcDbEntity
  8
1
100
AcDbText
 10
2430.18677
 20
212.21245
 30
0.0
 40
3.0
  1

  7
STYLE1
100
AcDbText
  0
TEXT
  5
70C7
100
AcDbEntity
  8
1
100
AcDbText
 10
2630.18677
 20
212.21245
 30
0.0
 40
3.0
  1

  7
STYLE1
100
AcDbText
  0
TEXT
  5
70C8
100
AcDbEntity
  8
1
100
AcDbText
 10
2630.18677
 20
212.21245
 30
0.0
 40
3.0
  1

  7
STYLE1
100
AcDbText
  0
TEXT
  5
70C9
100
AcDbEntity
  8
1
100
AcDbText
 10
2830.18677
 20
212.21245
 30
0.0
 40
3.0
  1

  7
STYLE1
100
AcDbText
  0
TEXT
  5
70CA
100
AcDbEntity
  8
1
100
AcDbText
 10
2430.18677
 20
212.21245
 30
0.0
 40
3.0
  1

  7
STYLE1
100
AcDbText
  0
TEXT
  5
70CB
100
AcDbEntity
  8
1
100
AcDbText
 10
2630.18677
 20
212.21245
 30
0.0
 40
3.0
  1

  7
STYLE1
100
AcDbText
  0
TEXT
  5
70CC
100
AcDbEntity
  8
1
100
AcDbText
 10
2630.18677
 20
212.21245
 30
0.0
 40
3.0
  1

  7
STYLE1
100
AcDbText
  0
TEXT
  5
70CD
100
AcDbEntity
  8
1
100
AcDbText
 10
2830.18677
 20
212.21245
 30
0.0
 40
3.0
  1

  7
STYLE1
100
AcDbText
  0
TEXT
  5
70CE
100
AcDbEntity
  8
1
100
AcDbText
 10
2830.18677
 20
212.21245
 30
0.0
 40
3.0
  1

  7
STYLE1
100
AcDbText
  0
TEXT
  5
70CF
100
AcDbEntity
  8
1
100
AcDbText
 10
3030.18677
 20
212.21245
 30
0.0
 40
3.0
  1

  7
STYLE1
100
AcDbText
  0
TEXT
  5
70D0
100
AcDbEntity
  8
1
100
AcDbText
 10
2630.18677
 20
212.21245
 30
0.0
 40
3.0
  1

  7
STYLE1
100
AcDbText
  0
TEXT
  5
70D1
100
AcDbEntity
  8
1
100
AcDbText
 10
2830.18677
 20
212.21245
 30
0.0
 40
3.0
  1

  7
STYLE1
100
AcDbText
  0
TEXT
  5
70D2
100
AcDbEntity
  8
1
100
AcDbText
 10
2830.18677
 20
212.21245
 30
0.0
 40
3.0
  1

  7
STYLE1
100
AcDbText
  0
TEXT
  5
70D3
100
AcDbEntity
  8
1
100
AcDbText
 10
3030.18677
 20
212.21245
 30
0.0
 40
3.0
  1

  7
STYLE1
100
AcDbText
  0
TEXT
  5
70D4
100
AcDbEntity
  8
1
100
AcDbText
 10
2230.18677
 20
212.21245
 30
0.0
 40
3.0
  1

  7
STYLE1
100
AcDbText
  0
TEXT
  5
70D5
100
AcDbEntity
  8
1
100
AcDbText
 10
2430.18677
 20
212.21245
 30
0.0
 40
3.0
  1

  7
STYLE1
100
AcDbText
  0
TEXT
  5
70D6
100
AcDbEntity
  8
1
100
AcDbText
 10
2430.18677
 20
212.21245
 30
0.0
 40
3.0
  1

  7
STYLE1
100
AcDbText
  0
TEXT
  5
70D7
100
AcDbEntity
  8
1
100
AcDbText
 10
2630.18677
 20
212.21245
 30
0.0
 40
3.0
  1

  7
STYLE1
100
AcDbText
  0
TEXT
  5
70D8
100
AcDbEntity
  8
1
100
AcDbText
 10
2630.18677
 20
212.21245
 30
0.0
 40
3.0
  1

  7
STYLE1
100
AcDbText
  0
TEXT
  5
70D9
100
AcDbEntity
  8
1
100
AcDbText
 10
2830.18677
 20
212.21245
 30
0.0
 40
3.0
  1

  7
STYLE1
100
AcDbText
  0
TEXT
  5
70DA
100
AcDbEntity
  8
1
100
AcDbText
 10
2430.18677
 20
212.21245
 30
0.0
 40
3.0
  1

  7
STYLE1
100
AcDbText
  0
TEXT
  5
70DB
100
AcDbEntity
  8
1
100
AcDbText
 10
2630.18677
 20
212.21245
 30
0.0
 40
3.0
  1

  7
STYLE1
100
AcDbText
  0
TEXT
  5
70DC
100
AcDbEntity
  8
1
100
AcDbText
 10
2630.18677
 20
212.21245
 30
0.0
 40
3.0
  1

  7
STYLE1
100
AcDbText
  0
TEXT
  5
70DD
100
AcDbEntity
  8
1
100
AcDbText
 10
2830.18677
 20
212.21245
 30
0.0
 40
3.0
  1

  7
STYLE1
100
AcDbText
  0
TEXT
  5
70DE
100
AcDbEntity
  8
1
100
AcDbText
 10
2430.18677
 20
212.21245
 30
0.0
 40
3.0
  1

  7
STYLE1
100
AcDbText
  0
TEXT
  5
70DF
100
AcDbEntity
  8
1
100
AcDbText
 10
2630.18677
 20
212.21245
 30
0.0
 40
3.0
  1

  7
STYLE1
100
AcDbText
  0
TEXT
  5
70E0
100
AcDbEntity
  8
1
100
AcDbText
 10
2630.18677
 20
212.21245
 30
0.0
 40
3.0
  1

  7
STYLE1
100
AcDbText
  0
TEXT
  5
70E1
100
AcDbEntity
  8
1
100
AcDbText
 10
2830.18677
 20
212.21245
 30
0.0
 40
3.0
  1

  7
STYLE1
100
AcDbText
  0
TEXT
  5
70E2
100
AcDbEntity
  8
1
100
AcDbText
 10
2830.18677
 20
212.21245
 30
0.0
 40
3.0
  1

  7
STYLE1
100
AcDbText
  0
TEXT
  5
70E3
100
AcDbEntity
  8
1
100
AcDbText
 10
3030.18677
 20
212.21245
 30
0.0
 40
3.0
  1

  7
STYLE1
100
AcDbText
  0
TEXT
  5
70E4
100
AcDbEntity
  8
1
100
AcDbText
 10
2630.18677
 20
212.21245
 30
0.0
 40
3.0
  1

  7
STYLE1
100
AcDbText
  0
TEXT
  5
70E5
100
AcDbEntity
  8
1
100
AcDbText
 10
2830.18677
 20
212.21245
 30
0.0
 40
3.0
  1

  7
STYLE1
100
AcDbText
  0
TEXT
  5
70E6
100
AcDbEntity
  8
1
100
AcDbText
 10
2830.18677
 20
212.21245
 30
0.0
 40
3.0
  1

  7
STYLE1
100
AcDbText
  0
TEXT
  5
70E7
100
AcDbEntity
  8
1
100
AcDbText
 10
3030.18677
 20
212.21245
 30
0.0
 40
3.0
  1

  7
STYLE1
100
AcDbText
  0
TEXT
  5
70E8
100
AcDbEntity
  8
1
100
AcDbText
 10
2630.18677
 20
212.21245
 30
0.0
 40
3.0
  1

  7
STYLE1
100
AcDbText
  0
TEXT
  5
70E9
100
AcDbEntity
  8
1
100
AcDbText
 10
2830.18677
 20
212.21245
 30
0.0
 40
3.0
  1

  7
STYLE1
100
AcDbText
  0
TEXT
  5
70EA
100
AcDbEntity
  8
1
100
AcDbText
 10
2830.18677
 20
212.21245
 30
0.0
 40
3.0
  1

  7
STYLE1
100
AcDbText
  0
TEXT
  5
70EB
100
AcDbEntity
  8
1
100
AcDbText
 10
3030.18677
 20
212.21245
 30
0.0
 40
3.0
  1

  7
STYLE1
100
AcDbText
  0
TEXT
  5
70EC
100
AcDbEntity
  8
1
100
AcDbText
 10
3030.18677
 20
212.21245
 30
0.0
 40
3.0
  1

  7
STYLE1
100
AcDbText
  0
TEXT
  5
70ED
100
AcDbEntity
  8
1
100
AcDbText
 10
3230.18677
 20
212.21245
 30
0.0
 40
3.0
  1

  7
STYLE1
100
AcDbText
  0
TEXT
  5
70EE
100
AcDbEntity
  8
1
100
AcDbText
 10
2830.18677
 20
212.21245
 30
0.0
 40
3.0
  1

  7
STYLE1
100
AcDbText
  0
TEXT
  5
70EF
100
AcDbEntity
  8
1
100
AcDbText
 10
3030.18677
 20
212.21245
 30
0.0
 40
3.0
  1

  7
STYLE1
100
AcDbText
  0
TEXT
  5
70F0
100
AcDbEntity
  8
1
100
AcDbText
 10
3030.18677
 20
212.21245
 30
0.0
 40
3.0
  1

  7
STYLE1
100
AcDbText
  0
TEXT
  5
70F1
100
AcDbEntity
  8
1
100
AcDbText
 10
3230.18677
 20
212.21245
 30
0.0
 40
3.0
  1

  7
STYLE1
100
AcDbText
  0
TEXT
  5
E06A
100
AcDbEntity
  8
SK6
100
AcDbText
 10
76.798339
 20
114.971347
 30
0.0
 40
5.0
  1
I9MT1603B0500-NC2033
  7
STYLE1
100
AcDbText
  0
LINE
  5
E1A2
100
AcDbEntity
  8
CUT
100
AcDbLine
 10
102.323199
 20
135.830604
 30
0.0
 11
99.789122
 21
140.264319
 31
0.0
  0
LINE
  5
E1A3
100
AcDbEntity
  8
CUT
100
AcDbLine
 10
107.676801
 20
135.830604
 30
0.0
 11
110.210878
 21
140.264319
 31
0.0
  0
LINE
  5
E1A4
100
AcDbEntity
  8
4
100
AcDbLine
 10
105.0
 20
169.9
 30
0.0
 11
105.0
 21
128.1
 31
0.0
  0
ARC
  5
E1A5
100
AcDbEntity
  8
CUT
100
AcDbCircle
 10
101.455
 20
135.334388
 30
0.0
 40
1.0
100
AcDbArc
 50
0.0
 51
29.75
  0
LINE
  5
E1A6
100
AcDbEntity
  8
CUT
100
AcDbLine
 10
105.0
 20
129.1
 30
0.0
 11
107.545
 21
130.569356
 31
0.0
  0
LINE
  5
E1A7
100
AcDbEntity
  8
CUT
100
AcDbLine
 10
102.455
 20
135.334388
 30
0.0
 11
102.455
 21
130.569356
 31
0.0
  0
LINE
  5
E1A8
100
AcDbEntity
  8
CUT
100
AcDbLine
 10
105.0
 20
129.1
 30
0.0
 11
102.455
 21
130.569356
 31
0.0
  0
LINE
  5
E1A9
100
AcDbEntity
  8
CUT
100
AcDbLine
 10
107.545
 20
135.334388
 30
0.0
 11
107.545
 21
130.569356
 31
0.0
  0
ARC
  5
E1AA
100
AcDbEntity
  8
CUT
100
AcDbCircle
 10
108.545
 20
135.334388
 30
0.0
 40
1.0
100
AcDbArc
 50
150.25
 51
180.0
  0
ARC
  5
E1AB
100
AcDbEntity
  8
CUT
100
AcDbCircle
 10
111.079077
 20
157.231897
 30
0.0
 40
1.0
100
AcDbArc
 50
209.75
 51
240.0
  0
ARC
  5
E1AC
100
AcDbEntity
  8
CUT
100
AcDbCircle
 10
111.079077
 20
139.768103
 30
0.0
 40
1.0
100
AcDbArc
 50
120.0
 51
150.25
  0
LINE
  5
E1AD
100
AcDbEntity
  8
4
100
AcDbLine
 10
95.0
 20
148.5
 30
0.0
 11
115.0
 21
148.5
 31
0.0
  0
LINE
  5
E1AE
100
AcDbEntity
  8
CUT
100
AcDbLine
 10
102.323199
 20
161.169396
 30
0.0
 11
99.789122
 21
156.735681
 31
0.0
  0
LINE
  5
E1AF
100
AcDbEntity
  8
CUT
100
AcDbLine
 10
107.676801
 20
161.169396
 30
0.0
 11
110.210878
 21
156.735681
 31
0.0
  0
LINE
  5
E1B1
100
AcDbEntity
  8
4
100
AcDbLine
 10
96.0
 20
147.5
 30
0.0
 11
96.0
 21
149.5
 31
0.0
  0
ARC
  5
E1B2
100
AcDbEntity
  8
CUT
100
AcDbCircle
 10
96.0
 20
148.5
 30
0.0
 40
2.5
100
AcDbArc
 50
293.578178
 51
66.421822
  0
LINE
  5
E1B3
100
AcDbEntity
  8
CUT
100
AcDbLine
 10
99.420923
 20
140.634128
 30
0.0
 11
97.0
 21
142.031849
 31
0.0
  0
LINE
  5
E1B4
100
AcDbEntity
  8
CUT
100
AcDbLine
 10
97.0
 20
146.208712
 30
0.0
 11
97.0
 21
142.031849
 31
0.0
  0
ARC
  5
E1B5
100
AcDbEntity
  8
CUT
100
AcDbCircle
 10
98.920923
 20
139.768103
 30
0.0
 40
1.0
100
AcDbArc
 50
29.75
 51
60.0
  0
LINE
  5
E1B6
100
AcDbEntity
  8
CUT
100
AcDbLine
 10
99.420923
 20
156.365872
 30
0.0
 11
97.0
 21
154.968151
 31
0.0
  0
LINE
  5
E1B7
100
AcDbEntity
  8
CUT
100
AcDbLine
 10
97.0
 20
154.968151
 30
0.0
 11
97.0
 21
150.791288
 31
0.0
  0
ARC
  5
E1B8
100
AcDbEntity
  8
CUT
100
AcDbCircle
 10
98.920923
 20
157.231897
 30
0.0
 40
1.0
100
AcDbArc
 50
300.0
 51
330.25
  0
ARC
  5
E1BA
100
AcDbEntity
  8
CUT
100
AcDbCircle
 10
101.455
 20
161.665612
 30
0.0
 40
1.0
100
AcDbArc
 50
330.25
 51
0.0
  0
LINE
  5
E1BB
100
AcDbEntity
  8
CUT
100
AcDbLine
 10
105.0
 20
167.9
 30
0.0
 11
107.545
 21
166.430644
 31
0.0
  0
LINE
  5
E1BC
100
AcDbEntity
  8
CUT
100
AcDbLine
 10
102.455
 20
161.665612
 30
0.0
 11
102.455
 21
166.430644
 31
0.0
  0
LINE
  5
E1BD
100
AcDbEntity
  8
CUT
100
AcDbLine
 10
105.0
 20
167.9
 30
0.0
 11
102.455
 21
166.430644
 31
0.0
  0
LINE
  5
E1BE
100
AcDbEntity
  8
CUT
100
AcDbLine
 10
107.545
 20
161.665612
 30
0.0
 11
107.545
 21
166.430644
 31
0.0
  0
ARC
  5
E1BF
100
AcDbEntity
  8
CUT
100
AcDbCircle
 10
108.545
 20
161.665612
 30
0.0
 40
1.0
100
AcDbArc
 50
180.0
 51
209.75
  0
LINE
  5
E1C0
100
AcDbEntity
  8
4
100
AcDbLine
 10
114.0
 20
147.5
 30
0.0
 11
114.0
 21
149.5
 31
0.0
  0
ARC
  5
E1C1
100
AcDbEntity
  8
CUT
100
AcDbCircle
 10
114.0
 20
148.5
 30
0.0
 40
2.5
100
AcDbArc
 50
113.578178
 51
246.421822
  0
LINE
  5
E1C2
100
AcDbEntity
  8
CUT
100
AcDbLine
 10
113.0
 20
146.208712
 30
0.0
 11
113.0
 21
142.031849
 31
0.0
  0
LINE
  5
E1C3
100
AcDbEntity
  8
CUT
100
AcDbLine
 10
110.579077
 20
140.634128
 30
0.0
 11
113.0
 21
142.031849
 31
0.0
  0
LINE
  5
E1C4
100
AcDbEntity
  8
CUT
100
AcDbLine
 10
113.0
 20
154.968151
 30
0.0
 11
113.0
 21
150.791288
 31
0.0
  0
LINE
  5
E1C5
100
AcDbEntity
  8
CUT
100
AcDbLine
 10
110.579077
 20
156.365872
 30
0.0
 11
113.0
 21
154.968151
 31
0.0
  0
HATCH
  5
E1C6
100
AcDbEntity
  8
2
100
AcDbHatch
 10
0.0
 20
0.0
 30
0.0
210
0.0
220
0.0
230
1.0
  2
ANSI31
 70
     0
 71
     1
 91
        2
 92
        7
 72
     1
 73
     1
 93
        3
 10
102.8
 20
148.5
 42
0.0
 10
105.0
 20
148.5
 42
0.0
 10
105.0
 20
150.6999999999999
 42
0.4142135623730939
 97
        3
330
E1C8
330
E1C7
330
E1C9
 92
        7
 72
     1
 73
     1
 93
        3
 10
107.2
 20
148.5
 42
0.0
 10
105.0
 20
148.5
 42
0.0
 10
105.0
 20
146.3
 42
0.4142135623730939
 97
        3
330
E1C7
330
E1C9
330
E1C8
 75
     0
 76
     1
 52
0.0
 41
1.0
 77
     0
 78
     1
 53
45.0
 43
0.0
 44
0.0
 45
-0.0883883476483184
 46
0.0883883476483185
 79
     0
 47
0.09714
 98
        2
 10
103.556569
 20
149.432864
 10
106.083379
 20
147.5872
  0
LINE
  5
E1C7
102
{ACAD_REACTORS
330
E1C6
102
}
100
AcDbEntity
  8
2
100
AcDbLine
 10
102.8
 20
148.5
 30
0.0
 11
107.2
 21
148.5
 31
0.0
  0
CIRCLE
  5
E1C8
102
{ACAD_REACTORS
330
E1C6
102
}
100
AcDbEntity
  8
2
100
AcDbCircle
 10
105.0
 20
148.5
 30
0.0
 40
2.2
  0
LINE
  5
E1C9
102
{ACAD_REACTORS
330
E1C6
102
}
100
AcDbEntity
  8
2
100
AcDbLine
 10
105.0
 20
150.7
 30
0.0
 11
105.0
 21
146.3
 31
0.0
  0
VIEWPORT
  5
22
100
AcDbEntity
 67
     1
  8
0
100
AcDbViewport
 10
261.517699
 20
148.5
 30
0.0
 40
523.035398
 41
297.0
 68
    -1
 69
     1
1001
ACAD
1000
MVIEW
1002
{
1070
    16
1010
0.0
1020
0.0
1030
0.0
1010
0.0
1020
0.0
1030
1.0
1040
0.0
1040
297.0
1040
261.517699
1040
148.5
1040
50.0
1040
0.0
1040
0.0
1070
     0
1070
   100
1070
     1
1070
     1
1070
     0
1070
     0
1070
     0
1070
     0
1040
0.0
1040
0.0
1040
0.0
1040
1.0
1040
1.0
1040
10.0
1040
10.0
1070
     0
1002
{
1002
}
1002
}
  0
ENDSEC
  0
SECTION
  2
OBJECTS
  0
DICTIONARY
  5
C
100
AcDbDictionary
  3
ACAD_GROUP
350
D
  3
ACAD_MLINESTYLE
350
E
  3
ACDBVARIABLEDICTIONARY
350
5D
  0
DICTIONARY
  5
D
102
{ACAD_REACTORS
330
C
102
}
100
AcDbDictionary
  0
DICTIONARY
  5
E
102
{ACAD_REACTORS
330
C
102
}
100
AcDbDictionary
  3
STANDARD
350
13
  0
DICTIONARY
  5
5D
102
{ACAD_REACTORS
330
C
102
}
100
AcDbDictionary
  3
DIMADEC
350
5E
  3
SORTENTS
350
1677
  0
MLINESTYLE
  5
13
102
{ACAD_REACTORS
330
E
102
}
100
AcDbMlineStyle
  2
STANDARD
 70
     0
  3

 62
     0
 51
90.0
 52
90.0
 71
     2
 49
0.5
 62
   256
  6
BYLAYER
 49
-0.5
 62
   256
  6
BYLAYER
  0
DICTIONARYVAR
  5
5E
102
{ACAD_REACTORS
330
5D
102
}
100
DictionaryVariables
280
     0
  1
0
  0
DICTIONARYVAR
  5
1677
102
{ACAD_REACTORS
330
5D
102
}
100
DictionaryVariables
280
     0
  1
96
  0
ENDSEC
  0
EOF
