ISO-10303-21;
HEADER;
FILE_DESCRIPTION((''),'2;1');
FILE_NAME('KONTUR-VOLLRADIUSFRAESER-D2','2017-06-01T',('wom'),(''),
'CREO PARAMETRIC BY PTC INC, 2016260','CREO PARAMETRIC BY PTC INC, 2016260','');
FILE_SCHEMA(('CONFIG_CONTROL_DESIGN'));
ENDSEC;
DATA;
#1=CARTESIAN_POINT('',(5.8E1,0.E0,0.E0));
#2=DIRECTION('',(-1.E0,0.E0,0.E0));
#3=DIRECTION('',(0.E0,1.E0,0.E0));
#4=AXIS2_PLACEMENT_3D('',#1,#2,#3);
#6=CARTESIAN_POINT('',(5.8E1,0.E0,0.E0));
#7=DIRECTION('',(-1.E0,0.E0,0.E0));
#8=DIRECTION('',(0.E0,-1.E0,0.E0));
#9=AXIS2_PLACEMENT_3D('',#6,#7,#8);
#11=DIRECTION('',(7.071067811865E-1,-7.071067811866E-1,2.675009131086E-9));
#12=VECTOR('',#11,5.656854272616E-1);
#13=CARTESIAN_POINT('',(5.760000001051E1,2.999999989489E0,9.727804168855E-9));
#14=LINE('',#13,#12);
#15=CARTESIAN_POINT('',(5.76E1,0.E0,0.E0));
#16=DIRECTION('',(-1.E0,0.E0,0.E0));
#17=DIRECTION('',(0.E0,1.E0,0.E0));
#18=AXIS2_PLACEMENT_3D('',#15,#16,#17);
#20=DIRECTION('',(-1.E0,2.410844204626E-10,-2.231147660348E-10));
#21=VECTOR('',#20,4.360000001051E1);
#22=CARTESIAN_POINT('',(5.760000001051E1,2.999999989489E0,9.727804168855E-9));
#23=LINE('',#22,#21);
#24=DIRECTION('',(-1.E0,-2.410844204626E-10,2.231147681414E-10));
#25=VECTOR('',#24,4.360000001051E1);
#26=CARTESIAN_POINT('',(5.760000001051E1,-2.999999989489E0,-9.727804260704E-9));
#27=LINE('',#26,#25);
#28=CARTESIAN_POINT('',(5.76E1,0.E0,0.E0));
#29=DIRECTION('',(-1.E0,0.E0,0.E0));
#30=DIRECTION('',(0.E0,-1.E0,0.E0));
#31=AXIS2_PLACEMENT_3D('',#28,#29,#30);
#33=DIRECTION('',(7.071067811865E-1,7.071067811866E-1,-2.675009156344E-9));
#34=VECTOR('',#33,5.656854272616E-1);
#35=CARTESIAN_POINT('',(5.760000001051E1,-2.999999989489E0,-9.727804260704E-9));
#36=LINE('',#35,#34);
#37=CARTESIAN_POINT('',(1.4E1,0.E0,0.E0));
#38=DIRECTION('',(1.E0,0.E0,0.E0));
#39=DIRECTION('',(0.E0,1.E0,0.E0));
#40=AXIS2_PLACEMENT_3D('',#37,#38,#39);
#42=DIRECTION('',(-8.660254037844E-1,-5.E-1,0.E0));
#43=VECTOR('',#42,2.650704155516E0);
#44=CARTESIAN_POINT('',(1.4E1,3.E0,0.E0));
#45=LINE('',#44,#43);
#46=DIRECTION('',(-8.660254037844E-1,5.E-1,0.E0));
#47=VECTOR('',#46,2.650704155516E0);
#48=CARTESIAN_POINT('',(1.4E1,-3.E0,0.E0));
#49=LINE('',#48,#47);
#50=CARTESIAN_POINT('',(1.4E1,0.E0,0.E0));
#51=DIRECTION('',(-1.E0,0.E0,0.E0));
#52=DIRECTION('',(0.E0,1.E0,0.E0));
#53=AXIS2_PLACEMENT_3D('',#50,#51,#52);
#55=CARTESIAN_POINT('',(9.E0,6.358845726812E0,0.E0));
#56=DIRECTION('',(0.E0,0.E0,-1.E0));
#57=DIRECTION('',(5.E-1,-8.660254037844E-1,0.E0));
#58=AXIS2_PLACEMENT_3D('',#55,#56,#57);
#60=CARTESIAN_POINT('',(9.E0,-6.358845726812E0,0.E0));
#61=DIRECTION('',(0.E0,0.E0,1.E0));
#62=DIRECTION('',(5.E-1,8.660254037844E-1,0.E0));
#63=AXIS2_PLACEMENT_3D('',#60,#61,#62);
#65=CARTESIAN_POINT('',(1.170442286341E1,0.E0,0.E0));
#66=DIRECTION('',(-1.E0,0.E0,0.E0));
#67=DIRECTION('',(0.E0,1.E0,0.E0));
#68=AXIS2_PLACEMENT_3D('',#65,#66,#67);
#70=CARTESIAN_POINT('',(1.170442286341E1,0.E0,0.E0));
#71=DIRECTION('',(1.E0,0.E0,0.E0));
#72=DIRECTION('',(0.E0,1.E0,0.E0));
#73=AXIS2_PLACEMENT_3D('',#70,#71,#72);
#75=CARTESIAN_POINT('',(9.E0,0.E0,0.E0));
#76=DIRECTION('',(1.E0,0.E0,0.E0));
#77=DIRECTION('',(0.E0,1.E0,0.E0));
#78=AXIS2_PLACEMENT_3D('',#75,#76,#77);
#80=DIRECTION('',(-1.E0,0.E0,0.E0));
#81=VECTOR('',#80,1.716435909019E0);
#82=CARTESIAN_POINT('',(9.E0,9.5E-1,0.E0));
#83=LINE('',#82,#81);
#84=DIRECTION('',(-1.E0,0.E0,0.E0));
#85=VECTOR('',#84,1.716435909019E0);
#86=CARTESIAN_POINT('',(9.E0,-9.5E-1,0.E0));
#87=LINE('',#86,#85);
#88=CARTESIAN_POINT('',(9.E0,0.E0,0.E0));
#89=DIRECTION('',(-1.E0,0.E0,0.E0));
#90=DIRECTION('',(0.E0,1.E0,0.E0));
#91=AXIS2_PLACEMENT_3D('',#88,#89,#90);
#93=DIRECTION('',(-9.848077530122E-1,1.736481776669E-1,0.E0));
#94=VECTOR('',#93,2.879385241572E-1);
#95=CARTESIAN_POINT('',(7.283564090981E0,9.5E-1,0.E0));
#96=LINE('',#95,#94);
#97=DIRECTION('',(-9.848077530122E-1,-1.736481776669E-1,0.E0));
#98=VECTOR('',#97,2.879385241572E-1);
#99=CARTESIAN_POINT('',(7.283564090981E0,-9.5E-1,0.E0));
#100=LINE('',#99,#98);
#101=CARTESIAN_POINT('',(7.283564090981E0,0.E0,0.E0));
#102=DIRECTION('',(-1.E0,0.E0,0.E0));
#103=DIRECTION('',(0.E0,1.E0,0.E0));
#104=AXIS2_PLACEMENT_3D('',#101,#102,#103);
#106=CARTESIAN_POINT('',(7.283564090981E0,0.E0,0.E0));
#107=DIRECTION('',(1.E0,0.E0,0.E0));
#108=DIRECTION('',(0.E0,1.E0,0.E0));
#109=AXIS2_PLACEMENT_3D('',#106,#107,#108);
#111=CARTESIAN_POINT('',(1.E0,0.E0,0.E0));
#112=DIRECTION('',(1.E0,0.E0,0.E0));
#113=DIRECTION('',(0.E0,1.E0,0.E0));
#114=AXIS2_PLACEMENT_3D('',#111,#112,#113);
#116=CARTESIAN_POINT('',(7.E0,0.E0,0.E0));
#117=DIRECTION('',(1.E0,0.E0,0.E0));
#118=DIRECTION('',(0.E0,1.E0,0.E0));
#119=AXIS2_PLACEMENT_3D('',#116,#117,#118);
#121=CARTESIAN_POINT('',(1.E0,0.E0,0.E0));
#122=DIRECTION('',(0.E0,0.E0,-1.E0));
#123=DIRECTION('',(-1.E0,0.E0,0.E0));
#124=AXIS2_PLACEMENT_3D('',#121,#122,#123);
#126=CARTESIAN_POINT('',(1.E0,0.E0,0.E0));
#127=DIRECTION('',(0.E0,0.E0,1.E0));
#128=DIRECTION('',(-1.E0,0.E0,0.E0));
#129=AXIS2_PLACEMENT_3D('',#126,#127,#128);
#131=CARTESIAN_POINT('',(1.E0,0.E0,0.E0));
#132=DIRECTION('',(1.E0,0.E0,0.E0));
#133=DIRECTION('',(0.E0,-1.E0,0.E0));
#134=AXIS2_PLACEMENT_3D('',#131,#132,#133);
#136=DIRECTION('',(-1.E0,0.E0,0.E0));
#137=VECTOR('',#136,6.E0);
#138=CARTESIAN_POINT('',(7.E0,-1.E0,0.E0));
#139=LINE('',#138,#137);
#140=CARTESIAN_POINT('',(7.E0,0.E0,0.E0));
#141=DIRECTION('',(-1.E0,0.E0,0.E0));
#142=DIRECTION('',(0.E0,1.E0,0.E0));
#143=AXIS2_PLACEMENT_3D('',#140,#141,#142);
#145=DIRECTION('',(-1.E0,0.E0,0.E0));
#146=VECTOR('',#145,6.E0);
#147=CARTESIAN_POINT('',(7.E0,1.E0,0.E0));
#148=LINE('',#147,#146);
#149=CARTESIAN_POINT('',(1.4E1,3.E0,0.E0));
#150=CARTESIAN_POINT('',(1.170442286341E1,1.674647922242E0,0.E0));
#151=VERTEX_POINT('',#149);
#152=VERTEX_POINT('',#150);
#153=CARTESIAN_POINT('',(9.E0,9.5E-1,0.E0));
#154=VERTEX_POINT('',#153);
#155=CARTESIAN_POINT('',(7.283564090981E0,9.5E-1,0.E0));
#156=VERTEX_POINT('',#155);
#157=CARTESIAN_POINT('',(7.E0,1.E0,0.E0));
#158=VERTEX_POINT('',#157);
#159=CARTESIAN_POINT('',(1.4E1,-3.E0,0.E0));
#160=CARTESIAN_POINT('',(1.170442286341E1,-1.674647922242E0,0.E0));
#161=VERTEX_POINT('',#159);
#162=VERTEX_POINT('',#160);
#163=CARTESIAN_POINT('',(9.E0,-9.5E-1,0.E0));
#164=VERTEX_POINT('',#163);
#165=CARTESIAN_POINT('',(7.283564090981E0,-9.5E-1,0.E0));
#166=VERTEX_POINT('',#165);
#167=CARTESIAN_POINT('',(7.E0,-1.E0,0.E0));
#168=VERTEX_POINT('',#167);
#169=CARTESIAN_POINT('',(1.E0,1.E0,0.E0));
#170=CARTESIAN_POINT('',(1.E0,-1.E0,0.E0));
#171=VERTEX_POINT('',#169);
#172=VERTEX_POINT('',#170);
#173=CARTESIAN_POINT('',(0.E0,0.E0,0.E0));
#174=VERTEX_POINT('',#173);
#175=CARTESIAN_POINT('',(5.76E1,3.E0,0.E0));
#176=CARTESIAN_POINT('',(5.76E1,-3.E0,0.E0));
#177=VERTEX_POINT('',#175);
#178=VERTEX_POINT('',#176);
#179=CARTESIAN_POINT('',(5.8E1,2.6E0,0.E0));
#180=CARTESIAN_POINT('',(5.8E1,-2.6E0,0.E0));
#181=VERTEX_POINT('',#179);
#182=VERTEX_POINT('',#180);
#183=CARTESIAN_POINT('',(5.8E1,0.E0,0.E0));
#184=DIRECTION('',(1.E0,0.E0,0.E0));
#185=DIRECTION('',(0.E0,-1.E0,0.E0));
#186=AXIS2_PLACEMENT_3D('',#183,#184,#185);
#187=PLANE('',#186);
#189=ORIENTED_EDGE('',*,*,#188,.T.);
#191=ORIENTED_EDGE('',*,*,#190,.T.);
#192=EDGE_LOOP('',(#189,#191));
#193=FACE_OUTER_BOUND('',#192,.F.);
#194=ADVANCED_FACE('',(#193),#187,.T.);
#195=CARTESIAN_POINT('',(5.780000000846E1,0.E0,0.E0));
#196=DIRECTION('',(-1.E0,0.E0,0.E0));
#197=DIRECTION('',(0.E0,0.E0,-1.E0));
#198=AXIS2_PLACEMENT_3D('',#195,#196,#197);
#199=CONICAL_SURFACE('',#198,2.799999991542E0,4.5E1);
#201=ORIENTED_EDGE('',*,*,#200,.T.);
#203=ORIENTED_EDGE('',*,*,#202,.T.);
#204=ORIENTED_EDGE('',*,*,#188,.F.);
#206=ORIENTED_EDGE('',*,*,#205,.F.);
#207=EDGE_LOOP('',(#201,#203,#204,#206));
#208=FACE_OUTER_BOUND('',#207,.F.);
#209=ADVANCED_FACE('',(#208),#199,.T.);
#210=CARTESIAN_POINT('',(-2.9E0,0.E0,0.E0));
#211=DIRECTION('',(1.E0,0.E0,0.E0));
#212=DIRECTION('',(0.E0,-1.E0,0.E0));
#213=AXIS2_PLACEMENT_3D('',#210,#211,#212);
#214=CYLINDRICAL_SURFACE('',#213,3.E0);
#215=ORIENTED_EDGE('',*,*,#200,.F.);
#217=ORIENTED_EDGE('',*,*,#216,.T.);
#219=ORIENTED_EDGE('',*,*,#218,.T.);
#221=ORIENTED_EDGE('',*,*,#220,.F.);
#222=EDGE_LOOP('',(#215,#217,#219,#221));
#223=FACE_OUTER_BOUND('',#222,.F.);
#224=ADVANCED_FACE('',(#223),#214,.T.);
#225=CARTESIAN_POINT('',(-2.9E0,0.E0,0.E0));
#226=DIRECTION('',(1.E0,0.E0,0.E0));
#227=DIRECTION('',(0.E0,-1.E0,0.E0));
#228=AXIS2_PLACEMENT_3D('',#225,#226,#227);
#229=CYLINDRICAL_SURFACE('',#228,3.E0);
#231=ORIENTED_EDGE('',*,*,#230,.F.);
#232=ORIENTED_EDGE('',*,*,#220,.T.);
#234=ORIENTED_EDGE('',*,*,#233,.F.);
#235=ORIENTED_EDGE('',*,*,#216,.F.);
#236=EDGE_LOOP('',(#231,#232,#234,#235));
#237=FACE_OUTER_BOUND('',#236,.F.);
#238=ADVANCED_FACE('',(#237),#229,.T.);
#239=CARTESIAN_POINT('',(5.780000000846E1,0.E0,0.E0));
#240=DIRECTION('',(-1.E0,0.E0,0.E0));
#241=DIRECTION('',(0.E0,0.E0,-1.E0));
#242=AXIS2_PLACEMENT_3D('',#239,#240,#241);
#243=CONICAL_SURFACE('',#242,2.799999991542E0,4.5E1);
#244=ORIENTED_EDGE('',*,*,#230,.T.);
#245=ORIENTED_EDGE('',*,*,#205,.T.);
#246=ORIENTED_EDGE('',*,*,#190,.F.);
#247=ORIENTED_EDGE('',*,*,#202,.F.);
#248=EDGE_LOOP('',(#244,#245,#246,#247));
#249=FACE_OUTER_BOUND('',#248,.F.);
#250=ADVANCED_FACE('',(#249),#243,.T.);
#251=CARTESIAN_POINT('',(1.285221143170E1,0.E0,0.E0));
#252=DIRECTION('',(1.E0,0.E0,0.E0));
#253=DIRECTION('',(0.E0,-1.E0,0.E0));
#254=AXIS2_PLACEMENT_3D('',#251,#252,#253);
#255=CONICAL_SURFACE('',#254,2.337323961121E0,3.E1);
#257=ORIENTED_EDGE('',*,*,#256,.F.);
#258=ORIENTED_EDGE('',*,*,#233,.T.);
#260=ORIENTED_EDGE('',*,*,#259,.T.);
#262=ORIENTED_EDGE('',*,*,#261,.F.);
#263=EDGE_LOOP('',(#257,#258,#260,#262));
#264=FACE_OUTER_BOUND('',#263,.F.);
#265=ADVANCED_FACE('',(#264),#255,.T.);
#266=CARTESIAN_POINT('',(1.285221143170E1,0.E0,0.E0));
#267=DIRECTION('',(1.E0,0.E0,0.E0));
#268=DIRECTION('',(0.E0,-1.E0,0.E0));
#269=AXIS2_PLACEMENT_3D('',#266,#267,#268);
#270=CONICAL_SURFACE('',#269,2.337323961121E0,3.E1);
#271=ORIENTED_EDGE('',*,*,#256,.T.);
#273=ORIENTED_EDGE('',*,*,#272,.T.);
#274=ORIENTED_EDGE('',*,*,#259,.F.);
#275=ORIENTED_EDGE('',*,*,#218,.F.);
#276=EDGE_LOOP('',(#271,#273,#274,#275));
#277=FACE_OUTER_BOUND('',#276,.F.);
#278=ADVANCED_FACE('',(#277),#270,.T.);
#279=CARTESIAN_POINT('',(9.E0,0.E0,0.E0));
#280=DIRECTION('',(1.E0,0.E0,0.E0));
#281=DIRECTION('',(0.E0,-1.E0,0.E0));
#282=AXIS2_PLACEMENT_3D('',#279,#280,#281);
#283=TOROIDAL_SURFACE('',#282,6.358845726812E0,5.408845726812E0);
#285=ORIENTED_EDGE('',*,*,#284,.T.);
#287=ORIENTED_EDGE('',*,*,#286,.T.);
#289=ORIENTED_EDGE('',*,*,#288,.F.);
#290=ORIENTED_EDGE('',*,*,#272,.F.);
#291=EDGE_LOOP('',(#285,#287,#289,#290));
#292=FACE_OUTER_BOUND('',#291,.F.);
#293=ADVANCED_FACE('',(#292),#283,.F.);
#294=CARTESIAN_POINT('',(9.E0,0.E0,0.E0));
#295=DIRECTION('',(1.E0,0.E0,0.E0));
#296=DIRECTION('',(0.E0,-1.E0,0.E0));
#297=AXIS2_PLACEMENT_3D('',#294,#295,#296);
#298=TOROIDAL_SURFACE('',#297,6.358845726812E0,5.408845726812E0);
#299=ORIENTED_EDGE('',*,*,#284,.F.);
#300=ORIENTED_EDGE('',*,*,#261,.T.);
#301=ORIENTED_EDGE('',*,*,#288,.T.);
#303=ORIENTED_EDGE('',*,*,#302,.F.);
#304=EDGE_LOOP('',(#299,#300,#301,#303));
#305=FACE_OUTER_BOUND('',#304,.F.);
#306=ADVANCED_FACE('',(#305),#298,.F.);
#307=CARTESIAN_POINT('',(-2.9E0,0.E0,0.E0));
#308=DIRECTION('',(1.E0,0.E0,0.E0));
#309=DIRECTION('',(0.E0,-1.E0,0.E0));
#310=AXIS2_PLACEMENT_3D('',#307,#308,#309);
#311=CYLINDRICAL_SURFACE('',#310,9.5E-1);
#313=ORIENTED_EDGE('',*,*,#312,.F.);
#314=ORIENTED_EDGE('',*,*,#302,.T.);
#316=ORIENTED_EDGE('',*,*,#315,.T.);
#318=ORIENTED_EDGE('',*,*,#317,.F.);
#319=EDGE_LOOP('',(#313,#314,#316,#318));
#320=FACE_OUTER_BOUND('',#319,.F.);
#321=ADVANCED_FACE('',(#320),#311,.T.);
#322=CARTESIAN_POINT('',(-2.9E0,0.E0,0.E0));
#323=DIRECTION('',(1.E0,0.E0,0.E0));
#324=DIRECTION('',(0.E0,-1.E0,0.E0));
#325=AXIS2_PLACEMENT_3D('',#322,#323,#324);
#326=CYLINDRICAL_SURFACE('',#325,9.5E-1);
#327=ORIENTED_EDGE('',*,*,#312,.T.);
#329=ORIENTED_EDGE('',*,*,#328,.T.);
#330=ORIENTED_EDGE('',*,*,#315,.F.);
#331=ORIENTED_EDGE('',*,*,#286,.F.);
#332=EDGE_LOOP('',(#327,#329,#330,#331));
#333=FACE_OUTER_BOUND('',#332,.F.);
#334=ADVANCED_FACE('',(#333),#326,.T.);
#335=CARTESIAN_POINT('',(7.141782045490E0,0.E0,0.E0));
#336=DIRECTION('',(-1.E0,0.E0,0.E0));
#337=DIRECTION('',(0.E0,1.E0,0.E0));
#338=AXIS2_PLACEMENT_3D('',#335,#336,#337);
#339=CONICAL_SURFACE('',#338,9.75E-1,1.E1);
#341=ORIENTED_EDGE('',*,*,#340,.T.);
#343=ORIENTED_EDGE('',*,*,#342,.T.);
#345=ORIENTED_EDGE('',*,*,#344,.F.);
#346=ORIENTED_EDGE('',*,*,#328,.F.);
#347=EDGE_LOOP('',(#341,#343,#345,#346));
#348=FACE_OUTER_BOUND('',#347,.F.);
#349=ADVANCED_FACE('',(#348),#339,.T.);
#350=CARTESIAN_POINT('',(7.141782045490E0,0.E0,0.E0));
#351=DIRECTION('',(-1.E0,0.E0,0.E0));
#352=DIRECTION('',(0.E0,1.E0,0.E0));
#353=AXIS2_PLACEMENT_3D('',#350,#351,#352);
#354=CONICAL_SURFACE('',#353,9.75E-1,1.E1);
#355=ORIENTED_EDGE('',*,*,#340,.F.);
#356=ORIENTED_EDGE('',*,*,#317,.T.);
#357=ORIENTED_EDGE('',*,*,#344,.T.);
#359=ORIENTED_EDGE('',*,*,#358,.F.);
#360=EDGE_LOOP('',(#355,#356,#357,#359));
#361=FACE_OUTER_BOUND('',#360,.F.);
#362=ADVANCED_FACE('',(#361),#354,.T.);
#363=CARTESIAN_POINT('',(-2.9E0,0.E0,0.E0));
#364=DIRECTION('',(1.E0,0.E0,0.E0));
#365=DIRECTION('',(0.E0,-1.E0,0.E0));
#366=AXIS2_PLACEMENT_3D('',#363,#364,#365);
#367=CYLINDRICAL_SURFACE('',#366,1.E0);
#369=ORIENTED_EDGE('',*,*,#368,.F.);
#371=ORIENTED_EDGE('',*,*,#370,.F.);
#372=ORIENTED_EDGE('',*,*,#358,.T.);
#374=ORIENTED_EDGE('',*,*,#373,.T.);
#375=EDGE_LOOP('',(#369,#371,#372,#374));
#376=FACE_OUTER_BOUND('',#375,.F.);
#377=ADVANCED_FACE('',(#376),#367,.T.);
#378=CARTESIAN_POINT('',(1.E0,0.E0,0.E0));
#379=DIRECTION('',(1.E0,0.E0,0.E0));
#380=DIRECTION('',(0.E0,-1.E0,0.E0));
#381=AXIS2_PLACEMENT_3D('',#378,#379,#380);
#382=SPHERICAL_SURFACE('',#381,1.E0);
#383=ORIENTED_EDGE('',*,*,#368,.T.);
#385=ORIENTED_EDGE('',*,*,#384,.F.);
#387=ORIENTED_EDGE('',*,*,#386,.T.);
#388=EDGE_LOOP('',(#383,#385,#387));
#389=FACE_OUTER_BOUND('',#388,.F.);
#390=ADVANCED_FACE('',(#389),#382,.T.);
#391=CARTESIAN_POINT('',(1.E0,0.E0,0.E0));
#392=DIRECTION('',(1.E0,0.E0,0.E0));
#393=DIRECTION('',(0.E0,-1.E0,0.E0));
#394=AXIS2_PLACEMENT_3D('',#391,#392,#393);
#395=SPHERICAL_SURFACE('',#394,1.E0);
#397=ORIENTED_EDGE('',*,*,#396,.T.);
#398=ORIENTED_EDGE('',*,*,#386,.F.);
#399=ORIENTED_EDGE('',*,*,#384,.T.);
#400=EDGE_LOOP('',(#397,#398,#399));
#401=FACE_OUTER_BOUND('',#400,.F.);
#402=ADVANCED_FACE('',(#401),#395,.T.);
#403=CARTESIAN_POINT('',(-2.9E0,0.E0,0.E0));
#404=DIRECTION('',(1.E0,0.E0,0.E0));
#405=DIRECTION('',(0.E0,-1.E0,0.E0));
#406=AXIS2_PLACEMENT_3D('',#403,#404,#405);
#407=CYLINDRICAL_SURFACE('',#406,1.E0);
#408=ORIENTED_EDGE('',*,*,#396,.F.);
#409=ORIENTED_EDGE('',*,*,#373,.F.);
#410=ORIENTED_EDGE('',*,*,#342,.F.);
#411=ORIENTED_EDGE('',*,*,#370,.T.);
#412=EDGE_LOOP('',(#408,#409,#410,#411));
#413=FACE_OUTER_BOUND('',#412,.F.);
#414=ADVANCED_FACE('',(#413),#407,.T.);
#415=CLOSED_SHELL('',(#194,#209,#224,#238,#250,#265,#278,#293,#306,#321,#334,
#349,#362,#377,#390,#402,#414));
#416=MANIFOLD_SOLID_BREP('',#415);
#418=DIMENSIONAL_EXPONENTS(0.E0,0.E0,0.E0,0.E0,0.E0,0.E0,0.E0);
#420=PLANE_ANGLE_MEASURE_WITH_UNIT(PLANE_ANGLE_MEASURE(1.745329251994E-2),#419);
#421=(CONVERSION_BASED_UNIT('DEGREE',#420)NAMED_UNIT(*)PLANE_ANGLE_UNIT());
#423=UNCERTAINTY_MEASURE_WITH_UNIT(LENGTH_MEASURE(1.E-2),#417,'closure',
'Maximum model space distance between geometric entities at asserted connectivities');
#424=(GEOMETRIC_REPRESENTATION_CONTEXT(3)GLOBAL_UNCERTAINTY_ASSIGNED_CONTEXT((
#423))GLOBAL_UNIT_ASSIGNED_CONTEXT((#417,#421,#422))REPRESENTATION_CONTEXT
('ID1','3'));
#426=APPLICATION_CONTEXT(
'CONFIGURATION CONTROLLED 3D DESIGNS OF MECHANICAL PARTS AND ASSEMBLIES');
#427=APPLICATION_PROTOCOL_DEFINITION('international standard',
'config_control_design',1994,#426);
#428=DESIGN_CONTEXT('',#426,'design');
#429=MECHANICAL_CONTEXT('',#426,'mechanical');
#430=PRODUCT('KONTUR-VOLLRADIUSFRAESER-D2','KONTUR-VOLLRADIUSFRAESER-D2',
'NOT SPECIFIED',(#429));
#431=PRODUCT_DEFINITION_FORMATION_WITH_SPECIFIED_SOURCE('1','LAST_VERSION',#430,
.MADE.);
#435=PRODUCT_CATEGORY('part','');
#436=PRODUCT_RELATED_PRODUCT_CATEGORY('detail','',(#430));
#437=PRODUCT_CATEGORY_RELATIONSHIP('','',#435,#436);
#438=SECURITY_CLASSIFICATION_LEVEL('unclassified');
#439=SECURITY_CLASSIFICATION('','',#438);
#440=CC_DESIGN_SECURITY_CLASSIFICATION(#439,(#431));
#441=APPROVAL_STATUS('approved');
#442=APPROVAL(#441,'');
#443=CC_DESIGN_APPROVAL(#442,(#439,#431,#432));
#444=CALENDAR_DATE(117,1,6);
#445=COORDINATED_UNIVERSAL_TIME_OFFSET(2,0,.AHEAD.);
#446=LOCAL_TIME(14,47,3.E0,#445);
#447=DATE_AND_TIME(#444,#446);
#448=APPROVAL_DATE_TIME(#447,#442);
#449=DATE_TIME_ROLE('creation_date');
#450=CC_DESIGN_DATE_AND_TIME_ASSIGNMENT(#447,#449,(#432));
#451=DATE_TIME_ROLE('classification_date');
#452=CC_DESIGN_DATE_AND_TIME_ASSIGNMENT(#447,#451,(#439));
#453=PERSON('UNSPECIFIED','UNSPECIFIED',$,$,$,$);
#454=ORGANIZATION('UNSPECIFIED','UNSPECIFIED','UNSPECIFIED');
#455=PERSON_AND_ORGANIZATION(#453,#454);
#456=APPROVAL_ROLE('approver');
#457=APPROVAL_PERSON_ORGANIZATION(#455,#442,#456);
#458=PERSON_AND_ORGANIZATION_ROLE('creator');
#459=CC_DESIGN_PERSON_AND_ORGANIZATION_ASSIGNMENT(#455,#458,(#431,#432));
#460=PERSON_AND_ORGANIZATION_ROLE('design_supplier');
#461=CC_DESIGN_PERSON_AND_ORGANIZATION_ASSIGNMENT(#455,#460,(#431));
#462=PERSON_AND_ORGANIZATION_ROLE('classification_officer');
#463=CC_DESIGN_PERSON_AND_ORGANIZATION_ASSIGNMENT(#455,#462,(#439));
#464=PERSON_AND_ORGANIZATION_ROLE('design_owner');
#465=CC_DESIGN_PERSON_AND_ORGANIZATION_ASSIGNMENT(#455,#464,(#430));
#5=CIRCLE('',#4,2.6E0);
#10=CIRCLE('',#9,2.6E0);
#19=CIRCLE('',#18,3.E0);
#32=CIRCLE('',#31,3.E0);
#41=CIRCLE('',#40,3.E0);
#54=CIRCLE('',#53,3.E0);
#59=CIRCLE('',#58,5.408845726812E0);
#64=CIRCLE('',#63,5.408845726812E0);
#69=CIRCLE('',#68,1.674647922242E0);
#74=CIRCLE('',#73,1.674647922242E0);
#79=CIRCLE('',#78,9.5E-1);
#92=CIRCLE('',#91,9.5E-1);
#105=CIRCLE('',#104,9.5E-1);
#110=CIRCLE('',#109,9.5E-1);
#115=CIRCLE('',#114,1.E0);
#120=CIRCLE('',#119,1.E0);
#125=CIRCLE('',#124,1.E0);
#130=CIRCLE('',#129,1.E0);
#135=CIRCLE('',#134,1.E0);
#144=CIRCLE('',#143,1.E0);
#188=EDGE_CURVE('',#181,#182,#5,.T.);
#190=EDGE_CURVE('',#182,#181,#10,.T.);
#200=EDGE_CURVE('',#177,#178,#19,.T.);
#202=EDGE_CURVE('',#178,#182,#36,.T.);
#205=EDGE_CURVE('',#177,#181,#14,.T.);
#216=EDGE_CURVE('',#177,#151,#23,.T.);
#218=EDGE_CURVE('',#151,#161,#54,.T.);
#220=EDGE_CURVE('',#178,#161,#27,.T.);
#230=EDGE_CURVE('',#178,#177,#32,.T.);
#233=EDGE_CURVE('',#151,#161,#41,.T.);
#256=EDGE_CURVE('',#151,#152,#45,.T.);
#259=EDGE_CURVE('',#161,#162,#49,.T.);
#261=EDGE_CURVE('',#152,#162,#74,.T.);
#272=EDGE_CURVE('',#152,#162,#69,.T.);
#284=EDGE_CURVE('',#152,#154,#59,.T.);
#286=EDGE_CURVE('',#154,#164,#92,.T.);
#288=EDGE_CURVE('',#162,#164,#64,.T.);
#302=EDGE_CURVE('',#154,#164,#79,.T.);
#312=EDGE_CURVE('',#154,#156,#83,.T.);
#315=EDGE_CURVE('',#164,#166,#87,.T.);
#317=EDGE_CURVE('',#156,#166,#110,.T.);
#328=EDGE_CURVE('',#156,#166,#105,.T.);
#340=EDGE_CURVE('',#156,#158,#96,.T.);
#342=EDGE_CURVE('',#158,#168,#144,.T.);
#344=EDGE_CURVE('',#166,#168,#100,.T.);
#358=EDGE_CURVE('',#158,#168,#120,.T.);
#368=EDGE_CURVE('',#171,#172,#115,.T.);
#370=EDGE_CURVE('',#158,#171,#148,.T.);
#373=EDGE_CURVE('',#168,#172,#139,.T.);
#384=EDGE_CURVE('',#174,#172,#130,.T.);
#386=EDGE_CURVE('',#174,#171,#125,.T.);
#396=EDGE_CURVE('',#172,#171,#135,.T.);
#417=(LENGTH_UNIT()NAMED_UNIT(*)SI_UNIT(.MILLI.,.METRE.));
#419=(NAMED_UNIT(*)PLANE_ANGLE_UNIT()SI_UNIT($,.RADIAN.));
#422=(NAMED_UNIT(*)SI_UNIT($,.STERADIAN.)SOLID_ANGLE_UNIT());
#425=ADVANCED_BREP_SHAPE_REPRESENTATION('',(#416),#424);
#432=PRODUCT_DEFINITION('design','',#431,#428);
#433=PRODUCT_DEFINITION_SHAPE('','SHAPE FOR KONTUR-VOLLRADIUSFRAESER-D2.',#432);
#434=SHAPE_DEFINITION_REPRESENTATION(#433,#425);
ENDSEC;
END-ISO-10303-21;
