ISO-10303-21;
HEADER;
FILE_DESCRIPTION((''),'2;1');
FILE_NAME('KONTUR-SCHAFTFRAESER-D2','2017-06-01T',('wom'),(''),
'CREO PARAMETRIC BY PTC INC, 2016260','CREO PARAMETRIC BY PTC INC, 2016260','');
FILE_SCHEMA(('CONFIG_CONTROL_DESIGN'));
ENDSEC;
DATA;
#1=CARTESIAN_POINT('',(0.E0,0.E0,0.E0));
#2=DIRECTION('',(-1.E0,0.E0,0.E0));
#3=DIRECTION('',(0.E0,1.E0,0.E0));
#4=AXIS2_PLACEMENT_3D('',#1,#2,#3);
#6=CARTESIAN_POINT('',(0.E0,0.E0,0.E0));
#7=DIRECTION('',(1.E0,0.E0,0.E0));
#8=DIRECTION('',(0.E0,1.E0,0.E0));
#9=AXIS2_PLACEMENT_3D('',#6,#7,#8);
#11=DIRECTION('',(-1.E0,0.E0,0.E0));
#12=VECTOR('',#11,7.E0);
#13=CARTESIAN_POINT('',(7.E0,1.E0,0.E0));
#14=LINE('',#13,#12);
#15=DIRECTION('',(-1.E0,0.E0,0.E0));
#16=VECTOR('',#15,7.E0);
#17=CARTESIAN_POINT('',(7.E0,-1.E0,0.E0));
#18=LINE('',#17,#16);
#19=CARTESIAN_POINT('',(7.E0,0.E0,0.E0));
#20=DIRECTION('',(-1.E0,0.E0,0.E0));
#21=DIRECTION('',(0.E0,1.E0,0.E0));
#22=AXIS2_PLACEMENT_3D('',#19,#20,#21);
#24=CARTESIAN_POINT('',(7.E0,0.E0,0.E0));
#25=DIRECTION('',(1.E0,0.E0,0.E0));
#26=DIRECTION('',(0.E0,1.E0,0.E0));
#27=AXIS2_PLACEMENT_3D('',#24,#25,#26);
#29=CARTESIAN_POINT('',(7.283564090981E0,0.E0,0.E0));
#30=DIRECTION('',(1.E0,0.E0,0.E0));
#31=DIRECTION('',(0.E0,1.E0,0.E0));
#32=AXIS2_PLACEMENT_3D('',#29,#30,#31);
#34=DIRECTION('',(-9.848077530122E-1,1.736481776669E-1,0.E0));
#35=VECTOR('',#34,2.879385241572E-1);
#36=CARTESIAN_POINT('',(7.283564090981E0,9.5E-1,0.E0));
#37=LINE('',#36,#35);
#38=DIRECTION('',(-9.848077530122E-1,-1.736481776669E-1,0.E0));
#39=VECTOR('',#38,2.879385241572E-1);
#40=CARTESIAN_POINT('',(7.283564090981E0,-9.5E-1,0.E0));
#41=LINE('',#40,#39);
#42=CARTESIAN_POINT('',(7.283564090981E0,0.E0,0.E0));
#43=DIRECTION('',(-1.E0,0.E0,0.E0));
#44=DIRECTION('',(0.E0,1.E0,0.E0));
#45=AXIS2_PLACEMENT_3D('',#42,#43,#44);
#47=DIRECTION('',(-1.E0,0.E0,0.E0));
#48=VECTOR('',#47,1.716435909019E0);
#49=CARTESIAN_POINT('',(9.E0,9.5E-1,0.E0));
#50=LINE('',#49,#48);
#51=DIRECTION('',(-1.E0,0.E0,0.E0));
#52=VECTOR('',#51,1.716435909019E0);
#53=CARTESIAN_POINT('',(9.E0,-9.5E-1,0.E0));
#54=LINE('',#53,#52);
#55=CARTESIAN_POINT('',(9.E0,0.E0,0.E0));
#56=DIRECTION('',(-1.E0,0.E0,0.E0));
#57=DIRECTION('',(0.E0,1.E0,0.E0));
#58=AXIS2_PLACEMENT_3D('',#55,#56,#57);
#60=CARTESIAN_POINT('',(9.E0,0.E0,0.E0));
#61=DIRECTION('',(1.E0,0.E0,0.E0));
#62=DIRECTION('',(0.E0,1.E0,0.E0));
#63=AXIS2_PLACEMENT_3D('',#60,#61,#62);
#65=CARTESIAN_POINT('',(1.170442286341E1,0.E0,0.E0));
#66=DIRECTION('',(1.E0,0.E0,0.E0));
#67=DIRECTION('',(0.E0,1.E0,0.E0));
#68=AXIS2_PLACEMENT_3D('',#65,#66,#67);
#70=CARTESIAN_POINT('',(9.E0,6.358845726812E0,0.E0));
#71=DIRECTION('',(0.E0,0.E0,-1.E0));
#72=DIRECTION('',(5.E-1,-8.660254037844E-1,0.E0));
#73=AXIS2_PLACEMENT_3D('',#70,#71,#72);
#75=CARTESIAN_POINT('',(9.E0,-6.358845726812E0,0.E0));
#76=DIRECTION('',(0.E0,0.E0,1.E0));
#77=DIRECTION('',(5.E-1,8.660254037844E-1,0.E0));
#78=AXIS2_PLACEMENT_3D('',#75,#76,#77);
#80=CARTESIAN_POINT('',(1.170442286341E1,0.E0,0.E0));
#81=DIRECTION('',(-1.E0,0.E0,0.E0));
#82=DIRECTION('',(0.E0,1.E0,0.E0));
#83=AXIS2_PLACEMENT_3D('',#80,#81,#82);
#85=DIRECTION('',(-8.660254037844E-1,-5.E-1,0.E0));
#86=VECTOR('',#85,2.650704155516E0);
#87=CARTESIAN_POINT('',(1.4E1,3.E0,0.E0));
#88=LINE('',#87,#86);
#89=DIRECTION('',(-8.660254037844E-1,5.E-1,0.E0));
#90=VECTOR('',#89,2.650704155516E0);
#91=CARTESIAN_POINT('',(1.4E1,-3.E0,0.E0));
#92=LINE('',#91,#90);
#93=CARTESIAN_POINT('',(1.4E1,0.E0,0.E0));
#94=DIRECTION('',(-1.E0,0.E0,0.E0));
#95=DIRECTION('',(0.E0,1.E0,0.E0));
#96=AXIS2_PLACEMENT_3D('',#93,#94,#95);
#98=CARTESIAN_POINT('',(1.4E1,0.E0,0.E0));
#99=DIRECTION('',(1.E0,0.E0,0.E0));
#100=DIRECTION('',(0.E0,1.E0,0.E0));
#101=AXIS2_PLACEMENT_3D('',#98,#99,#100);
#103=CARTESIAN_POINT('',(5.76E1,0.E0,0.E0));
#104=DIRECTION('',(-1.E0,0.E0,0.E0));
#105=DIRECTION('',(0.E0,-1.E0,0.E0));
#106=AXIS2_PLACEMENT_3D('',#103,#104,#105);
#108=DIRECTION('',(7.071067811865E-1,7.071067811866E-1,-2.675009156344E-9));
#109=VECTOR('',#108,5.656854272616E-1);
#110=CARTESIAN_POINT('',(5.760000001051E1,-2.999999989489E0,
-9.727804260704E-9));
#111=LINE('',#110,#109);
#112=DIRECTION('',(7.071067811865E-1,-7.071067811866E-1,2.675009131086E-9));
#113=VECTOR('',#112,5.656854272616E-1);
#114=CARTESIAN_POINT('',(5.760000001051E1,2.999999989489E0,9.727804168855E-9));
#115=LINE('',#114,#113);
#116=CARTESIAN_POINT('',(5.76E1,0.E0,0.E0));
#117=DIRECTION('',(-1.E0,0.E0,0.E0));
#118=DIRECTION('',(0.E0,1.E0,0.E0));
#119=AXIS2_PLACEMENT_3D('',#116,#117,#118);
#121=DIRECTION('',(-1.E0,2.410844204626E-10,-2.231147660348E-10));
#122=VECTOR('',#121,4.360000001051E1);
#123=CARTESIAN_POINT('',(5.760000001051E1,2.999999989489E0,9.727804168855E-9));
#124=LINE('',#123,#122);
#125=DIRECTION('',(-1.E0,-2.410844204626E-10,2.231147681414E-10));
#126=VECTOR('',#125,4.360000001051E1);
#127=CARTESIAN_POINT('',(5.760000001051E1,-2.999999989489E0,
-9.727804260704E-9));
#128=LINE('',#127,#126);
#129=CARTESIAN_POINT('',(5.8E1,0.E0,0.E0));
#130=DIRECTION('',(-1.E0,0.E0,0.E0));
#131=DIRECTION('',(0.E0,1.E0,0.E0));
#132=AXIS2_PLACEMENT_3D('',#129,#130,#131);
#134=CARTESIAN_POINT('',(5.8E1,0.E0,0.E0));
#135=DIRECTION('',(-1.E0,0.E0,0.E0));
#136=DIRECTION('',(0.E0,-1.E0,0.E0));
#137=AXIS2_PLACEMENT_3D('',#134,#135,#136);
#139=CARTESIAN_POINT('',(1.4E1,3.E0,0.E0));
#140=CARTESIAN_POINT('',(1.170442286341E1,1.674647922242E0,0.E0));
#141=VERTEX_POINT('',#139);
#142=VERTEX_POINT('',#140);
#143=CARTESIAN_POINT('',(9.E0,9.5E-1,0.E0));
#144=VERTEX_POINT('',#143);
#145=CARTESIAN_POINT('',(7.283564090981E0,9.5E-1,0.E0));
#146=VERTEX_POINT('',#145);
#147=CARTESIAN_POINT('',(7.E0,1.E0,0.E0));
#148=VERTEX_POINT('',#147);
#149=CARTESIAN_POINT('',(0.E0,1.E0,0.E0));
#150=VERTEX_POINT('',#149);
#151=CARTESIAN_POINT('',(1.4E1,-3.E0,0.E0));
#152=CARTESIAN_POINT('',(1.170442286341E1,-1.674647922242E0,0.E0));
#153=VERTEX_POINT('',#151);
#154=VERTEX_POINT('',#152);
#155=CARTESIAN_POINT('',(9.E0,-9.5E-1,0.E0));
#156=VERTEX_POINT('',#155);
#157=CARTESIAN_POINT('',(7.283564090981E0,-9.5E-1,0.E0));
#158=VERTEX_POINT('',#157);
#159=CARTESIAN_POINT('',(7.E0,-1.E0,0.E0));
#160=VERTEX_POINT('',#159);
#161=CARTESIAN_POINT('',(0.E0,-1.E0,0.E0));
#162=VERTEX_POINT('',#161);
#163=CARTESIAN_POINT('',(5.76E1,3.E0,0.E0));
#164=CARTESIAN_POINT('',(5.76E1,-3.E0,0.E0));
#165=VERTEX_POINT('',#163);
#166=VERTEX_POINT('',#164);
#167=CARTESIAN_POINT('',(5.8E1,2.6E0,0.E0));
#168=CARTESIAN_POINT('',(5.8E1,-2.6E0,0.E0));
#169=VERTEX_POINT('',#167);
#170=VERTEX_POINT('',#168);
#171=CARTESIAN_POINT('',(0.E0,0.E0,0.E0));
#172=DIRECTION('',(1.E0,0.E0,0.E0));
#173=DIRECTION('',(0.E0,-1.E0,0.E0));
#174=AXIS2_PLACEMENT_3D('',#171,#172,#173);
#175=PLANE('',#174);
#177=ORIENTED_EDGE('',*,*,#176,.F.);
#179=ORIENTED_EDGE('',*,*,#178,.T.);
#180=EDGE_LOOP('',(#177,#179));
#181=FACE_OUTER_BOUND('',#180,.F.);
#182=ADVANCED_FACE('',(#181),#175,.F.);
#183=CARTESIAN_POINT('',(-2.9E0,0.E0,0.E0));
#184=DIRECTION('',(1.E0,0.E0,0.E0));
#185=DIRECTION('',(0.E0,-1.E0,0.E0));
#186=AXIS2_PLACEMENT_3D('',#183,#184,#185);
#187=CYLINDRICAL_SURFACE('',#186,1.E0);
#189=ORIENTED_EDGE('',*,*,#188,.T.);
#190=ORIENTED_EDGE('',*,*,#176,.T.);
#192=ORIENTED_EDGE('',*,*,#191,.F.);
#194=ORIENTED_EDGE('',*,*,#193,.F.);
#195=EDGE_LOOP('',(#189,#190,#192,#194));
#196=FACE_OUTER_BOUND('',#195,.F.);
#197=ADVANCED_FACE('',(#196),#187,.T.);
#198=CARTESIAN_POINT('',(-2.9E0,0.E0,0.E0));
#199=DIRECTION('',(1.E0,0.E0,0.E0));
#200=DIRECTION('',(0.E0,-1.E0,0.E0));
#201=AXIS2_PLACEMENT_3D('',#198,#199,#200);
#202=CYLINDRICAL_SURFACE('',#201,1.E0);
#203=ORIENTED_EDGE('',*,*,#188,.F.);
#205=ORIENTED_EDGE('',*,*,#204,.T.);
#206=ORIENTED_EDGE('',*,*,#191,.T.);
#207=ORIENTED_EDGE('',*,*,#178,.F.);
#208=EDGE_LOOP('',(#203,#205,#206,#207));
#209=FACE_OUTER_BOUND('',#208,.F.);
#210=ADVANCED_FACE('',(#209),#202,.T.);
#211=CARTESIAN_POINT('',(7.141782045490E0,0.E0,0.E0));
#212=DIRECTION('',(-1.E0,0.E0,0.E0));
#213=DIRECTION('',(0.E0,1.E0,0.E0));
#214=AXIS2_PLACEMENT_3D('',#211,#212,#213);
#215=CONICAL_SURFACE('',#214,9.75E-1,1.E1);
#217=ORIENTED_EDGE('',*,*,#216,.F.);
#219=ORIENTED_EDGE('',*,*,#218,.T.);
#221=ORIENTED_EDGE('',*,*,#220,.T.);
#222=ORIENTED_EDGE('',*,*,#204,.F.);
#223=EDGE_LOOP('',(#217,#219,#221,#222));
#224=FACE_OUTER_BOUND('',#223,.F.);
#225=ADVANCED_FACE('',(#224),#215,.T.);
#226=CARTESIAN_POINT('',(7.141782045490E0,0.E0,0.E0));
#227=DIRECTION('',(-1.E0,0.E0,0.E0));
#228=DIRECTION('',(0.E0,1.E0,0.E0));
#229=AXIS2_PLACEMENT_3D('',#226,#227,#228);
#230=CONICAL_SURFACE('',#229,9.75E-1,1.E1);
#231=ORIENTED_EDGE('',*,*,#216,.T.);
#232=ORIENTED_EDGE('',*,*,#193,.T.);
#233=ORIENTED_EDGE('',*,*,#220,.F.);
#235=ORIENTED_EDGE('',*,*,#234,.F.);
#236=EDGE_LOOP('',(#231,#232,#233,#235));
#237=FACE_OUTER_BOUND('',#236,.F.);
#238=ADVANCED_FACE('',(#237),#230,.T.);
#239=CARTESIAN_POINT('',(-2.9E0,0.E0,0.E0));
#240=DIRECTION('',(1.E0,0.E0,0.E0));
#241=DIRECTION('',(0.E0,-1.E0,0.E0));
#242=AXIS2_PLACEMENT_3D('',#239,#240,#241);
#243=CYLINDRICAL_SURFACE('',#242,9.5E-1);
#245=ORIENTED_EDGE('',*,*,#244,.T.);
#246=ORIENTED_EDGE('',*,*,#234,.T.);
#248=ORIENTED_EDGE('',*,*,#247,.F.);
#250=ORIENTED_EDGE('',*,*,#249,.F.);
#251=EDGE_LOOP('',(#245,#246,#248,#250));
#252=FACE_OUTER_BOUND('',#251,.F.);
#253=ADVANCED_FACE('',(#252),#243,.T.);
#254=CARTESIAN_POINT('',(-2.9E0,0.E0,0.E0));
#255=DIRECTION('',(1.E0,0.E0,0.E0));
#256=DIRECTION('',(0.E0,-1.E0,0.E0));
#257=AXIS2_PLACEMENT_3D('',#254,#255,#256);
#258=CYLINDRICAL_SURFACE('',#257,9.5E-1);
#259=ORIENTED_EDGE('',*,*,#244,.F.);
#261=ORIENTED_EDGE('',*,*,#260,.T.);
#262=ORIENTED_EDGE('',*,*,#247,.T.);
#263=ORIENTED_EDGE('',*,*,#218,.F.);
#264=EDGE_LOOP('',(#259,#261,#262,#263));
#265=FACE_OUTER_BOUND('',#264,.F.);
#266=ADVANCED_FACE('',(#265),#258,.T.);
#267=CARTESIAN_POINT('',(9.E0,0.E0,0.E0));
#268=DIRECTION('',(1.E0,0.E0,0.E0));
#269=DIRECTION('',(0.E0,-1.E0,0.E0));
#270=AXIS2_PLACEMENT_3D('',#267,#268,#269);
#271=TOROIDAL_SURFACE('',#270,6.358845726812E0,5.408845726812E0);
#273=ORIENTED_EDGE('',*,*,#272,.F.);
#275=ORIENTED_EDGE('',*,*,#274,.T.);
#277=ORIENTED_EDGE('',*,*,#276,.T.);
#278=ORIENTED_EDGE('',*,*,#260,.F.);
#279=EDGE_LOOP('',(#273,#275,#277,#278));
#280=FACE_OUTER_BOUND('',#279,.F.);
#281=ADVANCED_FACE('',(#280),#271,.F.);
#282=CARTESIAN_POINT('',(9.E0,0.E0,0.E0));
#283=DIRECTION('',(1.E0,0.E0,0.E0));
#284=DIRECTION('',(0.E0,-1.E0,0.E0));
#285=AXIS2_PLACEMENT_3D('',#282,#283,#284);
#286=TOROIDAL_SURFACE('',#285,6.358845726812E0,5.408845726812E0);
#287=ORIENTED_EDGE('',*,*,#272,.T.);
#288=ORIENTED_EDGE('',*,*,#249,.T.);
#289=ORIENTED_EDGE('',*,*,#276,.F.);
#291=ORIENTED_EDGE('',*,*,#290,.F.);
#292=EDGE_LOOP('',(#287,#288,#289,#291));
#293=FACE_OUTER_BOUND('',#292,.F.);
#294=ADVANCED_FACE('',(#293),#286,.F.);
#295=CARTESIAN_POINT('',(1.285221143170E1,0.E0,0.E0));
#296=DIRECTION('',(1.E0,0.E0,0.E0));
#297=DIRECTION('',(0.E0,-1.E0,0.E0));
#298=AXIS2_PLACEMENT_3D('',#295,#296,#297);
#299=CONICAL_SURFACE('',#298,2.337323961121E0,3.E1);
#301=ORIENTED_EDGE('',*,*,#300,.T.);
#302=ORIENTED_EDGE('',*,*,#290,.T.);
#304=ORIENTED_EDGE('',*,*,#303,.F.);
#306=ORIENTED_EDGE('',*,*,#305,.F.);
#307=EDGE_LOOP('',(#301,#302,#304,#306));
#308=FACE_OUTER_BOUND('',#307,.F.);
#309=ADVANCED_FACE('',(#308),#299,.T.);
#310=CARTESIAN_POINT('',(1.285221143170E1,0.E0,0.E0));
#311=DIRECTION('',(1.E0,0.E0,0.E0));
#312=DIRECTION('',(0.E0,-1.E0,0.E0));
#313=AXIS2_PLACEMENT_3D('',#310,#311,#312);
#314=CONICAL_SURFACE('',#313,2.337323961121E0,3.E1);
#315=ORIENTED_EDGE('',*,*,#300,.F.);
#317=ORIENTED_EDGE('',*,*,#316,.T.);
#318=ORIENTED_EDGE('',*,*,#303,.T.);
#319=ORIENTED_EDGE('',*,*,#274,.F.);
#320=EDGE_LOOP('',(#315,#317,#318,#319));
#321=FACE_OUTER_BOUND('',#320,.F.);
#322=ADVANCED_FACE('',(#321),#314,.T.);
#323=CARTESIAN_POINT('',(-2.9E0,0.E0,0.E0));
#324=DIRECTION('',(1.E0,0.E0,0.E0));
#325=DIRECTION('',(0.E0,-1.E0,0.E0));
#326=AXIS2_PLACEMENT_3D('',#323,#324,#325);
#327=CYLINDRICAL_SURFACE('',#326,3.E0);
#329=ORIENTED_EDGE('',*,*,#328,.F.);
#331=ORIENTED_EDGE('',*,*,#330,.T.);
#332=ORIENTED_EDGE('',*,*,#316,.F.);
#334=ORIENTED_EDGE('',*,*,#333,.F.);
#335=EDGE_LOOP('',(#329,#331,#332,#334));
#336=FACE_OUTER_BOUND('',#335,.F.);
#337=ADVANCED_FACE('',(#336),#327,.T.);
#338=CARTESIAN_POINT('',(5.780000000846E1,0.E0,0.E0));
#339=DIRECTION('',(-1.E0,0.E0,0.E0));
#340=DIRECTION('',(0.E0,0.E0,-1.E0));
#341=AXIS2_PLACEMENT_3D('',#338,#339,#340);
#342=CONICAL_SURFACE('',#341,2.799999991542E0,4.5E1);
#343=ORIENTED_EDGE('',*,*,#328,.T.);
#345=ORIENTED_EDGE('',*,*,#344,.T.);
#347=ORIENTED_EDGE('',*,*,#346,.F.);
#349=ORIENTED_EDGE('',*,*,#348,.F.);
#350=EDGE_LOOP('',(#343,#345,#347,#349));
#351=FACE_OUTER_BOUND('',#350,.F.);
#352=ADVANCED_FACE('',(#351),#342,.T.);
#353=CARTESIAN_POINT('',(5.780000000846E1,0.E0,0.E0));
#354=DIRECTION('',(-1.E0,0.E0,0.E0));
#355=DIRECTION('',(0.E0,0.E0,-1.E0));
#356=AXIS2_PLACEMENT_3D('',#353,#354,#355);
#357=CONICAL_SURFACE('',#356,2.799999991542E0,4.5E1);
#359=ORIENTED_EDGE('',*,*,#358,.T.);
#360=ORIENTED_EDGE('',*,*,#348,.T.);
#362=ORIENTED_EDGE('',*,*,#361,.F.);
#363=ORIENTED_EDGE('',*,*,#344,.F.);
#364=EDGE_LOOP('',(#359,#360,#362,#363));
#365=FACE_OUTER_BOUND('',#364,.F.);
#366=ADVANCED_FACE('',(#365),#357,.T.);
#367=CARTESIAN_POINT('',(-2.9E0,0.E0,0.E0));
#368=DIRECTION('',(1.E0,0.E0,0.E0));
#369=DIRECTION('',(0.E0,-1.E0,0.E0));
#370=AXIS2_PLACEMENT_3D('',#367,#368,#369);
#371=CYLINDRICAL_SURFACE('',#370,3.E0);
#372=ORIENTED_EDGE('',*,*,#358,.F.);
#373=ORIENTED_EDGE('',*,*,#333,.T.);
#374=ORIENTED_EDGE('',*,*,#305,.T.);
#375=ORIENTED_EDGE('',*,*,#330,.F.);
#376=EDGE_LOOP('',(#372,#373,#374,#375));
#377=FACE_OUTER_BOUND('',#376,.F.);
#378=ADVANCED_FACE('',(#377),#371,.T.);
#379=CARTESIAN_POINT('',(5.8E1,0.E0,0.E0));
#380=DIRECTION('',(1.E0,0.E0,0.E0));
#381=DIRECTION('',(0.E0,-1.E0,0.E0));
#382=AXIS2_PLACEMENT_3D('',#379,#380,#381);
#383=PLANE('',#382);
#384=ORIENTED_EDGE('',*,*,#361,.T.);
#385=ORIENTED_EDGE('',*,*,#346,.T.);
#386=EDGE_LOOP('',(#384,#385));
#387=FACE_OUTER_BOUND('',#386,.F.);
#388=ADVANCED_FACE('',(#387),#383,.T.);
#389=CLOSED_SHELL('',(#182,#197,#210,#225,#238,#253,#266,#281,#294,#309,#322,
#337,#352,#366,#378,#388));
#390=MANIFOLD_SOLID_BREP('',#389);
#392=DIMENSIONAL_EXPONENTS(0.E0,0.E0,0.E0,0.E0,0.E0,0.E0,0.E0);
#394=PLANE_ANGLE_MEASURE_WITH_UNIT(PLANE_ANGLE_MEASURE(1.745329251994E-2),#393);
#395=(CONVERSION_BASED_UNIT('DEGREE',#394)NAMED_UNIT(*)PLANE_ANGLE_UNIT());
#397=UNCERTAINTY_MEASURE_WITH_UNIT(LENGTH_MEASURE(1.E-2),#391,'closure',
'Maximum model space distance between geometric entities at asserted connectivities');
#398=(GEOMETRIC_REPRESENTATION_CONTEXT(3)GLOBAL_UNCERTAINTY_ASSIGNED_CONTEXT((
#397))GLOBAL_UNIT_ASSIGNED_CONTEXT((#391,#395,#396))REPRESENTATION_CONTEXT
('ID1','3'));
#400=APPLICATION_CONTEXT(
'CONFIGURATION CONTROLLED 3D DESIGNS OF MECHANICAL PARTS AND ASSEMBLIES');
#401=APPLICATION_PROTOCOL_DEFINITION('international standard',
'config_control_design',1994,#400);
#402=DESIGN_CONTEXT('',#400,'design');
#403=MECHANICAL_CONTEXT('',#400,'mechanical');
#404=PRODUCT('KONTUR-SCHAFTFRAESER-D2','KONTUR-SCHAFTFRAESER-D2',
'NOT SPECIFIED',(#403));
#405=PRODUCT_DEFINITION_FORMATION_WITH_SPECIFIED_SOURCE('1','LAST_VERSION',#404,
.MADE.);
#409=PRODUCT_CATEGORY('part','');
#410=PRODUCT_RELATED_PRODUCT_CATEGORY('detail','',(#404));
#411=PRODUCT_CATEGORY_RELATIONSHIP('','',#409,#410);
#412=SECURITY_CLASSIFICATION_LEVEL('unclassified');
#413=SECURITY_CLASSIFICATION('','',#412);
#414=CC_DESIGN_SECURITY_CLASSIFICATION(#413,(#405));
#415=APPROVAL_STATUS('approved');
#416=APPROVAL(#415,'');
#417=CC_DESIGN_APPROVAL(#416,(#413,#405,#406));
#418=CALENDAR_DATE(117,1,6);
#419=COORDINATED_UNIVERSAL_TIME_OFFSET(2,0,.AHEAD.);
#420=LOCAL_TIME(14,16,5.4E1,#419);
#421=DATE_AND_TIME(#418,#420);
#422=APPROVAL_DATE_TIME(#421,#416);
#423=DATE_TIME_ROLE('creation_date');
#424=CC_DESIGN_DATE_AND_TIME_ASSIGNMENT(#421,#423,(#406));
#425=DATE_TIME_ROLE('classification_date');
#426=CC_DESIGN_DATE_AND_TIME_ASSIGNMENT(#421,#425,(#413));
#427=PERSON('UNSPECIFIED','UNSPECIFIED',$,$,$,$);
#428=ORGANIZATION('UNSPECIFIED','UNSPECIFIED','UNSPECIFIED');
#429=PERSON_AND_ORGANIZATION(#427,#428);
#430=APPROVAL_ROLE('approver');
#431=APPROVAL_PERSON_ORGANIZATION(#429,#416,#430);
#432=PERSON_AND_ORGANIZATION_ROLE('creator');
#433=CC_DESIGN_PERSON_AND_ORGANIZATION_ASSIGNMENT(#429,#432,(#405,#406));
#434=PERSON_AND_ORGANIZATION_ROLE('design_supplier');
#435=CC_DESIGN_PERSON_AND_ORGANIZATION_ASSIGNMENT(#429,#434,(#405));
#436=PERSON_AND_ORGANIZATION_ROLE('classification_officer');
#437=CC_DESIGN_PERSON_AND_ORGANIZATION_ASSIGNMENT(#429,#436,(#413));
#438=PERSON_AND_ORGANIZATION_ROLE('design_owner');
#439=CC_DESIGN_PERSON_AND_ORGANIZATION_ASSIGNMENT(#429,#438,(#404));
#5=CIRCLE('',#4,1.E0);
#10=CIRCLE('',#9,1.E0);
#23=CIRCLE('',#22,1.E0);
#28=CIRCLE('',#27,1.E0);
#33=CIRCLE('',#32,9.5E-1);
#46=CIRCLE('',#45,9.5E-1);
#59=CIRCLE('',#58,9.5E-1);
#64=CIRCLE('',#63,9.5E-1);
#69=CIRCLE('',#68,1.674647922242E0);
#74=CIRCLE('',#73,5.408845726812E0);
#79=CIRCLE('',#78,5.408845726812E0);
#84=CIRCLE('',#83,1.674647922242E0);
#97=CIRCLE('',#96,3.E0);
#102=CIRCLE('',#101,3.E0);
#107=CIRCLE('',#106,3.E0);
#120=CIRCLE('',#119,3.E0);
#133=CIRCLE('',#132,2.6E0);
#138=CIRCLE('',#137,2.6E0);
#176=EDGE_CURVE('',#150,#162,#5,.T.);
#178=EDGE_CURVE('',#150,#162,#10,.T.);
#188=EDGE_CURVE('',#148,#150,#14,.T.);
#191=EDGE_CURVE('',#160,#162,#18,.T.);
#193=EDGE_CURVE('',#148,#160,#23,.T.);
#204=EDGE_CURVE('',#148,#160,#28,.T.);
#216=EDGE_CURVE('',#146,#148,#37,.T.);
#218=EDGE_CURVE('',#146,#158,#33,.T.);
#220=EDGE_CURVE('',#158,#160,#41,.T.);
#234=EDGE_CURVE('',#146,#158,#46,.T.);
#244=EDGE_CURVE('',#144,#146,#50,.T.);
#247=EDGE_CURVE('',#156,#158,#54,.T.);
#249=EDGE_CURVE('',#144,#156,#59,.T.);
#260=EDGE_CURVE('',#144,#156,#64,.T.);
#272=EDGE_CURVE('',#142,#144,#74,.T.);
#274=EDGE_CURVE('',#142,#154,#69,.T.);
#276=EDGE_CURVE('',#154,#156,#79,.T.);
#290=EDGE_CURVE('',#142,#154,#84,.T.);
#300=EDGE_CURVE('',#141,#142,#88,.T.);
#303=EDGE_CURVE('',#153,#154,#92,.T.);
#305=EDGE_CURVE('',#141,#153,#97,.T.);
#316=EDGE_CURVE('',#141,#153,#102,.T.);
#328=EDGE_CURVE('',#166,#165,#107,.T.);
#330=EDGE_CURVE('',#166,#153,#128,.T.);
#333=EDGE_CURVE('',#165,#141,#124,.T.);
#344=EDGE_CURVE('',#165,#169,#115,.T.);
#346=EDGE_CURVE('',#170,#169,#138,.T.);
#348=EDGE_CURVE('',#166,#170,#111,.T.);
#358=EDGE_CURVE('',#165,#166,#120,.T.);
#361=EDGE_CURVE('',#169,#170,#133,.T.);
#391=(LENGTH_UNIT()NAMED_UNIT(*)SI_UNIT(.MILLI.,.METRE.));
#393=(NAMED_UNIT(*)PLANE_ANGLE_UNIT()SI_UNIT($,.RADIAN.));
#396=(NAMED_UNIT(*)SI_UNIT($,.STERADIAN.)SOLID_ANGLE_UNIT());
#399=ADVANCED_BREP_SHAPE_REPRESENTATION('',(#390),#398);
#406=PRODUCT_DEFINITION('design','',#405,#402);
#407=PRODUCT_DEFINITION_SHAPE('','SHAPE FOR KONTUR-SCHAFTFRAESER-D2.',#406);
#408=SHAPE_DEFINITION_REPRESENTATION(#407,#399);
ENDSEC;
END-ISO-10303-21;
