999
DXF file: f1004nnl1600r0_50aa.dxf
999
Pro/ENGINEER 2011490 by Parametric Technology Corporation
  0
SECTION
  2
HEADER
  9
$ACADVER
  1
AC1021
  9
$DWGCODEPAGE
  3
ANSI_1252
  9
$EXTMAX
 10
297.0
 20
210.0
 30
0.0
  9
$EXTMIN
 10
0.0
 20
0.0
 30
0.0
  9
$LIMMIN
 10
0.0
 20
0.0
  9
$LIMMAX
 10
297.0
 20
210.0
  9
$VIEWCTR
 10
148.5
 20
105.0
  9
$VIEWSIZE
 40
210.0
  9
$CLAYER
  8
0
  9
$LTSCALE
 40
16.335
  9
$CELTYPE
  6
BYLAYER
  9
$DIMSCALE
 40
1.0
  9
$DIMASZ
 40
3.5
  9
$DIMEXO
 40
1.85625
  9
$DIMDLI
 40
11.286
  9
$DIMEXE
 40
5.346
  9
$DIMCEN
 40
2.673
  9
$DIMLFAC
 40
1.0
  9
$DIMBLK
  1
_FILLED
  9
$DIMTXT
 40
3.5
  9
$DIMTOL
 70
1
  9
$DIMLIM
 70
0
  9
$DIMTFAC
 40
1.0
  9
$DIMTP
 40
0.005
  9
$DIMTM
 40
0.005
  9
$PDMODE
 70
3
  9
$PDSIZE
 40
0.3125
  9
$HANDSEED
  5
248
  9
$TILEMODE
 70
1
  9
$MEASUREMENT
 70
1
  9
$INSUNITS
 70
4
  0
ENDSEC
  0
SECTION
  2
CLASSES
  0
CLASS
  1
ACDBDICTIONARYWDFLT
  2
AcDbDictionaryWithDefault
  3
AutoCAD 2000
 90
0
 91
1
280
0
281
0
  0
CLASS
  1
ACDBPLACEHOLDER
  2
AcDbPlaceHolder
  3
AutoCAD 2000
 90
0
 91
1
280
0
281
0
  0
CLASS
  1
LAYOUT
  2
AcDbLayout
  3
AutoCAD 2000
 90
0
 91
0
280
0
281
0
  0
ENDSEC
  0
SECTION
  2
TABLES
  0
TABLE
  2
VPORT
  5
8
100
AcDbSymbolTable
 70
2
  0
VPORT
  5
1F4
100
AcDbSymbolTableRecord
100
AcDbViewportTableRecord
  2
*ACTIVE
 70
0
 10
0.0
 20
0.0
 11
1.0
 21
1.0
 12
148.5
 22
105.0
 13
0.0
 23
0.0
 14
1.0
 24
1.0
 15
0.0
 25
0.0
 16
0.0
 26
0.0
 36
1.0
 17
0.0
 27
0.0
 37
0.0
 40
210.0
 41
1.4142857143
 42
50.0
 43
0.0
 44
0.0
 50
0.0
 51
0.0
 71
0
 72
100
 73
1
 74
1
 75
0
 76
0
 77
0
 78
0
  0
ENDTAB
  0
TABLE
  2
LTYPE
  5
5
100
AcDbSymbolTable
 70
6
  0
LTYPE
  5
14
100
AcDbSymbolTableRecord
100
AcDbLinetypeTableRecord
  2
BYBLOCK
 70
0
  3

 72
65
 73
0
 40
0.0
  0
LTYPE
  5
15
100
AcDbSymbolTableRecord
100
AcDbLinetypeTableRecord
  2
BYLAYER
 70
0
  3

 72
65
 73
0
 40
0.0
  0
LTYPE
  5
16
100
AcDbSymbolTableRecord
100
AcDbLinetypeTableRecord
  2
CONTINUOUS
 70
64
  3
Solid line
 72
65
 73
0
 40
0.0
  0
LTYPE
  5
1F5
100
AcDbSymbolTableRecord
100
AcDbLinetypeTableRecord
  2
CENTER
 70
64
  3
____ _ ____ _ ____ _ ____ _ ____ _ ____ _ ____
 72
65
 73
4
 40
0.6
 49
0.375
 74
0
 49
-0.075
 74
0
 49
0.075
 74
0
 49
-0.075
 74
0
  0
LTYPE
  5
1F6
100
AcDbSymbolTableRecord
100
AcDbLinetypeTableRecord
  2
HIDDEN
 70
64
  3
- - - - - - - - - - - - - - - - - - - -
 72
65
 73
2
 40
0.2
 49
0.1
 74
0
 49
-0.1
 74
0
  0
LTYPE
  5
1F7
100
AcDbSymbolTableRecord
100
AcDbLinetypeTableRecord
  2
PHANTOM
 70
64
  3
_____ _ _ _____ _ _ _____ _ _ _____
 72
65
 73
6
 40
0.8
 49
0.45
 74
0
 49
-0.05
 74
0
 49
0.1
 74
0
 49
-0.05
 74
0
 49
0.1
 74
0
 49
-0.05
 74
0
  0
LTYPE
  5
1F8
100
AcDbSymbolTableRecord
100
AcDbLinetypeTableRecord
  2
DOT
 70
64
  3
. . . . . . . . . . . . . . . . . . . .
 72
65
 73
2
 40
0.2
 49
0.1
 74
0
 49
-0.1
 74
0
  0
LTYPE
  5
1F9
100
AcDbSymbolTableRecord
100
AcDbLinetypeTableRecord
  2
DASHED
 70
64
  3
- - - - - - - - - - - - - - - - - - - -
 72
65
 73
2
 40
0.2
 49
0.1
 74
0
 49
-0.1
 74
0
  0
ENDTAB
  0
TABLE
  2
LAYER
  5
2
100
AcDbSymbolTable
 70
36
  0
LAYER
  5
10
100
AcDbSymbolTableRecord
100
AcDbLayerTableRecord
  2
0
 70
0
 62
7
  6
CONTINUOUS
370
-3
390
F
  0
LAYER
  5
1FA
100
AcDbSymbolTableRecord
100
AcDbLayerTableRecord
  2
DEFAULT_1
 70
0
 62
7
  6
CENTER
370
-3
390
F
  0
LAYER
  5
1FB
100
AcDbSymbolTableRecord
100
AcDbLayerTableRecord
  2
DEFAULT_2
 70
0
 62
8
  6
HIDDEN
370
-3
390
F
  0
LAYER
  5
1FC
100
AcDbSymbolTableRecord
100
AcDbLayerTableRecord
  2
DEFAULT_3
 70
0
 62
7
  6
PHANTOM
370
-3
390
F
  0
LAYER
  5
1FD
100
AcDbSymbolTableRecord
100
AcDbLayerTableRecord
  2
BEZUGSACHSEN
 70
0
 62
7
  6
CONTINUOUS
370
-3
390
F
  0
LAYER
  5
1FE
100
AcDbSymbolTableRecord
100
AcDbLayerTableRecord
  2
BEZUGSEBENEN
 70
0
 62
7
  6
CONTINUOUS
370
-3
390
F
  0
LAYER
  5
1FF
100
AcDbSymbolTableRecord
100
AcDbLayerTableRecord
  2
FASEN
 70
0
 62
7
  6
CONTINUOUS
370
-3
390
F
  0
LAYER
  5
200
100
AcDbSymbolTableRecord
100
AcDbLayerTableRecord
  2
FLAECHEN
 70
0
 62
7
  6
CONTINUOUS
370
-3
390
F
  0
LAYER
  5
201
100
AcDbSymbolTableRecord
100
AcDbLayerTableRecord
  2
FORM_LAGE_TOLERANZEN
 70
0
 62
7
  6
CONTINUOUS
370
-3
390
F
  0
LAYER
  5
202
100
AcDbSymbolTableRecord
100
AcDbLayerTableRecord
  2
HILFEN
 70
0
 62
7
  6
CONTINUOUS
370
-3
390
F
  0
LAYER
  5
203
100
AcDbSymbolTableRecord
100
AcDbLayerTableRecord
  2
KT-AUFMASS_BEI_HARTBEARBEITUNG
 70
0
 62
7
  6
CONTINUOUS
370
-3
390
F
  0
LAYER
  5
204
100
AcDbSymbolTableRecord
100
AcDbLayerTableRecord
  2
KT-AUFMASS_BEI_WEICHBEARBEITUNG
 70
0
 62
7
  6
CONTINUOUS
370
-3
390
F
  0
LAYER
  5
205
100
AcDbSymbolTableRecord
100
AcDbLayerTableRecord
  2
KT-BASISBEMASSUNG
 70
0
 62
7
  6
CONTINUOUS
370
-3
390
F
  0
LAYER
  5
206
100
AcDbSymbolTableRecord
100
AcDbLayerTableRecord
  2
KT-BESCHRIFTUNG
 70
0
 62
7
  6
CONTINUOUS
370
-3
390
F
  0
LAYER
  5
207
100
AcDbSymbolTableRecord
100
AcDbLayerTableRecord
  2
KT-HARTBEARBEITUNG
 70
0
 62
7
  6
CONTINUOUS
370
-3
390
F
  0
LAYER
  5
208
100
AcDbSymbolTableRecord
100
AcDbLayerTableRecord
  2
KT-WEICHBEARBEITUNG
 70
0
 62
7
  6
CONTINUOUS
370
-3
390
F
  0
LAYER
  5
209
100
AcDbSymbolTableRecord
100
AcDbLayerTableRecord
  2
KURVEN
 70
0
 62
7
  6
CONTINUOUS
370
-3
390
F
  0
LAYER
  5
20A
100
AcDbSymbolTableRecord
100
AcDbLayerTableRecord
  2
PLATZIERUNG
 70
0
 62
7
  6
CONTINUOUS
370
-3
390
F
  0
LAYER
  5
20B
100
AcDbSymbolTableRecord
100
AcDbLayerTableRecord
  2
PUNKTE
 70
0
 62
7
  6
CONTINUOUS
370
-3
390
F
  0
LAYER
  5
20C
100
AcDbSymbolTableRecord
100
AcDbLayerTableRecord
  2
RUNDUNGEN
 70
0
 62
7
  6
CONTINUOUS
370
-3
390
F
  0
LAYER
  5
20D
100
AcDbSymbolTableRecord
100
AcDbLayerTableRecord
  2
TEIL_STARTBEZUEGE
 70
0
 62
7
  6
CONTINUOUS
370
-3
390
F
  0
LAYER
  5
20E
100
AcDbSymbolTableRecord
100
AcDbLayerTableRecord
  2
ZEICHNUNGSBEMASSUNGEN
 70
0
 62
7
  6
CONTINUOUS
370
-3
390
F
  0
ENDTAB
  0
TABLE
  2
STYLE
  5
3
100
AcDbSymbolTable
 70
1
  0
STYLE
  5
11
100
AcDbSymbolTableRecord
100
AcDbTextStyleTableRecord
  2
STANDARD
 70
0
 40
0.0
 41
0.7
 50
0.0
 71
0
 42
0.2
  3
txt
  4

  0
STYLE
  5
20F
100
AcDbSymbolTableRecord
100
AcDbTextStyleTableRecord
  2
TEXTSTYLE_1
 70
0
 40
0.0
 41
0.8
 50
0.0
 71
0
 42
0.2
  3
gdt
  4

  0
ENDTAB
  0
TABLE
  2
VIEW
  5
6
100
AcDbSymbolTable
 70
0
  0
ENDTAB
  0
TABLE
  2
UCS
  5
7
100
AcDbSymbolTable
 70
0
  0
ENDTAB
  0
TABLE
  2
APPID
  5
9
100
AcDbSymbolTable
 70
1
  0
APPID
  5
210
100
AcDbSymbolTableRecord
100
AcDbRegAppTableRecord
  2
ACAD
 70
0
  0
ENDTAB
  0
TABLE
  2
BLOCK_RECORD
  5
1
100
AcDbSymbolTable
 70
0
  0
BLOCK_RECORD
  5
211
100
AcDbSymbolTableRecord
100
AcDbBlockTableRecord
  2
*Model_Space
  0
BLOCK_RECORD
  5
212
100
AcDbSymbolTableRecord
100
AcDbBlockTableRecord
  2
*Paper_Space
  0
ENDTAB
  0
TABLE
  2
DIMSTYLE
  5
A
100
AcDbSymbolTable
 70
1
100
AcDbDimStyleTable
 71
0
  0
DIMSTYLE
105
213
100
AcDbSymbolTableRecord
100
AcDbDimStyleTableRecord
  2
STANDARD
 70
0
  3

  4

 40
1.0
 41
3.5
 42
0.0625
 43
0.38
 44
0.18
 45
0.0
 46
0.0
 47
0.005
 48
0.005
140
3.5
141
0.09
142
0.0
143
25.4
144
1.0
145
0.0
146
1.0
147
0.09
 71
1.0
 72
0.0
 73
0
 74
0
 75
0
 76
0
 77
1
 78
8
170
0
171
2
172
0
173
0
174
0
175
0
176
0
177
0
178
5
270
2
271
3
272
3
273
2
274
2
275
0
280
0
281
0
282
0
283
1
284
8
285
0
286
0
287
3
288
0
340
11
  0
ENDTAB
  0
ENDSEC
  0
SECTION
  2
BLOCKS
  0
BLOCK
  5
20
100
AcDbEntity
  8
0
100
AcDbBlockBegin
  2
*Model_Space
 70
0
 10
0.0
 20
0.0
 30
0.0
  3
*Model_Space
  1

  0
ENDBLK
  5
21
100
AcDbEntity
  8
0
100
AcDbBlockEnd
  0
BLOCK
  5
1C
100
AcDbEntity
  8
0
100
AcDbBlockBegin
  2
*Paper_Space
 70
0
 10
0.0
 20
0.0
 30
0.0
  3
*Paper_Space
  1

  0
ENDBLK
  5
1D
100
AcDbEntity
  8
0
100
AcDbBlockEnd
  0
ENDSEC
  0
SECTION
  2
ENTITIES
  0
LINE
  5
214
100
AcDbEntity
  8
RUNDUNGEN
100
AcDbLine
 62
7
  6
CONTINUOUS
 10
99.6990557179
 20
119.4028328464
 11
99.6990557179
 21
104.4028328464
  0
LINE
  5
215
100
AcDbEntity
  8
RUNDUNGEN
100
AcDbLine
 62
9
  6
CONTINUOUS
 10
100.1990557179
 20
103.9028328464
 11
100.1990557179
 21
119.9028328464
  0
LINE
  5
216
100
AcDbEntity
  8
0
100
AcDbLine
 62
7
  6
CONTINUOUS
 10
131.6990557179
 20
119.9028328464
 11
131.6990557179
 21
103.9028328464
  0
LINE
  5
217
100
AcDbEntity
  8
0
100
AcDbLine
 62
7
  6
CONTINUOUS
 10
133.9675684457
 20
119.5028328464
 11
133.9675684457
 21
104.3028328464
  0
LINE
  5
218
100
AcDbEntity
  8
0
100
AcDbLine
 62
7
  6
CONTINUOUS
 10
180.8936579002
 20
103.9028328464
 11
144.1990557179
 21
103.9028328464
  0
LINE
  5
219
100
AcDbEntity
  8
RUNDUNGEN
100
AcDbLine
 62
7
  6
CONTINUOUS
 10
131.6990557179
 20
103.9028328464
 11
100.1990557179
 21
103.9028328464
  0
LINE
  5
21A
100
AcDbEntity
  8
0
100
AcDbLine
 62
7
  6
CONTINUOUS
 10
100.1990557179
 20
103.9028328464
 11
131.6990557179
 21
103.9028328464
  0
LINE
  5
21B
100
AcDbEntity
  8
0
100
AcDbLine
 62
7
  6
CONTINUOUS
 10
184.0220736228
 20
103.9028328464
 11
191.7990557179
 21
103.9028328464
  0
LINE
  5
21C
100
AcDbEntity
  8
0
100
AcDbLine
 62
7
  6
CONTINUOUS
 10
142.1990557179
 20
104.3028328464
 11
133.9675684457
 21
104.3028328464
  0
LINE
  5
21D
100
AcDbEntity
  8
0
100
AcDbLine
 62
9
  6
CONTINUOUS
 10
142.1990557179
 20
119.5028328464
 11
142.1990557179
 21
104.3028328464
  0
LINE
  5
21E
100
AcDbEntity
  8
0
100
AcDbLine
 62
7
  6
CONTINUOUS
 10
133.9675684457
 20
104.3028328464
 11
131.6990557179
 21
103.9028328464
  0
LINE
  5
21F
100
AcDbEntity
  8
0
100
AcDbLine
 62
7
  6
CONTINUOUS
 10
144.1990557179
 20
119.9028328464
 11
144.1990557179
 21
103.9028328464
  0
LINE
  5
220
100
AcDbEntity
  8
0
100
AcDbLine
 62
7
  6
CONTINUOUS
 10
133.9675684457
 20
119.5028328464
 11
131.6990557179
 21
119.9028328464
  0
LINE
  5
221
100
AcDbEntity
  8
0
100
AcDbLine
 62
7
  6
CONTINUOUS
 10
142.1990557179
 20
119.5028328464
 11
133.9675684457
 21
119.5028328464
  0
LINE
  5
222
100
AcDbEntity
  8
BEZUGSACHSEN
100
AcDbLine
 62
7
  6
CONTINUOUS
 10
175.1811297195
 20
119.9028328464
 11
144.1990557179
 21
119.9028328464
  0
LINE
  5
223
100
AcDbEntity
  8
RUNDUNGEN
100
AcDbLine
 62
7
  6
CONTINUOUS
 10
131.6990557179
 20
119.9028328464
 11
100.1990557179
 21
119.9028328464
  0
LINE
  5
224
100
AcDbEntity
  8
0
100
AcDbLine
 62
7
  6
CONTINUOUS
 10
100.1990557179
 20
119.9028328464
 11
131.6990557179
 21
119.9028328464
  0
LINE
  5
225
100
AcDbEntity
  8
0
100
AcDbLine
 62
7
  6
CONTINUOUS
 10
144.1990557179
 20
119.9028328464
 11
175.1811297195
 21
119.9028328464
  0
LINE
  5
226
100
AcDbEntity
  8
0
100
AcDbLine
 62
7
  6
CONTINUOUS
 10
178.2632604764
 20
119.9028328464
 11
186.6524985831
 21
119.9028328464
  0
LINE
  5
227
100
AcDbEntity
  8
0
100
AcDbLine
 62
7
  6
CONTINUOUS
 10
189.780945089
 20
119.9028328464
 11
191.7990557179
 21
119.9028328464
  0
LINE
  5
228
100
AcDbEntity
  8
FASEN
100
AcDbLine
 62
7
  6
CONTINUOUS
 10
192.6990557179
 20
104.8028328464
 11
191.7990557179
 21
103.9028328464
  0
LINE
  5
229
100
AcDbEntity
  8
FASEN
100
AcDbLine
 62
7
  6
CONTINUOUS
 10
192.6990557179
 20
119.0028328464
 11
191.7990557179
 21
119.9028328464
  0
LINE
  5
22A
100
AcDbEntity
  8
0
100
AcDbLine
 62
7
  6
CONTINUOUS
 10
191.7990557179
 20
103.9028328464
 11
191.7990557179
 21
103.9523570198
  0
LINE
  5
22B
100
AcDbEntity
  8
0
100
AcDbLine
 62
7
  6
CONTINUOUS
 10
191.7990557179
 20
105.6832816474
 11
191.7990557179
 21
116.6477788845
  0
LINE
  5
22C
100
AcDbEntity
  8
0
100
AcDbLine
 62
7
  6
CONTINUOUS
 10
191.7990557179
 20
119.3701177301
 11
191.7990557179
 21
119.9028328464
  0
LINE
  5
22D
100
AcDbEntity
  8
FASEN
100
AcDbLine
 62
7
  6
CONTINUOUS
 10
192.6990557179
 20
104.8028328464
 11
192.6990557179
 21
119.0028328464
  0
ARC
  5
22E
100
AcDbEntity
  8
0
100
AcDbCircle
 62
7
  6
CONTINUOUS
 10
142.1990557179
 20
99.1028328464
 40
5.2
100
AcDbArc
 50
67.380135052
 51
90.0
  0
ARC
  5
22F
100
AcDbEntity
  8
0
100
AcDbCircle
 62
7
  6
CONTINUOUS
 10
142.1990557179
 20
124.7028328464
 40
5.2
100
AcDbArc
 50
270.0
 51
292.619864948
  0
ARC
  5
230
100
AcDbEntity
  8
BEZUGSACHSEN
100
AcDbCircle
 62
7
  6
CONTINUOUS
 10
178.2635579875
 20
116.1021884049
 40
3.800644531
100
AcDbArc
 50
90.0044789489
 51
96.7376797603
  0
ARC
  5
231
100
AcDbEntity
  8
RUNDUNGEN
100
AcDbCircle
 62
7
  6
CONTINUOUS
 10
100.1990557179
 20
119.4028328464
 40
0.5
100
AcDbArc
 50
90.0
 51
180.0
  0
ARC
  5
232
100
AcDbEntity
  8
RUNDUNGEN
100
AcDbCircle
 62
7
  6
CONTINUOUS
 10
100.1990557179
 20
104.4028328464
 40
0.5
100
AcDbArc
 50
180.0
 51
270.0
  0
SPLINE
  5
233
100
AcDbEntity
  8
BEZUGSACHSEN
100
AcDbSpline
 62
7
  6
CONTINUOUS
 70
0
 71
3
 72
13
 73
9
 74
0
 42
0.0000001
 43
0.0000001
 44
0.0000000001
 40
0.0
 40
0.0
 40
0.0
 40
0.0
 40
0.271155956
 40
0.5249021259
 40
0.6466923887
 40
0.7659247133
 40
0.8833991434
 40
1.0
 40
1.0
 40
1.0
 40
1.0
 10
189.3042283412
 20
118.9906538788
 30
0.0
 10
189.0910137244
 20
119.134472106
 30
0.0
 10
188.6635158459
 20
119.3920692866
 30
0.0
 10
188.0995720972
 20
119.638937855
 30
0.0
 10
187.650366699
 20
119.7762401155
 30
0.0
 10
187.31784299
 20
119.8491694819
 30
0.0
 10
186.9852296252
 20
119.8930581724
 30
0.0
 10
186.7630927746
 20
119.9028326834
 30
0.0
 10
186.6524995986
 20
119.9028328314
 30
0.0
  0
SPLINE
  5
234
100
AcDbEntity
  8
BEZUGSACHSEN
100
AcDbSpline
 62
7
  6
CONTINUOUS
 70
0
 71
3
 72
11
 73
7
 74
0
 42
0.0000001
 43
0.0000001
 44
0.0000000001
 40
0.0
 40
0.0
 40
0.0
 40
0.0
 40
0.2585846484
 40
0.5099121936
 40
0.7562467704
 40
1.0
 40
1.0
 40
1.0
 40
1.0
 10
188.2154912815
 20
119.5809083497
 30
0.0
 10
188.3437872029
 20
119.6333139175
 30
0.0
 10
188.6012750722
 20
119.7261197603
 30
0.0
 10
188.9942292165
 20
119.8278580379
 30
0.0
 10
189.3874843332
 20
119.889153955
 30
0.0
 10
189.6503399998
 20
119.9028327046
 30
0.0
 10
189.7809776069
 20
119.902832508
 30
0.0
  0
SPLINE
  5
235
100
AcDbEntity
  8
0
100
AcDbSpline
 62
7
  6
CONTINUOUS
 70
0
 71
3
 72
11
 73
7
 74
0
 42
0.0000001
 43
0.0000001
 44
0.0000000001
 40
0.0
 40
0.0
 40
0.0
 40
0.0
 40
0.2585802894
 40
0.5099017782
 40
0.7562419752
 40
1.0
 40
1.0
 40
1.0
 40
1.0
 10
182.4580049362
 20
104.2243589435
 30
0.0
 10
182.3297960967
 20
104.1720228108
 30
0.0
 10
182.0724944437
 20
104.0793282059
 30
0.0
 10
181.6798275352
 20
103.9777128942
 30
0.0
 10
181.2868621018
 20
103.9164972103
 30
0.0
 10
181.0241995367
 20
103.9028328464
 30
0.0
 10
180.8936579002
 20
103.9028328464
 30
0.0
  0
SPLINE
  5
236
100
AcDbEntity
  8
BEZUGSACHSEN
100
AcDbSpline
 62
7
  6
CONTINUOUS
 70
0
 71
3
 72
11
 73
7
 74
0
 42
0.0000001
 43
0.0000001
 44
0.0000000001
 40
0.0
 40
0.0
 40
0.0
 40
0.0
 40
0.2839221817
 40
0.543996605
 40
0.7822346775
 40
1.0
 40
1.0
 40
1.0
 40
1.0
 10
176.5374045047
 20
119.6438328107
 30
0.0
 10
176.6584111069
 20
119.6668546641
 30
0.0
 10
176.8897884347
 20
119.7134060408
 30
0.0
 10
177.2224302528
 20
119.7806361606
 30
0.0
 10
177.5280134666
 20
119.8367350855
 30
0.0
 10
177.7238272054
 20
119.8655124409
 30
0.0
 10
177.8176517141
 20
119.8765845747
 30
0.0
  0
SPLINE
  5
237
100
AcDbEntity
  8
BEZUGSACHSEN
100
AcDbSpline
 62
7
  6
CONTINUOUS
 70
0
 71
3
 72
11
 73
7
 74
0
 42
0.0000001
 43
0.0000001
 44
0.0000000001
 40
0.0
 40
0.0
 40
0.0
 40
0.0
 40
0.2691981418
 40
0.5235832395
 40
0.765965015
 40
1.0
 40
1.0
 40
1.0
 40
1.0
 10
177.7866244014
 20
118.990642829
 30
0.0
 10
177.6081701228
 20
119.1110142845
 30
0.0
 10
177.2507148035
 20
119.3303993302
 30
0.0
 10
176.6970236884
 20
119.595214537
 30
0.0
 10
176.1418546537
 20
119.7824221108
 30
0.0
 10
175.7663147885
 20
119.8547007254
 30
0.0
 10
175.5804597217
 20
119.8765845747
 30
0.0
  0
SPLINE
  5
238
100
AcDbEntity
  8
BEZUGSACHSEN
100
AcDbSpline
 62
7
  6
CONTINUOUS
 70
0
 71
3
 72
9
 73
5
 74
0
 42
0.0000001
 43
0.0000001
 44
0.0000000001
 40
0.0
 40
0.0
 40
0.0
 40
0.0
 40
0.5210515944
 40
1.0
 40
1.0
 40
1.0
 40
1.0
 10
175.5804597217
 20
119.8765845747
 30
0.0
 10
175.5114026439
 20
119.8847339294
 30
0.0
 10
175.3785152352
 20
119.8975937864
 30
0.0
 10
175.2450471569
 20
119.9028328464
 30
0.0
 10
175.1811297195
 20
119.9028328464
 30
0.0
  0
SPLINE
  5
239
100
AcDbEntity
  8
BEZUGSACHSEN
100
AcDbSpline
 62
7
  6
CONTINUOUS
 70
0
 71
3
 72
13
 73
9
 74
0
 42
0.0000001
 43
0.0000001
 44
0.0000000001
 40
0.0
 40
0.0
 40
0.0
 40
0.0
 40
0.1166075732
 40
0.2340896257
 40
0.3533270051
 40
0.4751074205
 40
0.7288356342
 40
1.0
 40
1.0
 40
1.0
 40
1.0
 10
184.0220675533
 20
103.9028330224
 30
0.0
 10
183.9114695666
 20
103.9028328604
 30
0.0
 10
183.6893222831
 20
103.9126078745
 30
0.0
 10
183.3566947867
 20
103.9564913743
 30
0.0
 10
183.0241697136
 20
104.0294057141
 30
0.0
 10
182.5749945774
 20
104.1667150658
 30
0.0
 10
182.0110989361
 20
104.4136175605
 30
0.0
 10
181.5835871326
 20
104.6711579922
 30
0.0
 10
181.3703676226
 20
104.8149767425
 30
0.0
  0
SPLINE
  5
23A
100
AcDbEntity
  8
BEZUGSACHSEN
100
AcDbSpline
 62
7
  6
CONTINUOUS
 70
0
 71
3
 72
20
 73
16
 74
0
 42
0.0000001
 43
0.0000001
 44
0.0000000001
 40
0.0
 40
0.0
 40
0.0
 40
0.0
 40
0.0508520002
 40
0.1020934944
 40
0.1540996979
 40
0.2072149766
 40
0.2617493724
 40
0.3179757357
 40
0.376114458
 40
0.4363335909
 40
0.563452203
 40
0.6305157534
 40
0.6999190944
 40
0.8456113142
 40
1.0
 40
1.0
 40
1.0
 40
1.0
 10
180.893659609
 20
103.9028347623
 30
0.0
 10
180.7828614778
 20
103.9028285033
 30
0.0
 10
180.56029272
 20
103.9126074844
 30
0.0
 10
180.2270377412
 20
103.9566783687
 30
0.0
 10
179.893910351
 20
104.0299298475
 30
0.0
 10
179.5609622381
 20
104.1319185834
 30
0.0
 10
179.228188383
 20
104.2622371309
 30
0.0
 10
178.8956378574
 20
104.4204928666
 30
0.0
 10
178.5632786942
 20
104.6060268657
 30
0.0
 10
178.1122133912
 20
104.8939064867
 30
0.0
 10
177.669884406
 20
105.2296695116
 30
0.0
 10
177.2351424425
 20
105.6050582325
 30
0.0
 10
176.7853983615
 20
106.0244196882
 30
0.0
 10
176.2253978216
 20
106.6035208398
 30
0.0
 10
175.7961342984
 20
107.0970248653
 30
0.0
 10
175.5804491436
 20
107.3551652785
 30
0.0
  0
SPLINE
  5
23B
100
AcDbEntity
  8
BEZUGSACHSEN
100
AcDbSpline
 62
9
  6
CONTINUOUS
 70
0
 71
3
 72
11
 73
7
 74
0
 42
0.0000001
 43
0.0000001
 44
0.0000000001
 40
0.0
 40
0.0
 40
0.0
 40
0.0
 40
0.2828078045
 40
0.5472191013
 40
0.7876350886
 40
1.0
 40
1.0
 40
1.0
 40
1.0
 10
176.6990557179
 20
108.1528328464
 30
0.0
 10
176.797917184
 20
108.2023936603
 30
0.0
 10
176.9930895724
 20
108.2908316248
 30
0.0
 10
177.2842653677
 20
108.3926670687
 30
0.0
 10
177.5576923559
 20
108.4574005694
 30
0.0
 10
177.7346131309
 20
108.4757070017
 30
0.0
 10
177.8176498044
 20
108.4767187845
 30
0.0
  0
SPLINE
  5
23C
100
AcDbEntity
  8
BEZUGSACHSEN
100
AcDbSpline
 62
9
  6
CONTINUOUS
 70
0
 71
3
 72
11
 73
7
 74
0
 42
0.0000001
 43
0.0000001
 44
0.0000000001
 40
0.0
 40
0.0
 40
0.0
 40
0.0
 40
0.2505848197
 40
0.5049903596
 40
0.7568762076
 40
1.0
 40
1.0
 40
1.0
 40
1.0
 10
176.6990557178
 20
108.1528328464
 30
0.0
 10
176.5960847182
 20
108.1012118585
 30
0.0
 10
176.3927596991
 20
107.9886399278
 30
0.0
 10
176.1017697524
 20
107.797364337
 30
0.0
 10
175.8287322522
 20
107.5867937467
 30
0.0
 10
175.6598635167
 20
107.4338243733
 30
0.0
 10
175.5804616313
 20
107.3551810294
 30
0.0
  0
SPLINE
  5
23D
100
AcDbEntity
  8
BEZUGSACHSEN
100
AcDbSpline
 62
7
  6
CONTINUOUS
 70
0
 71
3
 72
36
 73
32
 74
0
 42
0.0000001
 43
0.0000001
 44
0.0000000001
 40
0.0
 40
0.0
 40
0.0
 40
0.0
 40
0.0580810807
 40
0.1167661716
 40
0.176165128
 40
0.2363430618
 40
0.2667547106
 40
0.2973839886
 40
0.3282412482
 40
0.3593418934
 40
0.3750063437
 40
0.3907480971
 40
0.4065746888
 40
0.4224943123
 40
0.4385132121
 40
0.4546315594
 40
0.4708402927
 40
0.4871205456
 40
0.5034488286
 40
0.5198042093
 40
0.536170873
 40
0.5525382499
 40
0.5852276325
 40
0.6178747506
 40
0.6504585633
 40
0.6829631219
 40
0.7476495937
 40
0.8118488463
 40
0.8754161764
 40
0.9381921004
 40
1.0
 40
1.0
 40
1.0
 40
1.0
 10
175.5804597217
 20
107.3551873933
 30
0.0
 10
175.4973192618
 20
107.4549143213
 30
0.0
 10
175.3375883884
 20
107.661714181
 30
0.0
 10
175.1205513132
 20
107.9907648629
 30
0.0
 10
174.9281749963
 20
108.3402566292
 30
0.0
 10
174.7942801973
 20
108.6484365548
 30
0.0
 10
174.7093461102
 20
108.9059531456
 30
0.0
 10
174.6595029538
 20
109.1054937926
 30
0.0
 10
174.6278592024
 20
109.3103687217
 30
0.0
 10
174.6218450044
 20
109.4844213816
 30
0.0
 10
174.6338741225
 20
109.6238013581
 30
0.0
 10
174.6530018051
 20
109.7278365618
 30
0.0
 10
174.683965453
 20
109.8296570549
 30
0.0
 10
174.7285445642
 20
109.9270919427
 30
0.0
 10
174.7880644458
 20
110.017110292
 30
0.0
 10
174.8626694414
 20
110.0961000037
 30
0.0
 10
174.9507529266
 20
110.1607322172
 30
0.0
 10
175.0491652389
 20
110.2090981496
 30
0.0
 10
175.1542729573
 20
110.2411115812
 30
0.0
 10
175.2629196684
 20
110.2580535951
 30
0.0
 10
175.3728219109
 20
110.2617931272
 30
0.0
 10
175.5189299369
 20
110.2517317157
 30
0.0
 10
175.6987261881
 20
110.2153564278
 30
0.0
 10
175.9062277888
 20
110.1443211021
 30
0.0
 10
176.1049944823
 20
110.0528768213
 30
0.0
 10
176.3579729213
 20
109.9103849112
 30
0.0
 10
176.6536991957
 20
109.7021505713
 30
0.0
 10
176.9801271953
 20
109.4212143103
 30
0.0
 10
177.2814775569
 20
109.1197159623
 30
0.0
 10
177.5604253022
 20
108.8046530778
 30
0.0
 10
177.7341173276
 20
108.5867838211
 30
0.0
 10
177.8176517141
 20
108.4767265713
 30
0.0
  0
SPLINE
  5
23E
100
AcDbEntity
  8
BEZUGSACHSEN
100
AcDbSpline
 62
7
  6
CONTINUOUS
 70
0
 71
3
 72
11
 73
7
 74
0
 42
0.0000001
 43
0.0000001
 44
0.0000000001
 40
0.0
 40
0.0
 40
0.0
 40
0.0
 40
0.2400025075
 40
0.484233352
 40
0.73648373
 40
1.0
 40
1.0
 40
1.0
 40
1.0
 10
189.7809776069
 20
119.902832508
 30
0.0
 10
189.9495088506
 20
119.9028322544
 30
0.0
 10
190.2899583001
 20
119.8798884267
 30
0.0
 10
190.7982515671
 20
119.7774574178
 30
0.0
 10
191.3056435417
 20
119.6081822391
 30
0.0
 10
191.63500787
 20
119.4557280339
 30
0.0
 10
191.7990557179
 20
119.3701177301
 30
0.0
  0
SPLINE
  5
23F
100
AcDbEntity
  8
0
100
AcDbSpline
 62
7
  6
CONTINUOUS
 70
0
 71
3
 72
26
 73
22
 74
0
 42
0.0000001
 43
0.0000001
 44
0.0000000001
 40
0.0
 40
0.0
 40
0.0
 40
0.0
 40
0.1252298724
 40
0.2532634287
 40
0.3835914366
 40
0.4493342642
 40
0.5151973425
 40
0.5809115567
 40
0.6460810866
 40
0.7101287698
 40
0.7722742439
 40
0.8023398541
 40
0.831532765
 40
0.8597492501
 40
0.8870136983
 40
0.9136318386
 40
0.9269582792
 40
0.940477711
 40
0.9543741516
 40
0.9688338888
 40
1.0
 40
1.0
 40
1.0
 40
1.0
 10
191.7990557179
 20
119.3701177301
 30
0.0
 10
191.8536994594
 20
119.253139836
 30
0.0
 10
191.9569667271
 20
119.0130956601
 30
0.0
 10
192.0897206614
 20
118.6402802829
 30
0.0
 10
192.1795725576
 20
118.3180647391
 30
0.0
 10
192.236042524
 20
118.0539059249
 30
0.0
 10
192.2693306165
 20
117.8531256753
 30
0.0
 10
192.2919016608
 20
117.651433274
 30
0.0
 10
192.3016347834
 20
117.4505210838
 30
0.0
 10
192.29545665
 20
117.2530948743
 30
0.0
 10
192.2735171286
 20
117.0929824404
 30
0.0
 10
192.2422480633
 20
116.9716320735
 30
0.0
 10
192.2113006828
 20
116.8867308316
 30
0.0
 10
192.1712993212
 20
116.8088075474
 30
0.0
 10
192.1207617166
 20
116.7403398745
 30
0.0
 10
192.0682038915
 20
116.6940541869
 30
0.0
 10
192.0203120058
 20
116.6664412392
 30
0.0
 10
191.9811822143
 20
116.6507628409
 30
0.0
 10
191.9390381697
 20
116.6406867498
 30
0.0
 10
191.8777574538
 20
116.6350826074
 30
0.0
 10
191.8303968922
 20
116.6406933942
 30
0.0
 10
191.7990557179
 20
116.6477788845
 30
0.0
  0
SPLINE
  5
240
100
AcDbEntity
  8
BEZUGSACHSEN
100
AcDbSpline
 62
7
  6
CONTINUOUS
 70
0
 71
3
 72
12
 73
8
 74
0
 42
0.0000001
 43
0.0000001
 44
0.0000000001
 40
0.0
 40
0.0
 40
0.0
 40
0.0
 40
0.2728369105
 40
0.5308364418
 40
0.6540263914
 40
0.7732669552
 40
1.0
 40
1.0
 40
1.0
 40
1.0
 10
191.7990557179
 20
116.6477788845
 30
0.0
 10
191.5963625618
 20
116.8851479659
 30
0.0
 10
191.1927969576
 20
117.3392669481
 30
0.0
 10
190.6668841443
 20
117.8721585587
 30
0.0
 10
190.2447630388
 20
118.259107675
 30
0.0
 10
189.8360704795
 20
118.6071282804
 30
0.0
 10
189.5192717604
 20
118.8456020818
 30
0.0
 10
189.3042283412
 20
118.9906538788
 30
0.0
  0
SPLINE
  5
241
100
AcDbEntity
  8
BEZUGSACHSEN
100
AcDbSpline
 62
7
  6
CONTINUOUS
 70
0
 71
3
 72
36
 73
32
 74
0
 42
0.0000001
 43
0.0000001
 44
0.0000000001
 40
0.0
 40
0.0
 40
0.0
 40
0.0
 40
0.0291300616
 40
0.0594678204
 40
0.1235415033
 40
0.1571247457
 40
0.1916049921
 40
0.2627790359
 40
0.299214444
 40
0.3360292697
 40
0.3730783533
 40
0.4102136277
 40
0.4472860575
 40
0.4841473092
 40
0.5566565748
 40
0.592028072
 40
0.6266383892
 40
0.6603699634
 40
0.6931166405
 40
0.7247889513
 40
0.7553125015
 40
0.784633399
 40
0.8127244897
 40
0.839581485
 40
0.8652297406
 40
0.8897356166
 40
0.9131976373
 40
0.9357553517
 40
0.9575946729
 40
0.9789278548
 40
1.0
 40
1.0
 40
1.0
 40
1.0
 10
191.7990557179
 20
105.6832816474
 30
0.0
 10
191.6550175874
 20
105.8150424142
 30
0.0
 10
191.3674774689
 20
106.0912005019
 30
0.0
 10
190.7939923862
 20
106.6885322143
 30
0.0
 10
190.2327707311
 20
107.3380050346
 30
0.0
 10
189.678610021
 20
108.0287001019
 30
0.0
 10
189.1095977715
 20
108.7682953712
 30
0.0
 10
188.5484694963
 20
109.5377637843
 30
0.0
 10
187.989885081
 20
110.3281480458
 30
0.0
 10
187.5678256429
 20
110.9349714342
 30
0.0
 10
187.1457629674
 20
111.5474884975
 30
0.0
 10
186.7235067122
 20
112.1619673462
 30
0.0
 10
186.3013118982
 20
112.7749634269
 30
0.0
 10
185.7416426642
 20
113.5811016778
 30
0.0
 10
185.1802348774
 20
114.3721900767
 30
0.0
 10
184.6128328155
 20
115.1402613734
 30
0.0
 10
184.1906340442
 20
115.6924055841
 30
0.0
 10
183.7683934629
 20
116.2222206702
 30
0.0
 10
183.3462583486
 20
116.7267324815
 30
0.0
 10
182.9239799684
 20
117.2027838439
 30
0.0
 10
182.50167692
 20
117.6477006396
 30
0.0
 10
182.079336774
 20
118.0589241417
 30
0.0
 10
181.6567372412
 20
118.4338677426
 30
0.0
 10
181.2339290312
 20
118.7704196834
 30
0.0
 10
180.8109064637
 20
119.0666930662
 30
0.0
 10
180.38745908
 20
119.3207138723
 30
0.0
 10
179.9635733762
 20
119.5310055953
 30
0.0
 10
179.5391799883
 20
119.6962185326
 30
0.0
 10
179.114226192
 20
119.8150844261
 30
0.0
 10
178.6888998032
 20
119.8868155825
 30
0.0
 10
178.4044739069
 20
119.902832919
 30
0.0
 10
178.263260882
 20
119.9028329243
 30
0.0
  0
SPLINE
  5
242
100
AcDbEntity
  8
BEZUGSACHSEN
100
AcDbSpline
 62
9
  6
CONTINUOUS
 70
0
 71
3
 72
11
 73
7
 74
0
 42
0.0000001
 43
0.0000001
 44
0.0000000001
 40
0.0
 40
0.0
 40
0.0
 40
0.0
 40
0.2446166909
 40
0.4922719647
 40
0.7438563999
 40
1.0
 40
1.0
 40
1.0
 40
1.0
 10
177.0178907022
 20
119.4370728622
 30
0.0
 10
177.0915247373
 20
119.4530063417
 30
0.0
 10
177.2375307249
 20
119.4961851144
 30
0.0
 10
177.4461883845
 20
119.5925742372
 30
0.0
 10
177.6422409852
 20
119.7191673349
 30
0.0
 10
177.7612577754
 20
119.8214325441
 30
0.0
 10
177.8176498044
 20
119.8765987253
 30
0.0
  0
SPLINE
  5
243
100
AcDbEntity
  8
BEZUGSACHSEN
100
AcDbSpline
 62
7
  6
CONTINUOUS
 70
0
 71
3
 72
37
 73
33
 74
0
 42
0.0000001
 43
0.0000001
 44
0.0000000001
 40
0.0
 40
0.0
 40
0.0
 40
0.0
 40
0.0214651229
 40
0.0435618069
 40
0.0665085953
 40
0.0904696232
 40
0.1155697189
 40
0.1418975609
 40
0.1694929834
 40
0.198361683
 40
0.2284822826
 40
0.2598022978
 40
0.2922468866
 40
0.3257241058
 40
0.3601229581
 40
0.3953193247
 40
0.467553523
 40
0.5042964976
 40
0.5412503727
 40
0.5782566052
 40
0.6151560317
 40
0.6880062265
 40
0.7236537941
 40
0.7585919164
 40
0.7926885785
 40
0.8258239171
 40
0.8578941305
 40
0.8888102631
 40
0.9185057491
 40
0.9469406863
 40
0.974098955
 40
1.0
 40
1.0
 40
1.0
 40
1.0
 10
191.7990557179
 20
103.9523570198
 30
0.0
 10
191.6515474761
 20
103.9761938604
 30
0.0
 10
191.3547182804
 20
104.0416619567
 30
0.0
 10
190.9150141917
 20
104.1889816118
 30
0.0
 10
190.4758172333
 20
104.3852091151
 30
0.0
 10
190.0372152525
 20
104.6290316053
 30
0.0
 10
189.599178519
 20
104.9188695461
 30
0.0
 10
189.1614255507
 20
105.2525803229
 30
0.0
 10
188.7239238636
 20
105.6281701084
 30
0.0
 10
188.286699122
 20
106.0433489486
 30
0.0
 10
187.8495026227
 20
106.4953099787
 30
0.0
 10
187.4123837703
 20
106.9813277802
 30
0.0
 10
186.9754691353
 20
107.4984726735
 30
0.0
 10
186.5384619528
 20
108.0432656558
 30
0.0
 10
186.101492732
 20
108.6124152357
 30
0.0
 10
185.5138834724
 20
109.4058505714
 30
0.0
 10
184.932836517
 20
110.2242624656
 30
0.0
 10
184.3537407799
 20
111.0588794869
 30
0.0
 10
183.91674405
 20
111.6936172255
 30
0.0
 10
183.4797582033
 20
112.3296826723
 30
0.0
 10
182.8997634151
 20
113.1706591151
 30
0.0
 10
182.3187209932
 20
113.9994587506
 30
0.0
 10
181.7320460417
 20
114.8074351535
 30
0.0
 10
181.2950504831
 20
115.390617195
 30
0.0
 10
180.858072967
 20
115.9518258248
 30
0.0
 10
180.4211353367
 20
116.4875698553
 30
0.0
 10
179.9840113424
 20
116.9942975188
 30
0.0
 10
179.5469334927
 20
117.4690392413
 30
0.0
 10
179.109810677
 20
117.9087865206
 30
0.0
 10
178.6724223277
 20
118.3106149103
 30
0.0
 10
178.2349018536
 20
118.6721555305
 30
0.0
 10
177.9360996406
 20
118.8898183923
 30
0.0
 10
177.7866244014
 20
118.990642829
 30
0.0
  0
SPLINE
  5
244
100
AcDbEntity
  8
0
100
AcDbSpline
 62
7
  6
CONTINUOUS
 70
0
 71
3
 72
24
 73
20
 74
0
 42
0.0000001
 43
0.0000001
 44
0.0000000001
 40
0.0
 40
0.0
 40
0.0
 40
0.0
 40
0.1272138813
 40
0.2424977186
 40
0.2955834677
 40
0.3456769885
 40
0.3929494613
 40
0.4377804084
 40
0.4808991913
 40
0.5236814362
 40
0.5685409879
 40
0.6192271743
 40
0.6811944701
 40
0.7186388678
 40
0.7616785843
 40
0.8112280073
 40
0.8678474813
 40
0.9312491648
 40
1.0
 40
1.0
 40
1.0
 40
1.0
 10
191.7990557179
 20
105.6832816474
 30
0.0
 10
191.8507064065
 20
105.6141286327
 30
0.0
 10
191.9482501169
 20
105.4816256795
 30
0.0
 10
192.0625240519
 20
105.3167267477
 30
0.0
 10
192.1414145109
 20
105.1912053204
 30
0.0
 10
192.1920942554
 20
105.1025483486
 30
0.0
 10
192.2349891774
 20
105.0160432538
 30
0.0
 10
192.2688191849
 20
104.9306086975
 30
0.0
 10
192.2919631275
 20
104.8447198814
 30
0.0
 10
192.3018428779
 20
104.7561146474
 30
0.0
 10
192.2944277942
 20
104.6619293402
 30
0.0
 10
192.2645999811
 20
104.558604025
 30
0.0
 10
192.2188659737
 20
104.4670936891
 30
0.0
 10
192.1673498741
 20
104.3852820705
 30
0.0
 10
192.1160112081
 20
104.3134688509
 30
0.0
 10
192.0532736025
 20
104.2339820274
 30
0.0
 10
191.9786417284
 20
104.1463925732
 30
0.0
 10
191.8928106487
 20
104.0513110612
 30
0.0
 10
191.8313149403
 20
103.9860504096
 30
0.0
 10
191.7990557179
 20
103.9523570198
 30
0.0
  0
SPLINE
  5
245
100
AcDbEntity
  8
BEZUGSACHSEN
100
AcDbSpline
 62
7
  6
CONTINUOUS
 70
0
 71
3
 72
15
 73
11
 74
0
 42
0.0000001
 43
0.0000001
 44
0.0000000001
 40
0.0
 40
0.0
 40
0.0
 40
0.0
 40
0.1071084758
 40
0.2194912811
 40
0.3372246827
 40
0.4602387798
 40
0.5883585324
 40
0.7212893027
 40
0.8586524834
 40
1.0
 40
1.0
 40
1.0
 40
1.0
 10
181.3703676226
 20
104.8149767425
 30
0.0
 10
181.2187256496
 20
104.9172608115
 30
0.0
 10
180.9156009515
 20
105.1383202392
 30
0.0
 10
180.4718864535
 20
105.505879207
 30
0.0
 10
180.0283339661
 20
105.9148267911
 30
0.0
 10
179.5850507261
 20
106.3626430045
 30
0.0
 10
179.1417443498
 20
106.8462127576
 30
0.0
 10
178.6985466454
 20
107.3625860316
 30
0.0
 10
178.2554249067
 20
107.9084038822
 30
0.0
 10
177.9637946171
 20
108.2846097548
 30
0.0
 10
177.8176517141
 20
108.4767265713
 30
0.0
  0
ENDSEC
  0
SECTION
  2
OBJECTS
  0
DICTIONARY
  5
C
100
AcDbDictionary
280
0
281
1
  3
ACAD_GROUP
350
D
  3
ACAD_MLINESTYLE
350
17
  3
ACAD_LAYOUT
350
1A
  3
ACAD_PLOTSETTINGS
350
19
  3
ACAD_PLOTSTYLENAME
350
E
  0
DICTIONARY
  5
D
102
{ACAD_REACTORS
330
C
102
}
100
AcDbDictionary
280
0
281
1
  0
ACDBDICTIONARYWDFLT
  5
E
102
{ACAD_REACTORS
330
C
102
}
100
AcDbDictionary
281
1
  3
Normal
350
F
100
AcDbDictionaryWithDefault
340
F
  0
DICTIONARY
  5
17
102
{ACAD_REACTORS
330
C
102
}
100
AcDbDictionary
280
0
281
1
  3
Standard
350
18
  0
DICTIONARY
  5
19
102
{ACAD_REACTORS
330
C
102
}
100
AcDbDictionary
281
1
  0
DICTIONARY
  5
1A
102
{ACAD_REACTORS
330
C
102
}
100
AcDbDictionary
281
1
  3
Model
350
246
  3
Layout1
350
247
  0
ACDBPLACEHOLDER
  5
F
102
{ACAD_REACTORS
330
E
102
}
  0
MLINESTYLE
  5
18
102
{ACAD_REACTORS
330
17
102
}
100
AcDbMlineStyle
  2
STANDARD
 70
0
  3

 62
256
 51
90.0
 52
90.0
 71
2
 49
0.5
 62
256
  6
BYLAYER
 49
-0.5
 62
256
  6
BYLAYER
  0
LAYOUT
  5
246
102
{ACAD_REACTORS
330
1A
102
}
100
AcDbPlotSettings
  1

  2
none_device
  4
ISO_A4_(297.00_x_210.00_MM)
  6

 40
0.0
 41
0.0
 42
0.0
 43
0.0
 44
297.0
 45
210.0
 46
0.0
 47
0.0
 48
0.0
 49
0.0
140
0.0
141
0.0
142
1.0
143
1.0
 70
1024
 72
1
 73
0
 74
0
  7

 75
0
147
1.0
148
0.0
149
0.0
100
AcDbLayout
  1
Model
 70
0
 71
0
 10
0.0
 20
0.0
 11
297.0
 21
210.0
 12
0.0
 22
0.0
 32
0.0
 14
0.0
 24
0.0
 34
0.0
 15
0.0
 25
0.0
 35
0.0
146
0.0
 13
0.0
 23
0.0
 33
0.0
 16
1.0
 26
0.0
 36
0.0
 17
0.0
 27
1.0
 37
0.0
 76
0
330
211
345
0
346
0
  0
LAYOUT
  5
247
102
{ACAD_REACTORS
330
1A
102
}
100
AcDbPlotSettings
  1

  2
none_device
  4
ISO_A4_(297.00_x_210.00_MM)
  6

 40
0.0
 41
0.0
 42
0.0
 43
0.0
 44
297.0
 45
210.0
 46
0.0
 47
0.0
 48
0.0
 49
0.0
140
0.0
141
0.0
142
1.0
143
1.0
 70
0
 72
1
 73
0
 74
0
  7

 75
0
147
1.0
148
0.0
149
0.0
100
AcDbLayout
  1
Layout1
 70
0
 71
1
 10
0.0
 20
0.0
 11
297.0
 21
210.0
 12
0.0
 22
0.0
 32
0.0
 14
0.0
 24
0.0
 34
0.0
 15
0.0
 25
0.0
 35
0.0
146
0.0
 13
0.0
 23
0.0
 33
0.0
 16
1.0
 26
0.0
 36
0.0
 17
0.0
 27
1.0
 37
0.0
 76
0
330
212
345
0
346
0
  0
ENDSEC
  0
EOF
