999
DXF file: kontur-dl12-uk-Vollradius.dxf
999
Pro/ENGINEER 2016260 by Parametric Technology Corporation
  0
SECTION
  2
HEADER
  9
$ACADVER
  1
AC1014
  9
$DWGCODEPAGE
  3
ANSI_1252
  9
$EXTMAX
 10
210.0
 20
297.0
 30
0.0
  9
$EXTMIN
 10
0.0
 20
0.0
 30
0.0
  9
$LIMMIN
 10
0.0
 20
0.0
  9
$LIMMAX
 10
210.0
 20
297.0
  9
$VIEWCTR
 10
105.0
 20
148.5
  9
$VIEWSIZE
 40
297.0
  9
$CLAYER
  8
0
  9
$LTSCALE
 40
19.36
  9
$CELTYPE
  6
BYLAYER
  9
$DIMSCALE
 40
1.0
  9
$DIMASZ
 40
3.5
  9
$DIMEXO
 40
0.0
  9
$DIMDLI
 40
13.376
  9
$DIMEXE
 40
1.5
  9
$DIMCEN
 40
3.168
  9
$DIMLFAC
 40
1.0
  9
$DIMBLK
  1
_ARROW_FILLED
  9
$DIMALT
 70
0
  9
$DIMALTF
 40
25.4
  9
$DIMTXT
 40
3.5
  9
$DIMTOL
 70
1
  9
$DIMLIM
 70
0
  9
$DIMTFAC
 40
1.0
  9
$DIMTP
 40
0.001
  9
$DIMTM
 40
0.001
  9
$DIMGAP
 40
0.625
  9
$AUNITS
 70
0
  9
$PDMODE
 70
3
  9
$PDSIZE
 40
0.3125
  9
$HANDSEED
  5
23A
  9
$TILEMODE
 70
1
  9
$MEASUREMENT
 70
1
  0
ENDSEC
  0
SECTION
  2
CLASSES
  0
ENDSEC
  0
SECTION
  2
TABLES
  0
TABLE
  2
VPORT
  5
8
100
AcDbSymbolTable
 70
2
  0
VPORT
  5
1F4
100
AcDbSymbolTableRecord
100
AcDbViewportTableRecord
  2
*ACTIVE
 70
0
 10
0.0
 20
0.0
 11
1.0
 21
1.0
 12
105.0
 22
148.5
 13
0.0
 23
0.0
 14
1.0
 24
1.0
 15
0.0
 25
0.0
 16
0.0
 26
0.0
 36
1.0
 17
0.0
 27
0.0
 37
0.0
 40
297.0
 41
0.7070707071
 42
50.0
 43
0.0
 44
0.0
 50
0.0
 51
0.0
 71
0
 72
100
 73
1
 74
1
 75
0
 76
0
 77
0
 78
0
  0
ENDTAB
  0
TABLE
  2
LTYPE
  5
5
100
AcDbSymbolTable
 70
6
  0
LTYPE
  5
14
100
AcDbSymbolTableRecord
100
AcDbLinetypeTableRecord
  2
BYBLOCK
 70
0
  3

 72
65
 73
0
 40
0.0
  0
LTYPE
  5
15
100
AcDbSymbolTableRecord
100
AcDbLinetypeTableRecord
  2
BYLAYER
 70
0
  3

 72
65
 73
0
 40
0.0
  0
LTYPE
  5
16
100
AcDbSymbolTableRecord
100
AcDbLinetypeTableRecord
  2
CONTINUOUS
 70
64
  3
Solid line
 72
65
 73
0
 40
0.0
  0
LTYPE
  5
1F5
100
AcDbSymbolTableRecord
100
AcDbLinetypeTableRecord
  2
CENTER
 70
64
  3
____ _ ____ _ ____ _ ____ _ ____ _ ____ _ ____
 72
65
 73
4
 40
0.6
 49
0.375
 74
0
 49
-0.075
 74
0
 49
0.075
 74
0
 49
-0.075
 74
0
  0
LTYPE
  5
1F6
100
AcDbSymbolTableRecord
100
AcDbLinetypeTableRecord
  2
HIDDEN
 70
64
  3
- - - - - - - - - - - - - - - - - - - -
 72
65
 73
2
 40
0.2
 49
0.1
 74
0
 49
-0.1
 74
0
  0
LTYPE
  5
1F7
100
AcDbSymbolTableRecord
100
AcDbLinetypeTableRecord
  2
PHANTOM
 70
64
  3
_____ _ _ _____ _ _ _____ _ _ _____
 72
65
 73
6
 40
0.8
 49
0.45
 74
0
 49
-0.05
 74
0
 49
0.1
 74
0
 49
-0.05
 74
0
 49
0.1
 74
0
 49
-0.05
 74
0
  0
LTYPE
  5
1F8
100
AcDbSymbolTableRecord
100
AcDbLinetypeTableRecord
  2
DOT
 70
64
  3
. . . . . . . . . . . . . . . . . . . .
 72
65
 73
2
 40
0.2
 49
0.1
 74
0
 49
-0.1
 74
0
  0
LTYPE
  5
1F9
100
AcDbSymbolTableRecord
100
AcDbLinetypeTableRecord
  2
DASHED
 70
64
  3
- - - - - - - - - - - - - - - - - - - -
 72
65
 73
2
 40
0.2
 49
0.1
 74
0
 49
-0.1
 74
0
  0
ENDTAB
  0
TABLE
  2
LAYER
  5
2
100
AcDbSymbolTable
 70
36
  0
LAYER
  5
10
100
AcDbSymbolTableRecord
100
AcDbLayerTableRecord
  2
0
 70
0
 62
7
  6
CONTINUOUS
  0
LAYER
  5
1FA
100
AcDbSymbolTableRecord
100
AcDbLayerTableRecord
  2
DEFAULT_1
 70
0
 62
7
  6
CENTER
  0
LAYER
  5
1FB
100
AcDbSymbolTableRecord
100
AcDbLayerTableRecord
  2
DEFAULT_2
 70
0
 62
8
  6
HIDDEN
  0
LAYER
  5
1FC
100
AcDbSymbolTableRecord
100
AcDbLayerTableRecord
  2
DEFAULT_3
 70
0
 62
7
  6
PHANTOM
  0
LAYER
  5
1FD
100
AcDbSymbolTableRecord
100
AcDbLayerTableRecord
  2
BEZUGSACHSEN
 70
0
 62
7
  6
CONTINUOUS
  0
LAYER
  5
1FE
100
AcDbSymbolTableRecord
100
AcDbLayerTableRecord
  2
BEZUGSACHSEN_AUSGEBLENDET
 70
0
 62
7
  6
CONTINUOUS
  0
LAYER
  5
1FF
100
AcDbSymbolTableRecord
100
AcDbLayerTableRecord
  2
BEZUGSEBENEN
 70
0
 62
7
  6
CONTINUOUS
  0
LAYER
  5
200
100
AcDbSymbolTableRecord
100
AcDbLayerTableRecord
  2
BEZUGSEBENEN_AUSGEBLENDET
 70
0
 62
7
  6
CONTINUOUS
  0
LAYER
  5
201
100
AcDbSymbolTableRecord
100
AcDbLayerTableRecord
  2
BOHRUNGEN
 70
0
 62
7
  6
CONTINUOUS
  0
LAYER
  5
202
100
AcDbSymbolTableRecord
100
AcDbLayerTableRecord
  2
FASEN
 70
0
 62
7
  6
CONTINUOUS
  0
LAYER
  5
203
100
AcDbSymbolTableRecord
100
AcDbLayerTableRecord
  2
FLAECHEN
 70
0
 62
7
  6
CONTINUOUS
  0
LAYER
  5
204
100
AcDbSymbolTableRecord
100
AcDbLayerTableRecord
  2
FORM_LAGE_TOLERANZEN
 70
0
 62
7
  6
CONTINUOUS
  0
LAYER
  5
205
100
AcDbSymbolTableRecord
100
AcDbLayerTableRecord
  2
GEWINDE
 70
0
 62
7
  6
CONTINUOUS
  0
LAYER
  5
206
100
AcDbSymbolTableRecord
100
AcDbLayerTableRecord
  2
HILFEN
 70
0
 62
7
  6
CONTINUOUS
  0
LAYER
  5
207
100
AcDbSymbolTableRecord
100
AcDbLayerTableRecord
  2
KT-AUFMASS_BEI_HARTBEARBEITUNG
 70
0
 62
7
  6
CONTINUOUS
  0
LAYER
  5
208
100
AcDbSymbolTableRecord
100
AcDbLayerTableRecord
  2
KT-AUFMASS_BEI_WEICHBEARBEITUNG
 70
0
 62
7
  6
CONTINUOUS
  0
LAYER
  5
209
100
AcDbSymbolTableRecord
100
AcDbLayerTableRecord
  2
KT-BASISBEMASSUNG
 70
0
 62
7
  6
CONTINUOUS
  0
LAYER
  5
20A
100
AcDbSymbolTableRecord
100
AcDbLayerTableRecord
  2
KT-BESCHRIFTUNG
 70
0
 62
7
  6
CONTINUOUS
  0
LAYER
  5
20B
100
AcDbSymbolTableRecord
100
AcDbLayerTableRecord
  2
KT-HARTBEARBEITUNG
 70
0
 62
7
  6
CONTINUOUS
  0
LAYER
  5
20C
100
AcDbSymbolTableRecord
100
AcDbLayerTableRecord
  2
KT-WEICHBEARBEITUNG
 70
0
 62
7
  6
CONTINUOUS
  0
LAYER
  5
20D
100
AcDbSymbolTableRecord
100
AcDbLayerTableRecord
  2
KURVEN
 70
0
 62
7
  6
CONTINUOUS
  0
LAYER
  5
20E
100
AcDbSymbolTableRecord
100
AcDbLayerTableRecord
  2
PLATZIERUNG
 70
0
 62
7
  6
CONTINUOUS
  0
LAYER
  5
20F
100
AcDbSymbolTableRecord
100
AcDbLayerTableRecord
  2
PUNKTE
 70
0
 62
7
  6
CONTINUOUS
  0
LAYER
  5
210
100
AcDbSymbolTableRecord
100
AcDbLayerTableRecord
  2
PUNKTE_AUSGEBLENDET
 70
0
 62
7
  6
CONTINUOUS
  0
LAYER
  5
211
100
AcDbSymbolTableRecord
100
AcDbLayerTableRecord
  2
RUNDUNGEN
 70
0
 62
7
  6
CONTINUOUS
  0
LAYER
  5
212
100
AcDbSymbolTableRecord
100
AcDbLayerTableRecord
  2
SKIZZE
 70
0
 62
7
  6
CONTINUOUS
  0
LAYER
  5
213
100
AcDbSymbolTableRecord
100
AcDbLayerTableRecord
  2
TEIL_STARTBEZUEGE
 70
0
 62
7
  6
CONTINUOUS
  0
LAYER
  5
214
100
AcDbSymbolTableRecord
100
AcDbLayerTableRecord
  2
ZEICHNUNGSBEMASSUNGEN
 70
0
 62
7
  6
CONTINUOUS
  0
ENDTAB
  0
TABLE
  2
STYLE
  5
3
100
AcDbSymbolTable
 70
1
  0
STYLE
  5
11
100
AcDbSymbolTableRecord
100
AcDbTextStyleTableRecord
  2
STANDARD
 70
0
 40
0.0
 41
0.7
 50
0.0
 71
0
 42
0.2
  3
txt
  4

  0
STYLE
  5
215
100
AcDbSymbolTableRecord
100
AcDbTextStyleTableRecord
  2
TEXTSTYLE_1
 70
0
 40
0.0
 41
0.8
 50
0.0
 71
0
 42
0.2
  3
gdt
  4

  0
ENDTAB
  0
TABLE
  2
VIEW
  5
6
100
AcDbSymbolTable
 70
0
  0
ENDTAB
  0
TABLE
  2
UCS
  5
7
100
AcDbSymbolTable
 70
0
  0
ENDTAB
  0
TABLE
  2
APPID
  5
9
100
AcDbSymbolTable
 70
1
  0
APPID
  5
216
100
AcDbSymbolTableRecord
100
AcDbRegAppTableRecord
  2
ACAD
 70
0
  0
ENDTAB
  0
TABLE
  2
BLOCK_RECORD
  5
1
100
AcDbSymbolTable
 70
0
  0
BLOCK_RECORD
  5
1F
100
AcDbSymbolTableRecord
100
AcDbBlockTableRecord
  2
*MODEL_SPACE
  0
BLOCK_RECORD
  5
1B
100
AcDbSymbolTableRecord
100
AcDbBlockTableRecord
  2
*PAPER_SPACE
  0
ENDTAB
  0
TABLE
  2
DIMSTYLE
  5
A
100
AcDbSymbolTable
 70
1
  0
DIMSTYLE
105
217
100
AcDbSymbolTableRecord
100
AcDbDimStyleTableRecord
  2
STANDARD
 70
0
  3

  4

  5
_ARROW_FILLED
  6
_ARROW_FILLED
  7
_ARROW_FILLED
 40
1.0
 41
3.5
 42
0.0
 43
0.38
 44
1.5
 45
0.0
 46
0.0
 47
0.001
 48
0.001
140
3.5
141
0.09
142
0.0
143
25.4
144
1.0
145
0.0
146
1.0
147
0.625
 71
1.0
 72
0.0
 73
0
 74
0
 75
0
 76
0
 77
1
 78
8
170
0
171
2
172
0
173
0
174
0
175
0
176
0
177
0
178
0
270
2
271
3
272
3
273
2
274
2
275
0
280
0
281
0
282
0
283
1
284
8
285
0
286
0
287
3
288
0
340
11
  0
ENDTAB
  0
ENDSEC
  0
SECTION
  2
BLOCKS
  0
BLOCK
  5
20
100
AcDbEntity
  8
0
100
AcDbBlockBegin
  2
*MODEL_SPACE
 70
0
 10
0.0
 20
0.0
 30
0.0
  3
*MODEL_SPACE
  1

  0
ENDBLK
  5
21
100
AcDbEntity
  8
0
100
AcDbBlockEnd
  0
BLOCK
  5
1C
100
AcDbEntity
  8
0
100
AcDbBlockBegin
  2
*PAPER_SPACE
 70
0
 10
0.0
 20
0.0
 30
0.0
  3
*PAPER_SPACE
  1

  0
ENDBLK
  5
1D
100
AcDbEntity
  8
0
100
AcDbBlockEnd
  0
ENDSEC
  0
SECTION
  2
ENTITIES
  0
LINE
  5
218
100
AcDbEntity
  8
SKIZZE
100
AcDbLine
 62
4
  6
CONTINUOUS
 10
85.5145631068
 20
160.9823258967
 11
85.5145631068
 21
154.2798100256
  0
LINE
  5
219
100
AcDbEntity
  8
SKIZZE
100
AcDbLine
 62
4
  6
CONTINUOUS
 10
88.5145631068
 20
161.9405679612
 11
88.5145631068
 21
161.0080679612
  0
LINE
  5
21A
100
AcDbEntity
  8
SKIZZE
100
AcDbLine
 62
4
  6
CONTINUOUS
 10
88.5145631068
 20
154.2540679612
 11
88.5145631068
 21
153.3215679612
  0
LINE
  5
21B
100
AcDbEntity
  8
SKIZZE
100
AcDbLine
 62
4
  6
CONTINUOUS
 10
86.8210763142
 20
154.2185679612
 11
86.9149133972
 21
154.5687727224
  0
LINE
  5
21C
100
AcDbEntity
  8
SKIZZE
100
AcDbLine
 62
4
  6
CONTINUOUS
 10
86.8210763142
 20
161.0435679612
 11
86.9149133972
 21
160.6933631999
  0
LINE
  5
21D
100
AcDbEntity
  8
SKIZZE
100
AcDbLine
 62
4
  6
CONTINUOUS
 10
106.5145631068
 20
151.6310679612
 11
109.5145631068
 21
151.6310679612
  0
LINE
  5
21E
100
AcDbEntity
  8
SKIZZE
100
AcDbLine
 62
4
  6
CONTINUOUS
 10
100.6211765055
 20
151.8810679612
 11
105.0967426519
 21
151.8810679612
  0
LINE
  5
21F
100
AcDbEntity
  8
SKIZZE
100
AcDbLine
 62
4
  6
CONTINUOUS
 10
88.5145631068
 20
153.3215679612
 11
96.8511015683
 21
153.3215679612
  0
LINE
  5
220
100
AcDbEntity
  8
SKIZZE
100
AcDbLine
 62
4
  6
CONTINUOUS
 10
96.8511015683
 20
153.3215679612
 11
100.1664089281
 21
153.1491719785
  0
LINE
  5
221
100
AcDbEntity
  8
SKIZZE
100
AcDbLine
 62
4
  6
CONTINUOUS
 10
85.5145631068
 20
154.2798100256
 11
86.2145631068
 21
154.2185679612
  0
LINE
  5
222
100
AcDbEntity
  8
SKIZZE
100
AcDbLine
 62
4
  6
CONTINUOUS
 10
105.0967426519
 20
151.8810679612
 11
106.5145631068
 21
151.6310679612
  0
LINE
  5
223
100
AcDbEntity
  8
SKIZZE
100
AcDbLine
 62
4
  6
CONTINUOUS
 10
86.2145631068
 20
154.2185679612
 11
86.8210763142
 21
154.2185679612
  0
LINE
  5
224
100
AcDbEntity
  8
SKIZZE
100
AcDbLine
 62
4
  6
CONTINUOUS
 10
87.1563948538
 20
154.7540679612
 11
88.0145631068
 21
154.7540679612
  0
LINE
  5
225
100
AcDbEntity
  8
SKIZZE
100
AcDbLine
 62
4
  6
CONTINUOUS
 10
100.5441899814
 20
152.7837045551
 11
100.6211765055
 21
151.8810679612
  0
LINE
  5
226
100
AcDbEntity
  8
SKIZZE
100
AcDbLine
 62
4
  6
CONTINUOUS
 10
100.5441899814
 20
162.4784313672
 11
100.6211765055
 21
163.3810679612
  0
LINE
  5
227
100
AcDbEntity
  8
SKIZZE
100
AcDbLine
 62
4
  6
CONTINUOUS
 10
87.1563948538
 20
160.5080679612
 11
88.0145631068
 21
160.5080679612
  0
LINE
  5
228
100
AcDbEntity
  8
SKIZZE
100
AcDbLine
 62
4
  6
CONTINUOUS
 10
86.2145631068
 20
161.0435679612
 11
86.8210763142
 21
161.0435679612
  0
LINE
  5
229
100
AcDbEntity
  8
SKIZZE
100
AcDbLine
 62
4
  6
CONTINUOUS
 10
88.5145631068
 20
161.9405679612
 11
96.8511015683
 21
161.9405679612
  0
LINE
  5
22A
100
AcDbEntity
  8
SKIZZE
100
AcDbLine
 62
4
  6
CONTINUOUS
 10
105.0967426519
 20
163.3810679612
 11
106.5145631068
 21
163.6310679612
  0
LINE
  5
22B
100
AcDbEntity
  8
SKIZZE
100
AcDbLine
 62
4
  6
CONTINUOUS
 10
85.5145631068
 20
160.9823258967
 11
86.2145631068
 21
161.0435679612
  0
LINE
  5
22C
100
AcDbEntity
  8
SKIZZE
100
AcDbLine
 62
4
  6
CONTINUOUS
 10
96.8511015683
 20
161.9405679612
 11
100.1664089281
 21
162.1129639439
  0
LINE
  5
22D
100
AcDbEntity
  8
SKIZZE
100
AcDbLine
 62
4
  6
CONTINUOUS
 10
100.6211765055
 20
163.3810679612
 11
105.0967426519
 21
163.3810679612
  0
LINE
  5
22E
100
AcDbEntity
  8
SKIZZE
100
AcDbLine
 62
4
  6
CONTINUOUS
 10
106.5145631068
 20
163.6310679612
 11
109.5145631068
 21
163.6310679612
  0
ARC
  5
22F
100
AcDbEntity
  8
SKIZZE
100
AcDbCircle
 62
4
  6
CONTINUOUS
 10
109.5145631068
 20
157.6310679612
 40
6.0
100
AcDbArc
 50
270.0
 51
90.0
  0
ARC
  5
230
100
AcDbEntity
  8
SKIZZE
100
AcDbCircle
 62
4
  6
CONTINUOUS
 10
88.0145631068
 20
161.0080679612
 40
0.5
100
AcDbArc
 50
270.0
 51
360.0
  0
ARC
  5
231
100
AcDbEntity
  8
SKIZZE
100
AcDbCircle
 62
4
  6
CONTINUOUS
 10
88.0145631068
 20
154.2540679612
 40
0.5
100
AcDbArc
 50
0.0
 51
90.0
  0
ARC
  5
232
100
AcDbEntity
  8
SKIZZE
100
AcDbCircle
 62
4
  6
CONTINUOUS
 10
100.1456369928
 20
162.5124242382
 40
0.4
100
AcDbArc
 50
272.9766994681
 51
355.125
  0
ARC
  5
233
100
AcDbEntity
  8
SKIZZE
100
AcDbCircle
 62
4
  6
CONTINUOUS
 10
100.1456369928
 20
152.7497116842
 40
0.4
100
AcDbArc
 50
4.875
 51
87.0233005319
  0
ARC
  5
234
100
AcDbEntity
  8
SKIZZE
100
AcDbCircle
 62
4
  6
CONTINUOUS
 10
87.1563948538
 20
160.7580679612
 40
0.25
100
AcDbArc
 50
195.0
 51
270.0
  0
ARC
  5
235
100
AcDbEntity
  8
SKIZZE
100
AcDbCircle
 62
4
  6
CONTINUOUS
 10
87.1563948538
 20
154.5040679612
 40
0.25
100
AcDbArc
 50
90.0
 51
165.0
  0
ENDSEC
  0
SECTION
  2
OBJECTS
  0
DICTIONARY
  5
236
100
AcDbDictionary
  3
ACAD_GROUP
350
237
  3
ACAD_MLINESTYLE
350
238
  0
DICTIONARY
  5
237
102
{ACAD_REACTORS
330
236
102
}
100
AcDbDictionary
  0
DICTIONARY
  5
238
102
{ACAD_REACTORS
330
236
102
}
100
AcDbDictionary
  3
STANDARD
350
239
  0
MLINESTYLE
  5
239
102
{ACAD_REACTORS
330
238
102
}
100
AcDbMlineStyle
  2
STANDARD
 70
0
  3

 62
256
 51
90.0
 52
90.0
 71
2
 49
0.5
 62
256
  6
BYLAYER
 49
-0.5
 62
256
  6
BYLAYER
  0
ENDSEC
  0
EOF
